  0
SECTION
  2
HEADER
  9
$ACADVER
  1
AC1014
  9
$ACADMAINTVER
 70
     9
  9
$DWGCODEPAGE
  3
ANSI_1252
  9
$INSBASE
 10
0.0
 20
0.0
 30
0.0
  9
$EXTMIN
 10
-205.639474873313
 20
-144.895726802165
 30
0.0
  9
$EXTMAX
 10
457.5851496557384
 20
422.0036355130721
 30
0.0
  9
$LIMMIN
 10
0.0
 20
0.0
  9
$LIMMAX
 10
420.0
 20
297.0
  9
$ORTHOMODE
 70
     0
  9
$REGENMODE
 70
     1
  9
$FILLMODE
 70
     1
  9
$QTEXTMODE
 70
     0
  9
$MIRRTEXT
 70
     1
  9
$DRAGMODE
 70
     2
  9
$LTSCALE
 40
8.0
  9
$OSMODE
 70
    37
  9
$ATTMODE
 70
     1
  9
$TEXTSIZE
 40
2.5
  9
$TRACEWID
 40
1.0
  9
$TEXTSTYLE
  7
STANDARD
  9
$CLAYER
  8
TEXT
  9
$CELTYPE
  6
BYLAYER
  9
$CECOLOR
 62
   256
  9
$CELTSCALE
 40
1.0
  9
$DELOBJ
 70
     1
  9
$DISPSILH
 70
     0
  9
$DIMSCALE
 40
1.0
  9
$DIMASZ
 40
2.5
  9
$DIMEXO
 40
1.0
  9
$DIMDLI
 40
3.75
  9
$DIMRND
 40
0.0
  9
$DIMDLE
 40
0.0
  9
$DIMEXE
 40
1.25
  9
$DIMTP
 40
0.0
  9
$DIMTM
 40
0.0
  9
$DIMTXT
 40
2.5
  9
$DIMCEN
 40
2.5
  9
$DIMTSZ
 40
0.0
  9
$DIMTOL
 70
     0
  9
$DIMLIM
 70
     0
  9
$DIMTIH
 70
     0
  9
$DIMTOH
 70
     0
  9
$DIMSE1
 70
     0
  9
$DIMSE2
 70
     0
  9
$DIMTAD
 70
     1
  9
$DIMZIN
 70
     0
  9
$DIMBLK
  1

  9
$DIMASO
 70
     1
  9
$DIMSHO
 70
     1
  9
$DIMPOST
  1

  9
$DIMAPOST
  1

  9
$DIMALT
 70
     0
  9
$DIMALTD
 70
     4
  9
$DIMALTF
 40
0.0394
  9
$DIMLFAC
 40
2.0
  9
$DIMTOFL
 70
     0
  9
$DIMTVP
 40
0.0
  9
$DIMTIX
 70
     0
  9
$DIMSOXD
 70
     0
  9
$DIMSAH
 70
     0
  9
$DIMBLK1
  1

  9
$DIMBLK2
  1

  9
$DIMSTYLE
  2
DIMSTYLE1
  9
$DIMCLRD
 70
     0
  9
$DIMCLRE
 70
     0
  9
$DIMCLRT
 70
     0
  9
$DIMTFAC
 40
1.0
  9
$DIMGAP
 40
0.625
  9
$DIMJUST
 70
     0
  9
$DIMSD1
 70
     0
  9
$DIMSD2
 70
     0
  9
$DIMTOLJ
 70
     1
  9
$DIMTZIN
 70
     0
  9
$DIMALTZ
 70
     0
  9
$DIMALTTZ
 70
     0
  9
$DIMFIT
 70
     0
  9
$DIMUPT
 70
     0
  9
$DIMUNIT
 70
     2
  9
$DIMDEC
 70
     0
  9
$DIMTDEC
 70
     0
  9
$DIMALTU
 70
     8
  9
$DIMALTTD
 70
     4
  9
$DIMTXSTY
  7
ACDINTS
  9
$DIMAUNIT
 70
     0
  9
$LUNITS
 70
     2
  9
$LUPREC
 70
     4
  9
$SKETCHINC
 40
1.0
  9
$FILLETRAD
 40
2.75
  9
$AUNITS
 70
     0
  9
$AUPREC
 70
     0
  9
$MENU
  1
.
  9
$ELEVATION
 40
0.0
  9
$PELEVATION
 40
0.0
  9
$THICKNESS
 40
0.0
  9
$LIMCHECK
 70
     0
  9
$BLIPMODE
 70
     0
  9
$CHAMFERA
 40
10.0
  9
$CHAMFERB
 40
10.0
  9
$CHAMFERC
 40
20.0
  9
$CHAMFERD
 40
0.0
  9
$SKPOLY
 70
     0
  9
$TDCREATE
 40
2451309.675389351
  9
$TDUPDATE
 40
2451883.522188564
  9
$TDINDWG
 40
1.0283184375
  9
$TDUSRTIMER
 40
1.0283184375
  9
$USRTIMER
 70
     1
  9
$ANGBASE
 50
0.0
  9
$ANGDIR
 70
     0
  9
$PDMODE
 70
     0
  9
$PDSIZE
 40
0.0
  9
$PLINEWID
 40
0.0
  9
$COORDS
 70
     1
  9
$SPLFRAME
 70
     0
  9
$SPLINETYPE
 70
     6
  9
$SPLINESEGS
 70
     8
  9
$ATTDIA
 70
     0
  9
$ATTREQ
 70
     1
  9
$HANDLING
 70
-16383
  9
$HANDSEED
  5
55B
  9
$SURFTAB1
 70
     6
  9
$SURFTAB2
 70
     6
  9
$SURFTYPE
 70
     6
  9
$SURFU
 70
     6
  9
$SURFV
 70
     6
  9
$UCSNAME
  2

  9
$UCSORG
 10
0.0
 20
0.0
 30
0.0
  9
$UCSXDIR
 10
1.0
 20
0.0
 30
0.0
  9
$UCSYDIR
 10
0.0
 20
1.0
 30
0.0
  9
$PUCSNAME
  2

  9
$PUCSORG
 10
0.0
 20
0.0
 30
0.0
  9
$PUCSXDIR
 10
1.0
 20
0.0
 30
0.0
  9
$PUCSYDIR
 10
0.0
 20
1.0
 30
0.0
  9
$USERI1
 70
     0
  9
$USERI2
 70
     0
  9
$USERI3
 70
     0
  9
$USERI4
 70
     0
  9
$USERI5
 70
     0
  9
$USERR1
 40
0.0
  9
$USERR2
 40
0.0
  9
$USERR3
 40
0.0
  9
$USERR4
 40
0.0
  9
$USERR5
 40
0.0
  9
$WORLDVIEW
 70
     1
  9
$SHADEDGE
 70
     3
  9
$SHADEDIF
 70
    70
  9
$TILEMODE
 70
     1
  9
$MAXACTVP
 70
    48
  9
$PINSBASE
 10
0.0
 20
0.0
 30
0.0
  9
$PLIMCHECK
 70
     0
  9
$PEXTMIN
 10
-258.3723307138766
 20
-167.0083885478757
 30
0.0
  9
$PEXTMAX
 10
510.3180054963019
 20
426.5286355130721
 30
0.0
  9
$PLIMMIN
 10
-17.79376220703125
 20
-5.793749809265136
  9
$PLIMMAX
 10
261.6062316894531
 20
210.1062440872192
  9
$UNITMODE
 70
     0
  9
$VISRETAIN
 70
     1
  9
$PLINEGEN
 70
     0
  9
$PSLTSCALE
 70
     1
  9
$TREEDEPTH
 70
  3020
  9
$PICKSTYLE
 70
     1
  9
$CMLSTYLE
  2
STANDARD
  9
$CMLJUST
 70
     0
  9
$CMLSCALE
 40
20.0
  9
$PROXYGRAPHICS
 70
     1
  9
$MEASUREMENT
 70
     1
  0
ENDSEC
  0
SECTION
  2
CLASSES
  0
CLASS
  1
ACMESTATEMGR
  2
AcMeStateMgr
  3
AcMeServices
 90
        0
280
     0
281
     0
  0
CLASS
  1
ACMESCOPE
  2
AcMeScope
  3
AcMeServices
 90
        0
280
     0
281
     0
  0
CLASS
  1
ACMECOMMANDHISTORY
  2
AcMeCommandHistory
  3
AcMeServices
 90
        0
280
     0
281
     0
  0
CLASS
  1
ACRFINSADJUSTERMGR
  2
AcRfInsAdjusterMgr
  3
AcMeServices
 90
        0
280
     0
281
     0
  0
CLASS
  1
ACMEDRAWINGMAN
  2
AcMeDrawingMan
  3
AcMeServices
 90
        0
280
     0
281
     0
  0
CLASS
  1
AMATTR
  2
AcMeAttribute
  3
AcMeServices
 90
        0
280
     0
281
     0
  0
CLASS
  1
ACMEBOMCOLUMN
  2
AcMeBOMColumn
  3
AcMeServices
 90
        0
280
     0
281
     0
  0
CLASS
  1
ACANBOMCONF
  2
AcMeBOMConf
  3
AcMeServices
 90
        0
280
     0
281
     0
  0
CLASS
  1
ACMEBOMTABLE
  2
AcMeBOMTable
  3
AcMeServices
 90
        0
280
     0
281
     0
  0
CLASS
  1
ACMEBOMENTRY
  2
AcMeBOMEntry
  3
AcMeServices
 90
        0
280
     0
281
     0
  0
CLASS
  1
ACMEVIEW
  2
AcMeView
  3
AcMeServices
 90
        0
280
     0
281
     0
  0
CLASS
  1
ACGREFMASTER
  2
AcGrefMaster
  3
AcAttribServices
 90
        0
280
     0
281
     0
  0
CLASS
  1
AMIMASTER
  2
AmiMaster
  3
AmiServices
 90
        0
280
     0
281
     0
  0
CLASS
  1
ACASGREFMASTER
  2
AcAsGrefMaster
  3
AutoSurfResolverServices
 90
        0
280
     0
281
     0
  0
CLASS
  1
ADAPPL
  2
AcAdAppl
  3
DesignerServices
 90
        0
280
     0
281
     0
  0
CLASS
  1
DEPMGR
  2
AcAdDepMgr
  3
DesignerServices
 90
        0
280
     0
281
     0
  0
CLASS
  1
PARAMMGR
  2
AcAdParamMgr
  3
DesignerServices
 90
        0
280
     0
281
     0
  0
CLASS
  1
PARAMSCOPE
  2
AcAdParamScope
  3
DesignerServices
 90
        0
280
     0
281
     0
  0
CLASS
  1
ACIMSYSVARMAN
  2
AcImSysVarManager
  3
AcMeServices
 90
        0
280
     0
281
     0
  0
CLASS
  1
ACIMINTSYSVAR
  2
AcImIntSysVar
  3
AcMeServices
 90
        0
280
     0
281
     0
  0
CLASS
  1
ACIMREALSYSVAR
  2
AcImRealSysVar
  3
AcMeServices
 90
        0
280
     0
281
     0
  0
CLASS
  1
ACIMSTRSYSVAR
  2
AcImStrSysVar
  3
AcMeServices
 90
        0
280
     0
281
     0
  0
CLASS
  1
NAMEDAPPL
  2
AcAdNamedAppl
  3
DesignerServices
 90
        0
280
     0
281
     0
  0
CLASS
  1
ADHNTMPLT
  2
AdHoleNoteTemplateMgr
  3
DesignerServices
 90
        0
280
     0
281
     0
  0
CLASS
  1
AM_HNTEMPLATE_MGR_NAME
  2
AdHoleNoteTemplateMgrName
  3
DesignerServices
 90
        0
280
     0
281
     0
  0
CLASS
  1
ACADGREFMODULE
  2
AcAdGrefModule
  3
AdGrefServices
 90
        0
280
     0
281
     0
  0
CLASS
  1
AM_DRAWING_MGR
  2
AcDmDwgMgr
  3
AcMechDwgViewMgmt
 90
        0
280
     0
281
     0
  0
CLASS
  1
AM_DWG_DOCUMENT
  2
AcDmDwgDocument
  3
AcMechDwgViewMgmt
 90
        0
280
     0
281
     0
  0
CLASS
  1
AM_DWG_SHEET
  2
AcDmSheet
  3
AcMechDwgViewMgmt
 90
        0
280
     0
281
     0
  0
CLASS
  1
AM_VIEWDIMPARMAP
  2
AcDmViewDimParMap
  3
AcMechDwgViewMgmt
 90
        0
280
     0
281
     0
  0
CLASS
  1
AM_DWGMGR_NAME
  2
AcDmDwgMgrName
  3
AcMechDwgViewMgmt
 90
        0
280
     0
281
     0
  0
CLASS
  1
ACAMPROJECT
  2
AcAmProject
  3
DesignerAssemblies
 90
        0
280
     0
281
     0
  0
CLASS
  1
ACAMGRCOMPSET
  2
AcAmGrCompSet
  3
DesignerAssemblies
 90
        0
280
     1
281
     0
  0
CLASS
  1
ACAMGRCOMPDEFSET
  2
AcAmGrCompDefSet
  3
DesignerAssemblies
 90
        0
280
     0
281
     0
  0
CLASS
  1
ACAMGRCOMPDEF
  2
AcAmGrCompDef
  3
DesignerAssemblies
 90
        0
280
     0
281
     0
  0
CLASS
  1
ACCMCONTEXT
  2
AcCmContext
  3
DesignerAssemblies
 90
        0
280
     0
281
     0
  0
CLASS
  1
ACAMCOMPDEF
  2
AcAmCompDef
  3
DesignerAssemblies
 90
        0
280
     0
281
     0
  0
CLASS
  1
ACAMCOMPDEFMGR
  2
AcAmCompDefMgr
  3
DesignerAssemblies
 90
        0
280
     0
281
     0
  0
CLASS
  1
AMCONTEXTMGR
  2
AcAmContextMgr
  3
DesignerAssemblies
 90
        0
280
     0
281
     0
  0
CLASS
  1
ACAMCONTEXTMODELER
  2
AcAmContextModeler
  3
DesignerAssemblies
 90
        0
280
     0
281
     0
  0
CLASS
  1
ACDMVIEWGEOM
  2
AcDmViewGeometry
  3
AcMechDwgViewMgmt
 90
        0
280
     0
281
     1
  0
CLASS
  1
CBROWSERAPPOBJECT
  2
CBrowserAppObject
  3
McadcomServices
 90
        0
280
     0
281
     0
  0
CLASS
  1
IM_STATIC_MAN
  2
AcImStaticVarManager
  3
AcMeServices
 90
        0
280
     0
281
     0
  0
CLASS
  1
ASAPP
  2
AcAsAppObject
  3
AutoSurfServices
 90
        0
280
     0
281
     0
  0
CLASS
  1
ACIMDBLSTATICVAR
  2
AcImDblStaticVar
  3
AcMeServices
 90
        0
280
     0
281
     0
  0
CLASS
  1
ACIMSTRSTATICVAR
  2
AcImStrStaticVar
  3
AcMeServices
 90
        0
280
     0
281
     0
  0
CLASS
  1
ACIMINTSTATICVAR
  2
AcImIntStaticVar
  3
AcMeServices
 90
        0
280
     0
281
     0
  0
CLASS
  1
CATALOGSTATE
  2
AcAmCatalogState
  3
DesignerAssemblies
 90
        0
280
     0
281
     0
  0
CLASS
  1
DM_PLACEHOLDER
  2
AcDmSelsetPlaceholder
  3
AcMechDwgViewMgmt
 90
        0
280
     0
281
     0
  0
CLASS
  1
DICTIONARYVAR
  2
AcDbDictionaryVar
  3
AutoCAD 2000
 90
        0
280
     0
281
     0
  0
CLASS
  1
LAYER_INDEX
  2
AcDbLayerIndex
  3
AutoCAD 2000
 90
        0
280
     0
281
     0
  0
CLASS
  1
IDBUFFER
  2
AcDbIdBuffer
  3
AutoCAD 2000
 90
        0
280
     0
281
     0
  0
CLASS
  1
ACMSTANDARDJIS
  2
AcmStandardJIS
  3
"Amdt_StdImp|Product Description: AutoCAD Mechanical 2000|Company: Autodesk"
 90
        0
280
     0
281
     0
  0
CLASS
  1
ACMSTANDARDANSI
  2
AcmStandardANSI
  3
"Amdt_StdImp|Product Description: AutoCAD Mechanical 2000|Company: Autodesk"
 90
        0
280
     0
281
     0
  0
CLASS
  1
ACMSTANDARDBSI
  2
AcmStandardBSI
  3
"Amdt_StdImp|Product Description: AutoCAD Mechanical 2000|Company: Autodesk"
 90
        0
280
     0
281
     0
  0
CLASS
  1
ACMSTANDARDDIN
  2
AcmStandardDIN
  3
"Amdt_StdImp|Product Description: AutoCAD Mechanical 2000|Company: Autodesk"
 90
        0
280
     0
281
     0
  0
CLASS
  1
ACMSTANDARDISO
  2
AcmStandardISO
  3
"Amdt_StdImp|Product Description: AutoCAD Mechanical 2000|Company: Autodesk"
 90
        0
280
     0
281
     0
  0
CLASS
  1
DSDatabasePersistent
  2
DSDatabasePersistent
  3
DesignSpace
 90
        0
280
     1
281
     0
  0
CLASS
  1
DSGfxEntity
  2
DSGfxEntity
  3
DesignSpace
 90
        0
280
     1
281
     1
  0
CLASS
  1
DSGfxEntityMarker
  2
DSGfxEntityMarker
  3
DesignSpace
 90
        0
280
     1
281
     0
  0
CLASS
  1
AGDICTIONARY
  2
AgDictionary
  3
"AccelView"
 90
        1
280
     0
281
     0
  0
CLASS
  1
ACAMEXTERNALCOMPDEF
  2
AcAmExternalCompDef
  3
DesignerAssemblies
 90
        0
280
     0
281
     0
  0
CLASS
  1
ACCMBODY
  2
AcCmBody
  3
DesignerAssemblies
 90
        0
280
     0
281
     0
  0
CLASS
  1
ACAMGRCOMP
  2
AcAmGrComp
  3
DesignerAssemblies
 90
        0
280
     0
281
     0
  0
CLASS
  1
ACAMCOMPFEEDBACK
  2
AcAmCompFeedback
  3
DesignerAssemblies
 90
        0
280
     0
281
     0
  0
CLASS
  1
ACAMCOMP
  2
AcAmComp
  3
DesignerAssemblies
 90
        0
280
     0
281
     0
  0
CLASS
  1
ACAMGRCOMPCLONE
  2
AcAmGrCompClone
  3
DesignerAssemblies
 90
        0
280
     0
281
     0
  0
CLASS
  1
ACAMCLONEREACTOR
  2
AcAmGrCompCloneReactor
  3
DesignerAssemblies
 90
        0
280
     0
281
     0
  0
CLASS
  1
EDGEID
  2
AcAdEdgeId
  3
DesignerServices
 90
        0
280
     0
281
     0
  0
CLASS
  1
ACADPARTLINEDGRES
  2
AcAdPartLinEdgRes
  3
AdGrefServices
 90
        0
280
     0
281
     0
  0
CLASS
  1
ACRFINSADJ
  2
AcRfInsAdjuster
  3
AcMeServices
 90
        0
280
     0
281
     0
  0
CLASS
  1
STREFID
  2
AcAdStraightRefId
  3
DesignerServices
 90
        0
280
     0
281
     0
  0
CLASS
  1
FACEID
  2
AcAdFaceId
  3
DesignerServices
 90
        0
280
     0
281
     0
  0
CLASS
  1
ACADPARTPLANARFACERES
  2
AcAdPartPlanarFaceRes
  3
AdGrefServices
 90
        0
280
     0
281
     0
  0
CLASS
  1
DEPEDGESECONDARYDEPID
  2
AcAdDepEdgeSecondaryDepId
  3
DesignerServices
 90
        0
280
     0
281
     0
  0
CLASS
  1
ACMEAXIS
  2
AcImAxisDisplay
  3
AcMeServices
 90
        0
280
     0
281
     1
  0
CLASS
  1
ACMELINEARARROW
  2
AcImLinearArrowDisplay
  3
AcMeServices
 90
        0
280
     0
281
     1
  0
CLASS
  1
ACMEPOINT
  2
AcImPointDisplay
  3
AcMeServices
 90
        0
280
     0
281
     1
  0
CLASS
  1
ACAMEXPR
  2
AcAmExpr
  3
DesignerAssemblies
 90
        0
280
     0
281
     0
  0
CLASS
  1
ACCMDISTPLPL
  2
AcCmDistPlPl
  3
DesignerAssemblies
 90
        0
280
     0
281
     0
  0
CLASS
  1
ACADPARTCIRCEDGRES
  2
AcAdPartCircEdgRes
  3
AdGrefServices
 90
        0
280
     0
281
     0
  0
CLASS
  1
CIRREFID
  2
AcAdCircleRefId
  3
DesignerServices
 90
        0
280
     0
281
     0
  0
CLASS
  1
ACADPARTCYLINDERFACERES
  2
AcAdPartCylinderFaceRes
  3
AdGrefServices
 90
        0
280
     0
281
     0
  0
CLASS
  1
ACCMDISTPTLN
  2
AcCmDistPtLn
  3
DesignerAssemblies
 90
        0
280
     0
281
     0
  0
CLASS
  1
ACCMDISTPTPT
  2
AcCmDistPtPt
  3
DesignerAssemblies
 90
        0
280
     0
281
     0
  0
CLASS
  1
ACMECIRCARC
  2
AcImCircArcDisplay
  3
AcMeServices
 90
        0
280
     0
281
     1
  0
CLASS
  1
ACCMINSERTPLPL
  2
AcCmInsertPlPl
  3
AcCmServices
 90
        0
280
     0
281
     0
  0
CLASS
  1
ACCMANGVECVEC
  2
AcCmAngVecVec
  3
DesignerAssemblies
 90
        0
280
     0
281
     0
  0
CLASS
  1
FEEDBACK
  2
AcAmFeedback
  3
DesignerAssemblies
 90
        0
280
     0
281
     1
  0
CLASS
  1
ACAMTRIAXISSYMBOL
  2
AcAmTriAxisSymbol
  3
DesignerAssemblies
 90
        0
280
     0
281
     0
  0
CLASS
  1
ACAMROTVECTORSYMBOL
  2
AcAmRotVectorSymbol
  3
DesignerAssemblies
 90
        0
280
     0
281
     0
  0
CLASS
  1
ACAMVECTORSYMBOL
  2
AcAmVectorSymbol
  3
DesignerAssemblies
 90
        0
280
     0
281
     0
  0
CLASS
  1
ACAMTEXTCIRCLESYMBOL
  2
AcAmTextCircleSymbol
  3
DesignerAssemblies
 90
        0
280
     0
281
     0
  0
CLASS
  1
ACADPARTAXISRES
  2
AcAdPartAxisRes
  3
AdGrefServices
 90
        0
280
     0
281
     0
  0
CLASS
  1
ACRFATTGENMGR
  2
AcRfAttGeneralMgr
  3
AcAttribServices
 90
        0
280
     0
281
     0
  0
CLASS
  1
ACCMDISTLNLN
  2
AcCmDistLnLn
  3
DesignerAssemblies
 90
        0
280
     0
281
     0
  0
CLASS
  1
ACMEROTATIONARROW
  2
AcImRotationArrowDisplay
  3
AcMeServices
 90
        0
280
     0
281
     1
  0
CLASS
  1
ADPART
  2
AcAdPart
  3
DesignerServices
 90
        0
280
     0
281
     1
  0
CLASS
  1
ADBASE
  2
AcAdBase
  3
DesignerServices
 90
        0
280
     0
281
     0
  0
CLASS
  1
BODYID
  2
AcAdBodyId
  3
DesignerServices
 90
        0
280
     0
281
     0
  0
CLASS
  1
WORKPLANEDISPLAYMGR
  2
AcAdDisplayMgr
  3
DesignerServices
 90
        0
280
     0
281
     0
  0
CLASS
  1
ADDATUMPLANEABS
  2
AcAdDatumPlaneAbs
  3
DesignerServices
 90
        0
280
     0
281
     0
  0
CLASS
  1
ADDATUMAXISABS
  2
AcAdDatumAxisAbs
  3
DesignerServices
 90
        0
280
     0
281
     0
  0
CLASS
  1
ADDATUMORIENTEDPLANE
  2
AcAdDatumOrientedPlane
  3
DesignerServices
 90
        0
280
     0
281
     0
  0
CLASS
  1
ACAMGRBLOCKRECORD
  2
AcAmGrBlockRecord
  3
DesignerAssemblies
 90
        0
280
     0
281
     0
  0
CLASS
  1
ACAMVIEWREACTOR
  2
AcAmViewReactor
  3
DesignerAssemblies
 90
        0
280
     0
281
     0
  0
CLASS
  1
AMVIEW
  2
AcAmView
  3
DesignerAssemblies
 90
        0
280
     0
281
     0
  0
CLASS
  1
ACAMVIEWCONTEXT
  2
AcAmViewContext
  3
DesignerAssemblies
 90
        0
280
     0
281
     0
  0
CLASS
  1
ACAMCOMPVIEWREACTOR
  2
AcAmGrCompViewReactor
  3
DesignerAssemblies
 90
        0
280
     0
281
     0
  0
CLASS
  1
ACAMGRCOMPVIEW
  2
AcAmGrCompView
  3
DesignerAssemblies
 90
        0
280
     0
281
     0
  0
CLASS
  1
AM_VIEW_SELECT_FILTER
  2
AcDmSelectViewEntFilter
  3
AcMechDwgViewMgmt
 90
        0
280
     0
281
     0
  0
CLASS
  1
AM_ABS_PLANE
  2
AcDmAbsPlnDef
  3
AcMechDwgViewMgmt
 90
        0
280
     0
281
     0
  0
CLASS
  1
AM_ABS_AXIS
  2
AcDmAbsAxisDef
  3
AcMechDwgViewMgmt
 90
        0
280
     0
281
     0
  0
CLASS
  1
AM_BASE_VIEW_ORIENT
  2
AcDmBaseViewOr
  3
AcMechDwgViewMgmt
 90
        0
280
     0
281
     0
  0
CLASS
  1
AM_DWG_VIEWPORT
  2
AcDmViewport
  3
AcMechDwgViewMgmt
 90
        0
280
     0
281
     0
  0
CLASS
  1
AM_VIEW_DISPLAY
  2
AcDmDwgViewDisplay
  3
AcMechDwgViewMgmt
 90
        0
280
     0
281
     0
  0
CLASS
  1
AM_BASE_VIEW
  2
AcDmBaseView
  3
AcMechDwgViewMgmt
 90
        0
280
     0
281
     0
  0
CLASS
  1
ACDMVWEDARC
  2
AcDmViewEdgeArc
  3
AcMechDwgViewMgmt
 90
        0
280
     0
281
     1
  0
CLASS
  1
ACDMVWEDCIRC
  2
AcDmViewEdgeCircle
  3
AcMechDwgViewMgmt
 90
        0
280
     0
281
     1
  0
CLASS
  1
ACDMVWEDLINE
  2
AcDmViewEdgeLine
  3
AcMechDwgViewMgmt
 90
        0
280
     0
281
     1
  0
CLASS
  1
ACDMVWEDSPLINE
  2
AcDmViewEdgeSpline
  3
AcMechDwgViewMgmt
 90
        0
280
     0
281
     1
  0
CLASS
  1
CNRREFID
  2
AcAdCornerId
  3
DesignerServices
 90
        0
280
     0
281
     0
  0
CLASS
  1
ACADPARTPOINTRES
  2
AcAdPartPointRes
  3
AdGrefServices
 90
        0
280
     0
281
     0
  0
CLASS
  1
AM_DETAIL_VIEW
  2
AcDmDetailView
  3
AcMechDwgViewMgmt
 90
        0
280
     0
281
     0
  0
CLASS
  1
AM_ORTHO_VIEW_ORIENT
  2
AcDmOrthoViewOr
  3
AcMechDwgViewMgmt
 90
        0
280
     0
281
     0
  0
CLASS
  1
AM_ORTHO_VIEW
  2
AcDmOrthoView
  3
AcMechDwgViewMgmt
 90
        0
280
     0
281
     0
  0
CLASS
  1
AM_DETAILSYMBOL
  2
AcDmDetailSymbol
  3
AcMechDwgViewMgmt
 90
        0
280
     0
281
     0
  0
CLASS
  1
AM_DETAILVWLBL
  2
AcDmDetailViewLabel
  3
AcMechDwgViewMgmt
 90
        0
280
     0
281
     0
  0
CLASS
  1
ACAMROTAXISSYMBOL
  2
AcAmRotAxisSymbol
  3
DesignerAssemblies
 90
        0
280
     0
281
     0
  0
CLASS
  1
LWPOLYLINE
  2
AcDbPolyline
  3
AutoCAD 2000
 90
        0
280
     0
281
     1
  0
CLASS
  1
AM_USERDEFNNOTE
  2
AcDmUserDefnNote
  3
AcMechDwgViewMgmt
 90
        0
280
     0
281
     0
  0
CLASS
  1
AM_CIRCTRLINE
  2
AcDmBullsEyeCl
  3
AcMechDwgViewMgmt
 90
        0
280
     0
281
     0
  0
CLASS
  1
AM_AUX_VIEW_ORIENT
  2
AcDmAuxViewOr
  3
AcMechDwgViewMgmt
 90
        0
280
     0
281
     0
  0
CLASS
  1
AM_AUXILIARY_VIEW
  2
AcDmAuxView
  3
AcMechDwgViewMgmt
 90
        0
280
     0
281
     0
  0
CLASS
  1
DATUMPLANEDISPLAY
  2
AcAdDatumPlaneDisplay
  3
DesignerServices
 90
        0
280
     0
281
     1
  0
CLASS
  1
ADDATUMPLANEAXISAXIS
  2
AcAdDatumPlaneAxisAxis
  3
DesignerServices
 90
        0
280
     0
281
     0
  0
CLASS
  1
ACADCIRCLEACAD
  2
AcAdVirtualCircleAcad
  3
DesignerServices
 90
        0
280
     0
281
     0
  0
CLASS
  1
ACADREFLINEACAD
  2
AcAdVirtualReferenceLine
  3
DesignerServices
 90
        0
280
     0
281
     0
  0
CLASS
  1
ACADCONSLINE
  2
AcAdConstrainedLine
  3
DesignerServices
 90
        0
280
     0
281
     0
  0
CLASS
  1
ACADCONSGROUP
  2
AcAdConstraintGroup
  3
DesignerServices
 90
        0
280
     0
281
     0
  0
CLASS
  1
ACADCONSCIRCLE
  2
AcAdConstrainedCircle
  3
DesignerServices
 90
        0
280
     0
281
     0
  0
CLASS
  1
ACADCONSPOINT
  2
AcAdConstrainedPoint
  3
DesignerServices
 90
        0
280
     0
281
     0
  0
CLASS
  1
ACADIMPPTACAD
  2
AcAdVirtualImplicitPoint
  3
DesignerServices
 90
        0
280
     0
281
     0
  0
CLASS
  1
ADCTRPTCNS
  2
AcAdCenterPointConstr
  3
DesignerServices
 90
        0
280
     0
281
     0
  0
CLASS
  1
ADCLPROF2D
  2
AcAdClosedProfile2d
  3
DesignerServices
 90
        0
280
     0
281
     0
  0
CLASS
  1
PARAM
  2
AcAdParam
  3
DesignerServices
 90
        0
280
     0
281
     0
  0
CLASS
  1
ADDIACNS
  2
AcAdAcadDiameterConstr
  3
DesignerServices
 90
        0
280
     0
281
     0
  0
CLASS
  1
ADEXTRUSIONBLIND
  2
AcAdExtrusionBlind
  3
DesignerServices
 90
        0
280
     0
281
     0
  0
CLASS
  1
DEPEDGEFEATUREORDERING
  2
AcAdDepEdgeFeatureOrdering
  3
DesignerServices
 90
        0
280
     0
281
     0
  0
CLASS
  1
ADPLANEID
  2
AcAdPlaneId
  3
DesignerServices
 90
        0
280
     0
281
     0
  0
CLASS
  1
ADDATUMPLANEFACE
  2
AcAdDatumPlaneFace
  3
DesignerServices
 90
        0
280
     0
281
     0
  0
CLASS
  1
ADPLANEID
  2
AcAdSurfGeomId
  3
DesignerServices
 90
        0
280
     0
281
     0
  0
CLASS
  1
ADDATUMAXISCENTER
  2
AcAdDatumAxisCenter
  3
DesignerServices
 90
        0
280
     0
281
     0
  0
CLASS
  1
ADDATUMPOINTAXISPLANE
  2
AcAdDatumPointAxisPlane
  3
DesignerServices
 90
        0
280
     0
281
     0
  0
CLASS
  1
ADHOLEFEAT
  2
AcAdHoleFeat
  3
DesignerServices
 90
        0
280
     0
281
     0
  0
CLASS
  1
HATCH
  2
AcDbHatch
  3
AutoCAD 2000
 90
        0
280
     0
281
     1
  0
CLASS
  1
SILEDGEID
  2
AcAdSilhouetteEdgeId
  3
DesignerServices
 90
        0
280
     0
281
     0
  0
CLASS
  1
AM_PERPCTRLINE
  2
AcDmLineCl
  3
AcMechDwgViewMgmt
 90
        0
280
     0
281
     0
  0
CLASS
  1
ACAMVIEWENTITYFILTER
  2
AcAmViewEntityFilter
  3
DesignerAssemblies
 90
        0
280
     0
281
     0
  0
CLASS
  1
AM_ISO_VIEW_ORIENT
  2
AcDmIsoViewOr
  3
AcMechDwgViewMgmt
 90
        0
280
     0
281
     0
  0
CLASS
  1
AM_ISO_VIEW
  2
AcDmIsoView
  3
AcMechDwgViewMgmt
 90
        0
280
     0
281
     0
  0
CLASS
  1
ACADPARTSPLINEEDGERES
  2
AcAdPartSplineEdgeRes
  3
AdGrefServices
 90
        0
280
     0
281
     0
  0
CLASS
  1
SURFACEID
  2
AcAdSurfaceId
  3
DesignerServices
 90
        0
280
     0
281
     0
  0
CLASS
  1
AM_GREF_PLANE
  2
AcDmGrefPlnDef
  3
AcMechDwgViewMgmt
 90
        0
280
     0
281
     0
  0
CLASS
  1
AM_GREF_AXIS
  2
AcDmGrefAxisDef
  3
AcMechDwgViewMgmt
 90
        0
280
     0
281
     0
  0
CLASS
  1
AM_VIEWDIMLINEAR
  2
AcDmViewDimLinear
  3
AcMechDwgViewMgmt
 90
        0
280
     0
281
     0
  0
CLASS
  1
AM_VIEWDIMPARALLEL
  2
AcDmViewDimParallel
  3
AcMechDwgViewMgmt
 90
        0
280
     0
281
     0
  0
CLASS
  1
ACADPARTCONICALFACERES
  2
AcAdPartConicalFaceRes
  3
AdGrefServices
 90
        0
280
     0
281
     0
  0
CLASS
  1
ACADPARTTORUSFACERES
  2
AcAdPartTorusFaceRes
  3
AdGrefServices
 90
        0
280
     0
281
     0
  0
CLASS
  1
ACADLINEACAD
  2
AcAdVirtualBoundedLineAcad
  3
DesignerServices
 90
        0
280
     0
281
     0
  0
CLASS
  1
ACADARCACAD
  2
AcAdVirtualArcAcad
  3
DesignerServices
 90
        0
280
     0
281
     0
  0
CLASS
  1
ADPCURCNS
  2
AcAdPointCurveConstr
  3
DesignerServices
 90
        0
280
     0
281
     0
  0
CLASS
  1
ADVERCNS
  2
AcAdVerticalConstr
  3
DesignerServices
 90
        0
280
     0
281
     0
  0
CLASS
  1
ADHORCNS
  2
AcAdHorizontalConstr
  3
DesignerServices
 90
        0
280
     0
281
     0
  0
CLASS
  1
ADTANCNS
  2
AcAdTangentConstr
  3
DesignerServices
 90
        0
280
     0
281
     0
  0
CLASS
  1
ADEQRADCNS
  2
AcAdEqualRadiusConstr
  3
DesignerServices
 90
        0
280
     0
281
     0
  0
CLASS
  1
ADHDISTCNS
  2
AcAdHorizontalDistanceConstr
  3
DesignerServices
 90
        0
280
     0
281
     0
  0
CLASS
  1
ADVDISTCNS
  2
AcAdVerticalDistanceConstr
  3
DesignerServices
 90
        0
280
     0
281
     0
  0
CLASS
  1
ADRADCNS
  2
AcAdAcadRadiusConstr
  3
DesignerServices
 90
        0
280
     0
281
     0
  0
CLASS
  1
ADDATUMPOINT2EDGES
  2
AcAdDatumPoint2Edges
  3
DesignerServices
 90
        0
280
     0
281
     0
  0
CLASS
  1
ADFEATRECTARRAY
  2
AcAdRectangularFeatArray
  3
DesignerServices
 90
        0
280
     0
281
     0
  0
CLASS
  1
ADBDISTCNS
  2
AcAdAcadAngleConstr
  3
DesignerServices
 90
        0
280
     0
281
     0
  0
CLASS
  1
ADLDISTCNS
  2
AcAdLinearDistanceConstr
  3
DesignerServices
 90
        0
280
     0
281
     0
  0
CLASS
  1
ADSTRAIGHTID
  2
AcAdStraightId
  3
DesignerServices
 90
        0
280
     0
281
     0
  0
CLASS
  1
ADDATUMAXISEDGE
  2
AcAdDatumAxisEdge
  3
DesignerServices
 90
        0
280
     0
281
     0
  0
CLASS
  1
ADDATUMPOINT2HOLES
  2
AcAdDatumPoint2Holes
  3
DesignerServices
 90
        0
280
     0
281
     0
  0
CLASS
  1
ADVIRTUALCONTAINER
  2
AcAdVirtualContainer
  3
DesignerServices
 90
        0
280
     0
281
     0
  0
CLASS
  1
ADVIRTUALVERTEX
  2
AcAdVirtualVertex
  3
DesignerServices
 90
        0
280
     0
281
     0
  0
CLASS
  1
ACADPLLINEACAD
  2
AcAdVirtualLinePlineAcad
  3
DesignerServices
 90
        0
280
     0
281
     0
  0
CLASS
  1
ADPARAMETRICBOOLEAN
  2
AcAdParametricBoolean
  3
DesignerServices
 90
        0
280
     0
281
     0
  0
CLASS
  1
ADFILLET
  2
AcAdFillet
  3
DesignerServices
 90
        0
280
     0
281
     0
  0
CLASS
  1
DEPEDGEPARAMETRCBOOLORDERING
  2
AcAdDepEdgeParametricBooleanOrdering
  3
DesignerServices
 90
        0
280
     0
281
     0
  0
CLASS
  1
ACCMDISTLNPL
  2
AcCmDistLnPl
  3
AcCmServices
 90
        0
280
     0
281
     0
  0
CLASS
  1
ACAMTOOLBODYCOMP
  2
AcAmToolBodyComp
  3
DesignerAssemblies
 90
        0
280
     0
281
     0
  0
CLASS
  1
ACAMBLANKBODYCOMP
  2
AcAmBlankBodyComp
  3
DesignerAssemblies
 90
        0
280
     0
281
     0
  0
CLASS
  1
ACAMCLONECHILDREACTOR
  2
AcAmGrCloneChildReactor
  3
DesignerAssemblies
 90
        0
280
     0
281
     0
  0
CLASS
  1
ACADPLARCACAD
  2
AcAdVirtualArcPlineAcad
  3
DesignerServices
 90
        0
280
     0
281
     0
  0
CLASS
  1
ADPARCNS
  2
AcAdParallelConstr
  3
DesignerServices
 90
        0
280
     0
281
     0
  0
CLASS
  1
ADPDISTCNS
  2
AcAdParallelDistanceConstr
  3
DesignerServices
 90
        0
280
     0
281
     0
  0
CLASS
  1
DATUMAXISDISPLAY
  2
AcAdDatumAxisDisplay
  3
DesignerServices
 90
        0
280
     0
281
     1
  0
CLASS
  1
HVREFID
  2
AcAdHVRefId
  3
DesignerServices
 90
        0
280
     0
281
     0
  0
CLASS
  1
ADVIRTUALPOINTWORKPOINTFREE
  2
AcAdVirtualPointWorkPointFree
  3
DesignerServices
 90
        0
280
     0
281
     0
  0
CLASS
  1
ACADLINEDEPID
  2
AcAdVirtualPointDepId
  3
DesignerServices
 90
        0
280
     0
281
     0
  0
CLASS
  1
ADWORKPOINTDISPLAY
  2
AcAdWorkPointDisplay
  3
DesignerServices
 90
        0
280
     0
281
     1
  0
CLASS
  1
ADWORKPOINTSKETCH
  2
AcAdWorkPointSketch
  3
DesignerServices
 90
        0
280
     0
281
     0
  0
CLASS
  1
ACADCIRCDEPID
  2
AcAdVirtualCircleDepId
  3
DesignerServices
 90
        0
280
     0
281
     0
  0
CLASS
  1
ADCONCCNS
  2
AcAdConcentricConstr
  3
DesignerServices
 90
        0
280
     0
281
     0
  0
CLASS
  1
ACADPARTDATUMPOINTRES
  2
AcAdPartDatumPointRes
  3
AdGrefServices
 90
        0
280
     0
281
     0
  0
CLASS
  1
ADDATUMPLANEOFFSET
  2
AcAdDatumPlaneOffset
  3
DesignerServices
 90
        0
280
     0
281
     0
  0
CLASS
  1
ACADBOUNDEDLINEDATUMID
  2
AcAdVirtualBoundedLineDatumId
  3
DesignerServices
 90
        0
280
     0
281
     0
  0
CLASS
  1
ADREVOLUTIONFULL
  2
AcAdRevolutionFull
  3
DesignerServices
 90
        0
280
     0
281
     0
  0
CLASS
  1
ADEXTRUSIONTHRU
  2
AcAdExtrusionThru
  3
DesignerServices
 90
        0
280
     0
281
     0
  0
CLASS
  1
ADCOLNCNS
  2
AcAdColinearConstr
  3
DesignerServices
 90
        0
280
     0
281
     0
  0
CLASS
  1
ADDATUMPLANEAXISPLANE
  2
AcAdDatumPlaneAxisPlane
  3
DesignerServices
 90
        0
280
     0
281
     0
  0
CLASS
  1
ADDATUMPLANETANGENTPLANE
  2
AcAdDatumPlaneTangentPlane
  3
DesignerServices
 90
        0
280
     0
281
     0
  0
CLASS
  1
ADEXTRUSIONMIDPLANE
  2
AcAdExtrusionMidplane
  3
DesignerServices
 90
        0
280
     0
281
     0
  0
CLASS
  1
ACDBDICTIONARYWDFLT
  2
AcDbDictionaryWithDefault
  3
AutoCAD 2000
 90
        0
280
     0
281
     0
  0
CLASS
  1
ACDBPLACEHOLDER
  2
AcDbPlaceHolder
  3
AutoCAD 2000
 90
        0
280
     0
281
     0
  0
CLASS
  1
LAYOUT
  2
AcDbLayout
  3
AutoCAD 2000
 90
        0
280
     0
281
     0
  0
CLASS
  1
ACME_DOCUMENT
  2
AcMeDbDoc
  3
AcMeServices
 90
        0
280
     0
281
     0
  0
CLASS
  1
AMGOBJPROPCFG
  2
AmgObjPropCfg
  3
"AmgLay|Product Description: AutoCAD Mechanical 2000|Company: Autodesk"
 90
        1
280
     0
281
     0
  0
CLASS
  1
AMGSETTINGSOBJ
  2
AmgSettingsObj
  3
"AcadM|Product Description: AutoCAD Mechanical 2000|Company: Autodesk"
 90
        0
280
     0
281
     0
  0
CLASS
  1
ACDBENTITYCACHE
  2
AcMeEntityCache
  3
AcMeServices
 90
        0
280
     0
281
     0
  0
CLASS
  1
GSMANAGER
  2
AcMeGSManager
  3
AcMeServices
 90
        0
280
     0
281
     0
  0
CLASS
  1
AmdtInternalReactor
  2
AmdtInternalReactor
  3
AcMeServices
 90
        0
280
     0
281
     0
  0
CLASS
  1
ACME_DATABASE
  2
AcMeDbDatabase
  3
AcMeServices
 90
        0
280
     0
281
     0
  0
CLASS
  1
ACGREFMASTER
  2
AcGrefacadMaster
  3
AcGrefServices
 90
        0
280
     0
281
     0
  0
CLASS
  1
AMDTMENUSTATEMGR
  2
AmdtMenuStateMgr
  3
McadcomServices
 90
        0
280
     0
281
     0
  0
CLASS
  1
AMDTMCOMMENUSTATE
  2
AmdtMcomMenuState
  3
McadcomServices
 90
        0
280
     0
281
     0
  0
CLASS
  1
AmdtMApiSurfModule
  2
AmdtMApiSurfModule
  3
MApiSurfServices
 90
        0
280
     0
281
     0
  0
CLASS
  1
MAPIAMMOUDLE
  2
MApiAmModule
  3
MApiAmServices
 90
        0
280
     0
281
     0
  0
CLASS
  1
AMDTADMENUSTATE
  2
AmdtAdMenuState
  3
DesignerServices
 90
        0
280
     0
281
     0
  0
CLASS
  1
AMDTDMMENUSTATE
  2
AmdtDmMenuState
  3
AcMechDwgViewMgmt
 90
        0
280
     0
281
     0
  0
CLASS
  1
MAPIADMODULE
  2
MApiAdModule
  3
MApiAdServices
 90
        0
280
     0
281
     0
  0
CLASS
  1
AMDTAMMENUSTATE
  2
AmdtAmMenuState
  3
DesignerAssemblies
 90
        0
280
     0
281
     0
  0
CLASS
  1
ACAMCOMPENT
  2
AcAmCompEnt
  3
DesignerAssemblies
 90
        0
280
     0
281
     1
  0
CLASS
  1
ACAMCOMPENTCLONE
  2
AcAmCompEntClone
  3
DesignerAssemblies
 90
        0
280
     0
281
     1
  0
CLASS
  1
ACCMCONSTREACTOR
  2
AcCmConstraintReactor
  3
DesignerAssemblies
 90
        0
280
     0
281
     0
  0
CLASS
  1
ACAD_FIXCONSTRAINT
  2
AcAdFixedConstraint
  3
DesignerServices
 90
        0
280
     0
281
     0
  0
CLASS
  1
ACMDATADICTIONARY
  2
AcmDataDictionary
  3
"AcmSymBB|Product Description: AutoCAD Mechanical 2000|Company: Autodesk"
 90
        0
280
     0
281
     0
  0
CLASS
  1
ACMDATAENTRYBLOCK
  2
AcmDataEntryBlock
  3
"AcmSymBB|Product Description: AutoCAD Mechanical 2000|Company: Autodesk"
 90
        0
280
     0
281
     0
  0
CLASS
  1
AMDTFORMULAUPDATEDISPATCHER
  2
AmdtFormulaUpdateDispatcher
  3
AcMeServices
 90
        0
280
     0
281
     0
  0
CLASS
  1
ACMSURFSTANDARDJIS
  2
AcmSurfTextStdJIS
  3
"Amdt_StdImp|Product Description: AutoCAD Mechanical 2000|Company: Autodesk"
 90
        0
280
     0
281
     0
  0
CLASS
  1
ACMFCFSTANDARDJIS
  2
AcmFCFStdJIS
  3
"Amdt_StdImp|Product Description: AutoCAD Mechanical 2000|Company: Autodesk"
 90
        0
280
     0
281
     0
  0
CLASS
  1
ACMWELDSTANDARDJIS
  2
AcmWeldingStdJIS
  3
"Amdt_StdImp|Product Description: AutoCAD Mechanical 2000|Company: Autodesk"
 90
        0
280
     0
281
     0
  0
CLASS
  1
ACMIDSTANDARDJIS
  2
AcmIdStdJIS
  3
"Amdt_StdImp|Product Description: AutoCAD Mechanical 2000|Company: Autodesk"
 90
        0
280
     0
281
     0
  0
CLASS
  1
ACMDATUMSTANDARDJIS
  2
AcmDatumStdJIS
  3
"Amdt_StdImp|Product Description: AutoCAD Mechanical 2000|Company: Autodesk"
 90
        0
280
     0
281
     0
  0
CLASS
  1
ACMBOMSTANDARDJIS
  2
AcmBOMStdJIS
  3
"Amdt_StdImp|Product Description: AutoCAD Mechanical 2000|Company: Autodesk"
 90
        0
280
     0
281
     0
  0
CLASS
  1
ACMDETAILSTANDARDJIS
  2
AmdtDetailSymStdJIS
  3
"Amdt_StdImp|Product Description: AutoCAD Mechanical 2000|Company: Autodesk"
 90
        0
280
     0
281
     0
  0
CLASS
  1
ACMSECTIONSTANDARDJIS
  2
AmdtSectionSymStdJIS
  3
"Amdt_StdImp|Product Description: AutoCAD Mechanical 2000|Company: Autodesk"
 90
        0
280
     0
281
     0
  0
CLASS
  1
ACMCENTERLINESTANDARDJIS
  2
AmdtCenterLineStdJIS
  3
"Amdt_StdImp|Product Description: AutoCAD Mechanical 2000|Company: Autodesk"
 90
        0
280
     0
281
     0
  0
CLASS
  1
ACMThreadLineSTANDARDJIS
  2
AmdtThreadLineStdJIS
  3
"Amdt_StdImp|Product Description: AutoCAD Mechanical 2000|Company: Autodesk"
 90
        0
280
     0
281
     0
  0
CLASS
  1
"AcAmgLayStd"
  2
AcAmgLayStd
  3
"AcAmgLayStd|Product Description: AutoCAD Mechanical 2000|Company: Autodesk"
 90
        0
280
     0
281
     0
  0
CLASS
  1
"AcAmgDimStd"
  2
AcAmgDimStd
  3
"AcAmgDimStd|Product Description: AutoCAD Mechanical 2000|Company: Autodesk"
 90
        0
280
     0
281
     0
  0
CLASS
  1
AcAmgTitleStd
  2
AcAmgTitleStd
  3
"TITLEAPP"
 90
        0
280
     0
281
     0
  0
CLASS
  1
AMDTEDGESTANDARDISO
  2
AmdtEdgeStdISO
  3
"Amdt_StdImp|Product Description: AutoCAD Mechanical 2000|Company: Autodesk"
 90
        0
280
     0
281
     0
  0
CLASS
  1
ACMSURFSTANDARDISO
  2
AcmSurfTextStdISO
  3
"Amdt_StdImp|Product Description: AutoCAD Mechanical 2000|Company: Autodesk"
 90
        0
280
     0
281
     0
  0
CLASS
  1
ACMFCFSTANDARDISO
  2
AcmFCFStdISO
  3
"Amdt_StdImp|Product Description: AutoCAD Mechanical 2000|Company: Autodesk"
 90
        0
280
     0
281
     0
  0
CLASS
  1
ACMWELDSTANDARDISO
  2
AcmWeldingStdISO
  3
"Amdt_StdImp|Product Description: AutoCAD Mechanical 2000|Company: Autodesk"
 90
        0
280
     0
281
     0
  0
CLASS
  1
ACMIDSTANDARDISO
  2
AcmIdStdISO
  3
"Amdt_StdImp|Product Description: AutoCAD Mechanical 2000|Company: Autodesk"
 90
        0
280
     0
281
     0
  0
CLASS
  1
ACMDATUMSTANDARDISO
  2
AcmDatumStdISO
  3
"Amdt_StdImp|Product Description: AutoCAD Mechanical 2000|Company: Autodesk"
 90
        0
280
     0
281
     0
  0
CLASS
  1
ACMBOMSTANDARDISO
  2
AcmBOMStdISO
  3
"Amdt_StdImp|Product Description: AutoCAD Mechanical 2000|Company: Autodesk"
 90
        0
280
     0
281
     0
  0
CLASS
  1
ACMDETAILSTANDARDISO
  2
AmdtDetailSymStdISO
  3
"Amdt_StdImp|Product Description: AutoCAD Mechanical 2000|Company: Autodesk"
 90
        0
280
     0
281
     0
  0
CLASS
  1
ACMSECTIONSTANDARDISO
  2
AmdtSectionSymStdISO
  3
"Amdt_StdImp|Product Description: AutoCAD Mechanical 2000|Company: Autodesk"
 90
        0
280
     0
281
     0
  0
CLASS
  1
ACMCENTERLINESTANDARDISO
  2
AmdtCenterLineStdISO
  3
"Amdt_StdImp|Product Description: AutoCAD Mechanical 2000|Company: Autodesk"
 90
        0
280
     0
281
     0
  0
CLASS
  1
ACMThreadLineSTANDARDISO
  2
AmdtThreadLineStdISO
  3
"Amdt_StdImp|Product Description: AutoCAD Mechanical 2000|Company: Autodesk"
 90
        0
280
     0
281
     0
  0
CLASS
  1
ACMSURFSTANDARDANSI
  2
AcmSurfTextStdANSI
  3
"Amdt_StdImp|Product Description: AutoCAD Mechanical 2000|Company: Autodesk"
 90
        0
280
     0
281
     0
  0
CLASS
  1
ACMFCFSTANDARDANSI
  2
AcmFCFStdANSI
  3
"Amdt_StdImp|Product Description: AutoCAD Mechanical 2000|Company: Autodesk"
 90
        0
280
     0
281
     0
  0
CLASS
  1
ACMWELDSTANDARDANSI
  2
AcmWeldingStdANSI
  3
"Amdt_StdImp|Product Description: AutoCAD Mechanical 2000|Company: Autodesk"
 90
        0
280
     0
281
     0
  0
CLASS
  1
ACMIDSTANDARDANSI
  2
AcmIdStdANSI
  3
"Amdt_StdImp|Product Description: AutoCAD Mechanical 2000|Company: Autodesk"
 90
        0
280
     0
281
     0
  0
CLASS
  1
ACMDATUMSTANDARDANSI
  2
AcmDatumStdANSI
  3
"Amdt_StdImp|Product Description: AutoCAD Mechanical 2000|Company: Autodesk"
 90
        0
280
     0
281
     0
  0
CLASS
  1
ACMBOMSTANDARDANSI
  2
AcmBOMStdANSI
  3
"Amdt_StdImp|Product Description: AutoCAD Mechanical 2000|Company: Autodesk"
 90
        0
280
     0
281
     0
  0
CLASS
  1
ACMDETAILSTANDARDANSI
  2
AmdtDetailSymStdANSI
  3
"Amdt_StdImp|Product Description: AutoCAD Mechanical 2000|Company: Autodesk"
 90
        0
280
     0
281
     0
  0
CLASS
  1
ACMSECTIONSTANDARDANSI
  2
AmdtSectionSymStdANSI
  3
"Amdt_StdImp|Product Description: AutoCAD Mechanical 2000|Company: Autodesk"
 90
        0
280
     0
281
     0
  0
CLASS
  1
ACMCENTERLINESTANDARDANSI
  2
AmdtCenterLineStdANSI
  3
"Amdt_StdImp|Product Description: AutoCAD Mechanical 2000|Company: Autodesk"
 90
        0
280
     0
281
     0
  0
CLASS
  1
ACMThreadLineSTANDARDANSI
  2
AmdtThreadLineStdANSI
  3
"Amdt_StdImp|Product Description: AutoCAD Mechanical 2000|Company: Autodesk"
 90
        0
280
     0
281
     0
  0
CLASS
  1
ACMSURFSTANDARDBSI
  2
AcmSurfTextStdBSI
  3
"Amdt_StdImp|Product Description: AutoCAD Mechanical 2000|Company: Autodesk"
 90
        0
280
     0
281
     0
  0
CLASS
  1
ACMFCFSTANDARDBSI
  2
AcmFCFStdBSI
  3
"Amdt_StdImp|Product Description: AutoCAD Mechanical 2000|Company: Autodesk"
 90
        0
280
     0
281
     0
  0
CLASS
  1
ACMWELDSTANDARDBSI
  2
AcmWeldingStdBSI
  3
"Amdt_StdImp|Product Description: AutoCAD Mechanical 2000|Company: Autodesk"
 90
        0
280
     0
281
     0
  0
CLASS
  1
ACMIDSTANDARDBSI
  2
AcmIdStdBSI
  3
"Amdt_StdImp|Product Description: AutoCAD Mechanical 2000|Company: Autodesk"
 90
        0
280
     0
281
     0
  0
CLASS
  1
ACMDATUMSTANDARDBSI
  2
AcmDatumStdBSI
  3
"Amdt_StdImp|Product Description: AutoCAD Mechanical 2000|Company: Autodesk"
 90
        0
280
     0
281
     0
  0
CLASS
  1
ACMBOMSTANDARDBSI
  2
AcmBOMStdBSI
  3
"Amdt_StdImp|Product Description: AutoCAD Mechanical 2000|Company: Autodesk"
 90
        0
280
     0
281
     0
  0
CLASS
  1
ACMDETAILSTANDARDBSI
  2
AmdtDetailSymStdBSI
  3
"Amdt_StdImp|Product Description: AutoCAD Mechanical 2000|Company: Autodesk"
 90
        0
280
     0
281
     0
  0
CLASS
  1
ACMSECTIONSTANDARDBSI
  2
AmdtSectionSymStdBSI
  3
"Amdt_StdImp|Product Description: AutoCAD Mechanical 2000|Company: Autodesk"
 90
        0
280
     0
281
     0
  0
CLASS
  1
ACMCENTERLINESTANDARDBSI
  2
AmdtCenterLineStdBSI
  3
"Amdt_StdImp|Product Description: AutoCAD Mechanical 2000|Company: Autodesk"
 90
        0
280
     0
281
     0
  0
CLASS
  1
ACMThreadLineSTANDARDBSI
  2
AmdtThreadLineStdBSI
  3
"Amdt_StdImp|Product Description: AutoCAD Mechanical 2000|Company: Autodesk"
 90
        0
280
     0
281
     0
  0
CLASS
  1
AMDTEDGESTANDARDDIN
  2
AmdtEdgeStdDIN
  3
"Amdt_StdImp|Product Description: AutoCAD Mechanical 2000|Company: Autodesk"
 90
        0
280
     0
281
     0
  0
CLASS
  1
ACMSURFSTANDARDDIN
  2
AcmSurfTextStdDIN
  3
"Amdt_StdImp|Product Description: AutoCAD Mechanical 2000|Company: Autodesk"
 90
        0
280
     0
281
     0
  0
CLASS
  1
ACMFCFSTANDARDDIN
  2
AcmFCFStdDIN
  3
"Amdt_StdImp|Product Description: AutoCAD Mechanical 2000|Company: Autodesk"
 90
        0
280
     0
281
     0
  0
CLASS
  1
ACMWELDSTANDARDDIN
  2
AcmWeldingStdDIN
  3
"Amdt_StdImp|Product Description: AutoCAD Mechanical 2000|Company: Autodesk"
 90
        0
280
     0
281
     0
  0
CLASS
  1
ACMIDSTANDARDDIN
  2
AcmIdStdDIN
  3
"Amdt_StdImp|Product Description: AutoCAD Mechanical 2000|Company: Autodesk"
 90
        0
280
     0
281
     0
  0
CLASS
  1
ACMDATUMSTANDARDDIN
  2
AcmDatumStdDIN
  3
"Amdt_StdImp|Product Description: AutoCAD Mechanical 2000|Company: Autodesk"
 90
        0
280
     0
281
     0
  0
CLASS
  1
ACMBOMSTANDARDDIN
  2
AcmBOMStdDIN
  3
"Amdt_StdImp|Product Description: AutoCAD Mechanical 2000|Company: Autodesk"
 90
        0
280
     0
281
     0
  0
CLASS
  1
ACMDETAILSTANDARDDIN
  2
AmdtDetailSymStdDIN
  3
"Amdt_StdImp|Product Description: AutoCAD Mechanical 2000|Company: Autodesk"
 90
        0
280
     0
281
     0
  0
CLASS
  1
ACMSECTIONSTANDARDDIN
  2
AmdtSectionSymStdDIN
  3
"Amdt_StdImp|Product Description: AutoCAD Mechanical 2000|Company: Autodesk"
 90
        0
280
     0
281
     0
  0
CLASS
  1
ACMCENTERLINESTANDARDDIN
  2
AmdtCenterLineStdDIN
  3
"Amdt_StdImp|Product Description: AutoCAD Mechanical 2000|Company: Autodesk"
 90
        0
280
     0
281
     0
  0
CLASS
  1
ACMThreadLineSTANDARDDIN
  2
AmdtThreadLineStdDIN
  3
"Amdt_StdImp|Product Description: AutoCAD Mechanical 2000|Company: Autodesk"
 90
        0
280
     0
281
     0
  0
CLASS
  1
AMDTBROWSERDBTAB
  2
AmdtBrowserDbTab
  3
McadcomServices
 90
        0
280
     0
281
     0
  0
CLASS
  1
ACAMGFILTERDAT
  2
AcAmgFilterDat
  3
"AcadM|Product Description: AutoCAD Mechanical 2000|Company: Autodesk"
 90
        0
280
     0
281
     0
  0
CLASS
  1
ACAMCOMPENTVIEW
  2
AcAmCompEntView
  3
DesignerAssemblies
 90
        0
280
     0
281
     1
  0
CLASS
  1
AM_CLDFLTS
  2
AcDmClDflts
  3
AcMechDwgViewMgmt
 90
        0
280
     0
281
     0
  0
CLASS
  1
ACMEPLINE
  2
AcImPlineDisplay
  3
AcMeServices
 90
        0
280
     0
281
     1
  0
CLASS
  1
ACDMPARTVIEWDATA
  2
AcDmPartViewData
  3
AcMechDwgViewMgmt
 90
        0
280
     0
281
     0
  0
CLASS
  1
ACDMDISPLAYATTRIBS
  2
AcDmDisplayAttribs
  3
AcMechDwgViewMgmt
 90
        0
280
     0
281
     0
  0
CLASS
  1
ACDMBODYINSTANCEDATA
  2
AcDmBodyInstanceData
  3
AcMechDwgViewMgmt
 90
        0
280
     0
281
     0
  0
CLASS
  1
ACDMVWEDELLIPSE
  2
AcDmViewEdgeEllipse
  3
AcMechDwgViewMgmt
 90
        0
280
     0
281
     1
  0
CLASS
  1
AD_CIRCTAPH
  2
AcAdTapHoleCircDisp
  3
DesignerServices
 90
        0
280
     0
281
     0
  0
CLASS
  1
AD_LINETAPH
  2
AcAdTapHoleLineDisp
  3
DesignerServices
 90
        0
280
     0
281
     0
  0
CLASS
  1
LONG_TRANSACTION
  2
AcDbLongTransaction
  3
AutoCAD 2000
 90
        0
280
     0
281
     0
  0
CLASS
  1
LWPOLYLINE
  2
AcDbPolyline
  3
AutoCAD 2000
 90
        0
280
     0
281
     1
  0
CLASS
  1
HATCH
  2
AcDbHatch
  3
AutoCAD 2000
 90
        0
280
     0
281
     1
  0
CLASS
  1
XRECORD
  2
AcDbXrecord
  3
AutoCAD 2000
 90
        0
280
     0
281
     0
  0
ENDSEC
  0
SECTION
  2
TABLES
  0
TABLE
  2
VPORT
  5
1A
330
0
100
AcDbSymbolTable
 70
     2
  0
VPORT
  5
536
330
1A
100
AcDbSymbolTableRecord
100
AcDbViewportTableRecord
  2
*ACTIVE
 70
     0
 10
0.0
 20
0.0
 11
1.0
 21
1.0
 12
228.7466590161395
 22
181.5388132198911
 13
0.0
 23
0.0
 14
10.0
 24
10.0
 15
10.0
 25
10.0
 16
0.0
 26
0.0
 36
1.0
 17
0.0
 27
0.0
 37
0.0
 40
441.8815493824617
 41
1.780487804878048
 42
50.0
 43
0.0
 44
0.0
 50
0.0
 51
0.0
 71
     0
 72
   100
 73
     1
 74
     1
 75
     0
 76
     0
 77
     0
 78
     0
  0
ENDTAB
  0
TABLE
  2
LTYPE
  5
15
330
0
100
AcDbSymbolTable
 70
     1
  0
LTYPE
  5
16
330
15
100
AcDbSymbolTableRecord
100
AcDbLinetypeTableRecord
  2
BYBLOCK
 70
     0
  3

 72
    65
 73
     0
 40
0.0
  0
LTYPE
  5
17
330
15
100
AcDbSymbolTableRecord
100
AcDbLinetypeTableRecord
  2
BYLAYER
 70
     0
  3

 72
    65
 73
     0
 40
0.0
  0
LTYPE
  5
9
330
15
100
AcDbSymbolTableRecord
100
AcDbLinetypeTableRecord
  2
CONTINUOUS
 70
     0
  3
Solid line
 72
    65
 73
     0
 40
0.0
  0
ENDTAB
  0
TABLE
  2
LAYER
  5
11
330
0
100
AcDbSymbolTable
 70
     3
  0
LAYER
  5
5
330
11
100
AcDbSymbolTableRecord
100
AcDbLayerTableRecord
  2
0
 70
     0
 62
     7
  6
CONTINUOUS
  0
LAYER
  5
28
330
11
100
AcDbSymbolTableRecord
100
AcDbLayerTableRecord
  2
AM_VIS
 70
     0
 62
     7
  6
CONTINUOUS
  0
LAYER
  5
23
330
11
100
AcDbSymbolTableRecord
100
AcDbLayerTableRecord
  2
TEXT
 70
     0
 62
     2
  6
CONTINUOUS
  0
ENDTAB
  0
TABLE
  2
STYLE
  5
12
330
0
100
AcDbSymbolTable
 70
     2
  0
STYLE
  5
13
330
12
100
AcDbSymbolTableRecord
100
AcDbTextStyleTableRecord
  2
STANDARD
 70
     0
 40
0.0
 41
0.95
 50
0.0
 71
     0
 42
2.5
  3
txt.shx
  4

  0
STYLE
  5
24
330
12
100
AcDbSymbolTableRecord
100
AcDbTextStyleTableRecord
  2
ACDINTS
 70
     0
 40
1.0
 41
1.0
 50
0.0
 71
     0
 42
2.5
  3
isocp.shx
  4

  0
ENDTAB
  0
TABLE
  2
VIEW
  5
18
330
0
100
AcDbSymbolTable
 70
     0
  0
ENDTAB
  0
TABLE
  2
UCS
  5
19
330
0
100
AcDbSymbolTable
 70
     0
  0
ENDTAB
  0
TABLE
  2
APPID
  5
1C
330
0
100
AcDbSymbolTable
 70
     1
  0
APPID
  5
1D
330
1C
100
AcDbSymbolTableRecord
100
AcDbRegAppTableRecord
  2
ACAD
 70
     0
  0
ENDTAB
  0
TABLE
  2
DIMSTYLE
  5
1E
330
0
100
AcDbSymbolTable
 70
     1
  0
DIMSTYLE
105
26
330
1E
100
AcDbSymbolTableRecord
100
AcDbDimStyleTableRecord
  2
DIMSTYLE1
 70
     0
  3

  4

  5

  6

  7

 40
0.0
 41
2.5
 42
1.0
 43
3.75
 44
1.25
 45
0.0
 46
0.0
 47
0.0
 48
0.0
140
2.5
141
2.5
142
0.0
143
0.0394
144
1.0
145
0.0
146
1.0
147
0.625
 71
     0
 72
     0
 73
     0
 74
     0
 75
     0
 76
     0
 77
     1
 78
     0
170
     0
171
     4
172
     0
173
     0
174
     0
175
     0
176
     0
177
     0
178
     0
270
     2
271
     1
272
     0
273
     8
274
     4
340
13
275
     0
280
     0
281
     0
282
     0
283
     1
284
     0
285
     0
286
     0
287
     0
288
     0
  0
ENDTAB
  0
TABLE
  2
BLOCK_RECORD
  5
1
330
0
100
AcDbSymbolTable
 70
     0
  0
BLOCK_RECORD
  5
2
102
{ACAD_XDICTIONARY
360
3
102
}
330
1
100
AcDbSymbolTableRecord
100
AcDbBlockTableRecord
  2
*MODEL_SPACE
  0
BLOCK_RECORD
  5
D
102
{ACAD_XDICTIONARY
360
559
102
}
330
1
100
AcDbSymbolTableRecord
100
AcDbBlockTableRecord
  2
*PAPER_SPACE
  0
ENDTAB
  0
ENDSEC
  0
SECTION
  2
BLOCKS
  0
BLOCK
  5
4
330
2
100
AcDbEntity
  8
0
100
AcDbBlockBegin
  2
*MODEL_SPACE
 70
     0
 10
0.0
 20
0.0
 30
0.0
  3
*MODEL_SPACE
  1

  0
ENDBLK
  5
A
330
2
100
AcDbEntity
  8
0
100
AcDbBlockEnd
  0
BLOCK
  5
E
330
D
100
AcDbEntity
 67
     1
  8
0
100
AcDbBlockBegin
  2
*PAPER_SPACE
 70
     0
 10
0.0
 20
0.0
 30
0.0
  3
*PAPER_SPACE
  1

  0
ENDBLK
  5
F
330
D
100
AcDbEntity
 67
     1
  8
0
100
AcDbBlockEnd
  0
ENDSEC
  0
SECTION
  2
ENTITIES
  0
LINE
  5
27
330
2
100
AcDbEntity
  8
AM_VIS
100
AcDbLine
 10
109.498663197439
 20
82.30512104725253
 30
0.0
 11
88.12630261470236
 21
92.27121645983265
 31
0.0
  0
LINE
  5
29
330
2
100
AcDbEntity
  8
AM_VIS
100
AcDbLine
 10
98.8608064629161
 20
115.2914342505635
 30
0.0
 11
120.233167045653
 21
105.3253388379833
 31
0.0
  0
LINE
  5
2A
330
2
100
AcDbEntity
  8
AM_VIS
100
AcDbLine
 10
88.12630261470236
 20
92.27121645983265
 30
0.0
 11
75.12984894859679
 21
98.33156233319428
 31
0.0
  0
LINE
  5
2B
330
2
100
AcDbEntity
  8
AM_VIS
100
AcDbLine
 10
85.86435279681055
 20
121.3517801239252
 30
0.0
 11
75.12984894859679
 21
98.33156233319428
 31
0.0
  0
LINE
  5
2C
330
2
100
AcDbEntity
  8
AM_VIS
100
AcDbLine
 10
85.86435279681055
 20
121.3517801239252
 30
0.0
 11
98.86080646291611
 21
115.2914342505635
 31
0.0
  0
LINE
  5
2D
330
2
100
AcDbEntity
  8
AM_VIS
100
AcDbLine
 10
73.21843665582472
 20
232.0771829033004
 30
0.0
 11
86.1822831483912
 21
220.5172111633778
 31
0.0
  0
ARC
  5
2E
330
2
100
AcDbEntity
  8
AM_VIS
100
AcDbCircle
 10
67.89412787961194
 20
226.1062754299306
 30
0.0
 40
8.0
100
AcDbArc
 50
48.27634163747607
 51
153.3725216070252
  0
ARC
  5
2F
330
2
100
AcDbEntity
  8
AM_VIS
100
AcDbCircle
 10
50.19412787961193
 20
234.98039510458
 30
0.0
 40
11.80000000000001
100
AcDbArc
 50
318.7394363640632
 51
333.3725216070254
  0
LINE
  5
30
330
2
100
AcDbEntity
  8
AM_VIS
100
AcDbLine
 10
30.19412787961188
 20
223.18039510458
 30
0.0
 11
39.20141506371925
 21
223.18039510458
 31
0.0
  0
LINE
  5
31
330
2
100
AcDbEntity
  8
AM_VIS
100
AcDbLine
 10
30.19412787961192
 20
214.18039510458
 30
0.0
 11
30.19412787961191
 21
223.18039510458
 31
0.0
  0
LINE
  5
32
330
2
100
AcDbEntity
  8
AM_VIS
100
AcDbLine
 10
73.19412787961192
 20
94.18039510458001
 30
0.0
 11
30.19412787961191
 21
94.18039510458001
 31
0.0
  0
LINE
  5
33
330
2
100
AcDbEntity
  8
AM_VIS
100
AcDbLine
 10
75.12984894859681
 20
98.33156233319428
 30
0.0
 11
73.19412787961192
 21
94.18039510458001
 31
0.0
  0
LINE
  5
34
330
2
100
AcDbEntity
  8
AM_VIS
100
AcDbLine
 10
86.19412787961193
 20
122.0589850712042
 30
0.0
 11
85.86435279681058
 21
121.3517801239252
 31
0.0
  0
LINE
  5
35
330
2
100
AcDbEntity
  8
AM_VIS
100
AcDbLine
 10
86.1941278796119
 20
195.9372626828973
 30
0.0
 11
86.1941278796119
 21
122.0589850712042
 31
0.0
  0
ARC
  5
36
330
2
100
AcDbEntity
  8
AM_VIS
100
AcDbCircle
 10
91.19412787961193
 20
195.9372626828973
 30
0.0
 40
5.0
100
AcDbArc
 50
166.8264244619596
 51
180.0
  0
LINE
  5
37
330
2
100
AcDbEntity
  8
AM_VIS
100
AcDbLine
 10
89.41781106978288
 20
210.2874258137164
 30
0.0
 11
86.32570731286387
 21
197.0767718690228
 31
0.0
  0
ARC
  5
38
330
2
100
AcDbEntity
  8
AM_VIS
100
AcDbCircle
 10
79.19412787961192
 20
212.68039510458
 30
0.0
 40
10.5
100
AcDbArc
 50
346.8264244619595
 51
48.27634163747614
  0
CIRCLE
  5
39
330
2
100
AcDbEntity
  8
AM_VIS
100
AcDbCircle
 10
79.19412787961192
 20
212.7303951045799
 30
0.0
 40
5.75
  0
LINE
  5
3A
330
2
100
AcDbEntity
  8
AM_VIS
100
AcDbLine
 10
25.19412787961188
 20
214.18039510458
 30
0.0
 11
25.19412787961188
 21
209.1803951045799
 31
0.0
  0
LINE
  5
3B
330
2
100
AcDbEntity
  8
AM_VIS
100
AcDbLine
 10
30.19412787961188
 20
214.18039510458
 30
0.0
 11
30.19412787961188
 21
209.1803951045799
 31
0.0
  0
LINE
  5
3C
330
2
100
AcDbEntity
  8
AM_VIS
100
AcDbLine
 10
25.19412787961188
 20
99.18039510458003
 30
0.0
 11
25.19412787961188
 21
209.1803951045799
 31
0.0
  0
LINE
  5
3D
330
2
100
AcDbEntity
  8
AM_VIS
100
AcDbLine
 10
30.19412787961188
 20
99.18039510458003
 30
0.0
 11
30.19412787961188
 21
209.1803951045799
 31
0.0
  0
LINE
  5
3E
330
2
100
AcDbEntity
  8
AM_VIS
100
AcDbLine
 10
25.19412787961188
 20
99.18039510458001
 30
0.0
 11
25.19412787961188
 21
94.18039510458001
 31
0.0
  0
LINE
  5
3F
330
2
100
AcDbEntity
  8
AM_VIS
100
AcDbLine
 10
30.19412787961188
 20
99.18039510458001
 30
0.0
 11
30.19412787961188
 21
94.18039510458001
 31
0.0
  0
LINE
  5
40
330
2
100
AcDbEntity
  8
AM_VIS
100
AcDbLine
 10
25.19412787961188
 20
94.18039510458001
 30
0.0
 11
30.19412787961188
 21
94.18039510458001
 31
0.0
  0
LINE
  5
41
330
2
100
AcDbEntity
  8
AM_VIS
100
AcDbLine
 10
25.19412787961188
 20
214.18039510458
 30
0.0
 11
30.19412787961188
 21
214.18039510458
 31
0.0
  0
ARC
  5
42
330
2
100
AcDbEntity
  8
AM_VIS
100
AcDbCircle
 10
50.82412787961501
 20
235.0503951045832
 30
0.0
 40
10.2
100
AcDbArc
 50
323.2650986136389
 51
4.250606921649222
  0
LINE
  5
43
330
2
100
AcDbEntity
  8
AM_VIS
100
AcDbLine
 10
60.29870843571507
 20
245.1892215727085
 30
0.0
 11
60.99607175990596
 21
235.8064094537933
 31
0.0
  0
ARC
  5
44
330
2
100
AcDbEntity
  8
AM_VIS
100
AcDbCircle
 10
79.19412787958933
 20
212.7303951046098
 30
0.0
 40
10.5
100
AcDbArc
 50
359.863581374263
 51
51.12251622707672
  0
LINE
  5
45
330
2
100
AcDbEntity
  8
AM_VIS
100
AcDbLine
 10
85.40251870663524
 20
221.2125337218226
 30
0.0
 11
85.78452820015106
 21
220.9045387059138
 31
0.0
  0
LINE
  5
46
330
2
100
AcDbEntity
  8
AM_VIS
100
AcDbLine
 10
60.59413994938035
 20
241.214280117414
 30
0.0
 11
69.65308400336851
 21
233.9105097520597
 31
0.0
  0
LINE
  5
47
330
2
100
AcDbEntity
  8
AM_VIS
100
AcDbLine
 10
-15.20587212041071
 20
238.7303951046098
 30
0.0
 11
38.35038517857778
 21
245.8022490323301
 31
0.0
  0
LINE
  5
48
330
2
100
AcDbEntity
  8
AM_VIS
100
AcDbLine
 10
-15.20587212041071
 20
216.7303951046098
 30
0.0
 11
-15.20587212041071
 21
238.7303951046098
 31
0.0
  0
LINE
  5
49
330
2
100
AcDbEntity
  8
AM_VIS
100
AcDbLine
 10
30.19412787961188
 20
216.7303951046098
 30
0.0
 11
-15.20587212041071
 21
216.7303951046098
 31
0.0
  0
LINE
  5
4A
330
2
100
AcDbEntity
  8
AM_VIS
100
AcDbLine
 10
134.0350577996031
 20
92.51547432029862
 30
0.0
 11
131.1025634024127
 21
119.3557514539293
 31
0.0
  0
LINE
  5
4B
330
2
100
AcDbEntity
  8
AM_VIS
100
AcDbLine
 10
101.5026908649123
 20
114.0595033219524
 30
0.0
 11
101.280033253927
 21
116.0974243459392
 31
0.0
  0
LINE
  5
4C
330
2
100
AcDbEntity
  8
AM_VIS
100
AcDbLine
 10
143.8654171444323
 20
78.50024920074665
 30
0.0
 11
97.64049541427958
 21
73.44984218336205
 31
0.0
  0
LINE
  5
4D
330
2
100
AcDbEntity
  8
AM_VIS
100
AcDbLine
 10
85.96000443945602
 20
72.17366406606595
 30
0.0
 11
97.64049541427958
 21
73.44984218336205
 31
0.0
  0
LINE
  5
4E
330
2
100
AcDbEntity
  8
AM_VIS
100
AcDbLine
 10
143.8654171444323
 20
78.50024920074665
 30
0.0
 11
155.5459081192559
 21
79.77642731804275
 31
0.0
  0
LINE
  5
4F
330
2
100
AcDbEntity
  8
AM_VIS
100
AcDbLine
 10
156.6320171552526
 20
69.8355839352142
 30
0.0
 11
155.5459081192559
 21
79.77642731804277
 31
0.0
  0
LINE
  5
50
330
2
100
AcDbEntity
  8
AM_VIS
100
AcDbLine
 10
98.72660445027626
 20
63.50899880053351
 30
0.0
 11
87.0461134754527
 21
62.23282068323739
 31
0.0
  0
LINE
  5
51
330
2
100
AcDbEntity
  8
AM_VIS
100
AcDbLine
 10
144.951526180429
 20
68.5594058179181
 30
0.0
 11
98.72660445027626
 21
63.50899880053351
 31
0.0
  0
LINE
  5
52
330
2
100
AcDbEntity
  8
AM_VIS
100
AcDbLine
 10
156.6320171552526
 20
69.8355839352142
 30
0.0
 11
144.951526180429
 21
68.5594058179181
 31
0.0
  0
LINE
  5
53
330
2
100
AcDbEntity
  8
AM_VIS
100
AcDbLine
 10
85.96000443945602
 20
72.17366406606595
 30
0.0
 11
87.0461134754527
 21
62.23282068323739
 31
0.0
  0
ARC
  5
54
330
2
100
AcDbEntity
  8
AM_VIS
100
AcDbCircle
 10
135.4469995463994
 20
79.5923779226151
 30
0.0
 40
1.999999999999999
100
AcDbArc
 50
186.2352464440514
 51
276.2352464440513
  0
ARC
  5
55
330
2
100
AcDbEntity
  8
AM_VIS
100
AcDbCircle
 10
105.6244693979138
 20
76.33405081462504
 30
0.0
 40
2.0
100
AcDbArc
 50
276.2352464440513
 51
6.235246444051405
  0
LINE
  5
56
330
2
100
AcDbEntity
  8
AM_VIS
100
AcDbLine
 10
101.280033253927
 20
116.0974243459392
 30
0.0
 11
131.1025634024127
 21
119.3557514539293
 31
0.0
  0
CIRCLE
  5
57
330
2
100
AcDbEntity
  8
AM_VIS
100
AcDbCircle
 10
119.0152020442983
 20
91.88038551738387
 30
0.0
 40
0.0005
  0
LINE
  5
58
330
2
100
AcDbEntity
  8
AM_VIS
100
AcDbLine
 10
129.8285641464035
 20
97.33983882732772
 30
0.0
 11
127.9487052357562
 21
100.0612827381035
 31
0.0
  0
LINE
  5
59
330
2
100
AcDbEntity
  8
AM_VIS
100
AcDbLine
 10
129.1499348331911
 20
85.24552174798557
 30
0.0
 11
130.5667753727552
 21
88.23410253631733
 31
0.0
  0
LINE
  5
5A
330
2
100
AcDbEntity
  8
AM_VIS
100
AcDbLine
 10
118.3365485312869
 20
79.78600715322861
 30
0.0
 11
121.6332366177411
 21
80.05328420859274
 31
0.0
  0
LINE
  5
5B
330
2
100
AcDbEntity
  8
AM_VIS
100
AcDbLine
 10
108.2017994971188
 20
86.42095138183274
 30
0.0
 11
110.0816584077665
 21
83.69950747105624
 31
0.0
  0
LINE
  5
5C
330
2
100
AcDbEntity
  8
AM_VIS
100
AcDbLine
 10
108.8805185979469
 20
98.51540560951512
 30
0.0
 11
107.4635389282258
 21
95.52653135010983
 31
0.0
  0
LINE
  5
5D
330
2
100
AcDbEntity
  8
AM_VIS
100
AcDbLine
 10
119.6937332742511
 20
103.9747876476992
 30
0.0
 11
116.3972070552515
 21
103.7075237156442
 31
0.0
  0
ARC
  5
5E
330
2
100
AcDbEntity
  8
AM_VIS
100
AcDbCircle
 10
119.0151818217612
 20
91.88039510458002
 30
0.0
 40
12.11341252747277
100
AcDbArc
 50
42.48194158472177
 51
86.78880782806205
  0
SPLINE
  5
5F
330
2
100
AcDbEntity
  8
AM_VIS
100
AcDbSpline
210
0.0
220
0.0
230
1.0
 70
    28
 71
     2
 72
     6
 73
     3
 74
     0
 42
0.0000000001
 43
0.0000000001
 40
0.0
 40
0.0
 40
0.0
 40
4.489346956745006
 40
4.489346956745006
 40
4.489346956745006
 10
119.6937332742511
 20
103.9747876476992
 30
0.0
 41
1.0
 10
121.7805805857326
 20
104.1439775709738
 30
0.0
 41
1.01528023573722
 10
124.0974655571862
 20
104.3318176627714
 30
0.0
 41
1.0
  0
ARC
  5
60
330
2
100
AcDbEntity
  8
AM_VIS
100
AcDbCircle
 10
119.0151818217612
 20
91.88039510458002
 30
0.0
 40
13.4487
100
AcDbArc
 50
61.47408266237719
 51
67.79624359871497
  0
SPLINE
  5
61
330
2
100
AcDbEntity
  8
AM_VIS
100
AcDbSpline
210
0.0
220
0.0
230
1.0
 70
    28
 71
     2
 72
     6
 73
     3
 74
     0
 42
0.0000000001
 43
0.0000000001
 40
0.0
 40
0.0
 40
0.0
 40
4.489259339835388
 40
4.489259339835388
 40
4.489259339835388
 10
125.4376924009431
 20
103.6964388397013
 30
0.0
 41
1.0
 10
126.7587826776273
 20
101.7839160068948
 30
0.0
 41
1.01527960860693
 10
127.9487052357564
 20
100.0612827381034
 30
0.0
 41
1.0
  0
ARC
  5
62
330
2
100
AcDbEntity
  8
AM_VIS
100
AcDbCircle
 10
119.0151818217612
 20
91.88039510458002
 30
0.0
 40
12.11341252747277
100
AcDbArc
 50
342.4815538964977
 51
26.78822628844928
  0
SPLINE
  5
63
330
2
100
AcDbEntity
  8
AM_VIS
100
AcDbSpline
210
0.0
220
0.0
230
1.0
 70
    28
 71
     2
 72
     6
 73
     3
 74
     0
 42
0.0000000001
 43
0.0000000001
 40
0.0
 40
0.0
 40
0.0
 40
4.489259339835413
 40
4.489259339835413
 40
4.489259339835413
 10
129.8285641464034
 20
97.33983882732779
 30
0.0
 41
1.0
 10
131.0184867045325
 20
95.61720555853629
 30
0.0
 41
1.015279608607052
 10
132.3395769812167
 20
93.70468272572987
 30
0.0
 41
1.0
  0
ARC
  5
64
330
2
100
AcDbEntity
  8
AM_VIS
100
AcDbCircle
 10
119.0151818217612
 20
91.88039510458002
 30
0.0
 40
13.4487
100
AcDbArc
 50
1.473977070550845
 51
7.796085210793692
  0
SPLINE
  5
65
330
2
100
AcDbEntity
  8
AM_VIS
100
AcDbSpline
210
0.0
220
0.0
230
1.0
 70
    28
 71
     2
 72
     6
 73
     3
 74
     0
 42
0.0000000001
 43
0.0000000001
 40
0.0
 40
0.0
 40
0.0
 40
4.489317750108252
 40
4.489317750108252
 40
4.489317750108252
 10
132.459431795759
 20
92.22633487775064
 30
0.0
 41
1.0
 10
131.4636702596694
 20
90.12594763344395
 30
0.0
 41
1.015280026685218
 10
130.5667753727552
 20
88.23410253631719
 30
0.0
 41
1.0
  0
ARC
  5
66
330
2
100
AcDbEntity
  8
AM_VIS
100
AcDbCircle
 10
119.0151818217612
 20
91.88039510458002
 30
0.0
 40
12.11341252747277
100
AcDbArc
 50
282.4817477431259
 51
326.7886139766732
  0
SPLINE
  5
67
330
2
100
AcDbEntity
  8
AM_VIS
100
AcDbSpline
210
0.0
220
0.0
230
1.0
 70
    28
 71
     2
 72
     6
 73
     3
 74
     0
 42
0.0000000001
 43
0.0000000001
 40
0.0
 40
0.0
 40
0.0
 40
4.489317750108253
 40
4.489317750108253
 40
4.489317750108253
 10
129.1499348331913
 20
85.24552174798575
 30
0.0
 41
1.0
 10
128.253039946277
 20
83.353676650859
 30
0.0
 41
1.015280026684792
 10
127.2572784101874
 20
81.25328940655228
 30
0.0
 41
1.0
  0
ARC
  5
68
330
2
100
AcDbEntity
  8
AM_VIS
100
AcDbCircle
 10
119.0151818217612
 20
91.88039510458002
 30
0.0
 40
13.4487
100
AcDbArc
 50
301.4740298665496
 51
307.7961908026201
  0
SPLINE
  5
69
330
2
100
AcDbEntity
  8
AM_VIS
100
AcDbSpline
210
0.0
220
0.0
230
1.0
 70
    28
 71
     2
 72
     6
 73
     3
 74
     0
 42
0.0000000001
 43
0.0000000001
 40
0.0
 40
0.0
 40
0.0
 40
4.489288544457886
 40
4.489288544457886
 40
4.489288544457886
 10
126.0369100097794
 20
80.41030944911993
 30
0.0
 41
1.0
 10
123.7200560219153
 20
80.22247186929872
 30
0.0
 41
1.015279817641361
 10
121.6332366177411
 20
80.05328420859274
 30
0.0
 41
1.0
  0
ARC
  5
6A
330
2
100
AcDbEntity
  8
AM_VIS
100
AcDbCircle
 10
119.0151818217612
 20
91.88039510458002
 30
0.0
 40
12.11341252747277
100
AcDbArc
 50
222.4819415847234
 51
266.788420130045
  0
SPLINE
  5
6B
330
2
100
AcDbEntity
  8
AM_VIS
100
AcDbSpline
210
0.0
220
0.0
230
1.0
 70
    28
 71
     2
 72
     6
 73
     3
 74
     0
 42
0.0000000001
 43
0.0000000001
 40
0.0
 40
0.0
 40
0.0
 40
4.489288544457886
 40
4.489288544457886
 40
4.489288544457886
 10
118.3365485312869
 20
79.78600715322861
 30
0.0
 41
1.0
 10
116.2497291271127
 20
79.61681949252263
 30
0.0
 41
1.015279817641361
 10
113.9328751392486
 20
79.42898191270143
 30
0.0
 41
1.0
  0
ARC
  5
6C
330
2
100
AcDbEntity
  8
AM_VIS
100
AcDbCircle
 10
119.0151818217612
 20
91.88039510458002
 30
0.0
 40
13.4487
100
AcDbArc
 50
241.4740826623775
 51
247.7961380066213
  0
SPLINE
  5
6D
330
2
100
AcDbEntity
  8
AM_VIS
100
AcDbSpline
210
0.0
220
0.0
230
1.0
 70
    28
 71
     2
 72
     6
 73
     3
 74
     0
 42
0.0000000001
 43
0.0000000001
 40
0.0
 40
0.0
 40
0.0
 40
4.489259339835054
 40
4.489259339835054
 40
4.489259339835054
 10
112.5926712425795
 20
80.0643513694588
 30
0.0
 41
1.0
 10
111.2715809658954
 20
81.97687420226509
 30
0.0
 41
1.015279608606679
 10
110.0816584077664
 20
83.69950747105642
 30
0.0
 41
1.0
  0
ARC
  5
6E
330
2
100
AcDbEntity
  8
AM_VIS
100
AcDbCircle
 10
119.0151818217612
 20
91.88039510458002
 30
0.0
 40
12.11341252747277
100
AcDbArc
 50
162.4823292539124
 51
206.7882262884473
  0
SPLINE
  5
6F
330
2
100
AcDbEntity
  8
AM_VIS
100
AcDbSpline
210
0.0
220
0.0
230
1.0
 70
    28
 71
     2
 72
     6
 73
     3
 74
     0
 42
0.0000000001
 43
0.0000000001
 40
0.0
 40
0.0
 40
0.0
 40
4.489259339835058
 40
4.489259339835058
 40
4.489259339835058
 10
108.2017994971189
 20
86.42095138183256
 30
0.0
 41
1.0
 10
107.01187693899
 20
88.14358465062383
 30
0.0
 41
1.015279608606588
 10
105.6907866623058
 20
90.0561074834302
 30
0.0
 41
1.0
  0
ARC
  5
70
330
2
100
AcDbEntity
  8
AM_VIS
100
AcDbCircle
 10
119.0151818217612
 20
91.88039510458002
 30
0.0
 40
13.4487
100
AcDbArc
 50
181.4741882538192
 51
187.7960852107934
  0
SPLINE
  5
71
330
2
100
AcDbEntity
  8
AM_VIS
100
AcDbSpline
210
0.0
220
0.0
230
1.0
 70
    28
 71
     2
 72
     6
 73
     3
 74
     0
 42
0.0000000001
 43
0.0000000001
 40
0.0
 40
0.0
 40
0.0
 40
4.489200933507414
 40
4.489200933507414
 40
4.489200933507414
 10
105.5709331229346
 20
91.53440577801234
 30
0.0
 41
1.0
 10
106.5666680281098
 20
93.63473684899739
 30
0.0
 41
1.015279190563105
 10
107.4635389282258
 20
95.52653135010983
 30
0.0
 41
1.0
  0
ARC
  5
72
330
2
100
AcDbEntity
  8
AM_VIS
100
AcDbCircle
 10
119.0151818217612
 20
91.88039510458002
 30
0.0
 40
12.11341252747277
100
AcDbArc
 50
102.481360045109
 51
146.7878386192586
  0
SPLINE
  5
73
330
2
100
AcDbEntity
  8
AM_VIS
100
AcDbSpline
210
0.0
220
0.0
230
1.0
 70
    28
 71
     2
 72
     6
 73
     3
 74
     0
 42
0.0000000001
 43
0.0000000001
 40
0.0
 40
0.0
 40
0.0
 40
4.489200933507459
 40
4.489200933507459
 40
4.489200933507459
 10
108.8805185979469
 20
98.51540560951505
 30
0.0
 41
1.0
 10
109.7773894980629
 20
100.4072001106275
 30
0.0
 41
1.015279190562461
 10
110.773124403238
 20
102.5075311816125
 30
0.0
 41
1.0
  0
ARC
  5
74
330
2
100
AcDbEntity
  8
AM_VIS
100
AcDbCircle
 10
119.0151818217612
 20
91.88039510458002
 30
0.0
 40
13.4487
100
AcDbArc
 50
121.473924274456
 51
127.7959796193517
  0
SPLINE
  5
75
330
2
100
AcDbEntity
  8
AM_VIS
100
AcDbSpline
210
0.0
220
0.0
230
1.0
 70
    28
 71
     2
 72
     6
 73
     3
 74
     0
 42
0.0000000001
 43
0.0000000001
 40
0.0
 40
0.0
 40
0.0
 40
4.489346956745006
 40
4.489346956745006
 40
4.489346956745006
 10
111.9934747723165
 20
103.350493700572
 30
0.0
 41
1.0
 10
114.3103597437701
 20
103.5383337923696
 30
0.0
 41
1.01528023573722
 10
116.3972070552515
 20
103.7075237156442
 30
0.0
 41
1.0
  0
CIRCLE
  5
76
330
2
100
AcDbEntity
  8
AM_VIS
100
AcDbCircle
 10
100.8051757944818
 20
258.5513387371899
 30
0.0
 40
5.0
  0
SPLINE
  5
77
330
2
100
AcDbEntity
  8
AM_VIS
100
AcDbSpline
210
0.0
220
0.0
230
1.0
 70
    28
 71
     2
 72
     6
 73
     3
 74
     0
 42
0.0000000001
 43
0.0000000001
 40
1.758602202031911
 40
1.758602202031911
 40
1.758602202031911
 40
9.964260343510504
 40
9.964260343510504
 40
9.964260343510504
 10
93.33773303354178
 20
257.7959195086535
 30
0.0
 41
1.08757206721543
 10
94.87748733335044
 20
261.2182712835507
 30
0.0
 41
1.255820017571921
 10
96.41724145368156
 20
264.6406226595302
 30
0.0
 41
1.087572135151323
  0
SPLINE
  5
78
330
2
100
AcDbEntity
  8
AM_VIS
100
AcDbSpline
210
0.0
220
0.0
230
1.0
 70
    28
 71
     2
 72
     6
 73
     3
 74
     0
 42
0.0000000001
 43
0.0000000001
 40
1.758603858690498
 40
1.758603858690498
 40
1.758603858690498
 40
9.964262000169098
 40
9.964262000169098
 40
9.964262000169098
 10
97.72566563349455
 20
251.706635410206
 30
0.0
 41
1.087572135151323
 10
95.53169946138524
 20
254.7512772819842
 30
0.0
 41
1.255820017571921
 10
93.33773303354178
 20
257.7959195086535
 30
0.0
 41
1.08757206721543
  0
SPLINE
  5
79
330
2
100
AcDbEntity
  8
AM_VIS
100
AcDbSpline
210
0.0
220
0.0
230
1.0
 70
    28
 71
     2
 72
     6
 73
     3
 74
     0
 42
0.0000000001
 43
0.0000000001
 40
1.758605972049705
 40
1.758605972049705
 40
1.758605972049705
 40
9.964264987121397
 40
9.964264987121397
 40
9.964264987121397
 10
105.193106653587
 20
252.4620544626352
 30
0.0
 41
1.087572280497924
 10
101.4593865787526
 20
252.0843449804474
 30
0.0
 41
1.255820219371637
 10
97.72566563349455
 20
251.706635410206
 30
0.0
 41
1.08757214462607
  0
SPLINE
  5
7A
330
2
100
AcDbEntity
  8
AM_VIS
100
AcDbSpline
210
0.0
220
0.0
230
1.0
 70
    28
 71
     2
 72
     6
 73
     3
 74
     0
 42
0.0000000001
 43
0.0000000001
 40
1.758606428749267
 40
1.758606428749267
 40
1.758606428749267
 40
9.964266317414146
 40
9.964266317414146
 40
9.964266317414146
 10
108.2726150737268
 20
259.306757613512
 30
0.0
 41
1.087572357908663
 10
106.7328609533957
 20
255.8844062375327
 30
0.0
 41
1.255820421171479
 10
105.193106653587
 20
252.4620544626352
 30
0.0
 41
1.087572289972703
  0
SPLINE
  5
7B
330
2
100
AcDbEntity
  8
AM_VIS
100
AcDbSpline
210
0.0
220
0.0
230
1.0
 70
    28
 71
     2
 72
     6
 73
     3
 74
     0
 42
0.0000000001
 43
0.0000000001
 40
1.758604772090482
 40
1.758604772090482
 40
1.758604772090482
 40
9.964264660755395
 40
9.964264660755395
 40
9.964264660755395
 10
103.884682473774
 20
265.3960417119594
 30
0.0
 41
1.087572289972704
 10
106.0786489016175
 20
262.3513994852901
 30
0.0
 41
1.255820421171479
 10
108.2726150737268
 20
259.306757613512
 30
0.0
 41
1.087572357908661
  0
SPLINE
  5
7C
330
2
100
AcDbEntity
  8
AM_VIS
100
AcDbSpline
210
0.0
220
0.0
230
1.0
 70
    28
 71
     2
 72
     6
 73
     3
 74
     0
 42
0.0000000001
 43
0.0000000001
 40
1.758602658732453
 40
1.758602658732453
 40
1.758602658732453
 40
9.96426167380382
 40
9.96426167380382
 40
9.96426167380382
 10
96.41724145368156
 20
264.6406226595302
 30
0.0
 41
1.087572144626077
 10
100.1509623989396
 20
265.0183322297716
 30
0.0
 41
1.255820219371631
 10
103.884682473774
 20
265.3960417119594
 30
0.0
 41
1.087572280497931
  0
CIRCLE
  5
7D
330
2
100
AcDbEntity
  8
AM_VIS
100
AcDbCircle
 10
100.8051757944818
 20
258.5513387371899
 30
0.0
 40
8.5
  0
CIRCLE
  5
7E
330
2
100
AcDbEntity
  8
AM_VIS
100
AcDbCircle
 10
50.19412787961193
 20
196.98039510458
 30
0.0
 40
5.0
  0
LINE
  5
7F
330
2
100
AcDbEntity
  8
AM_VIS
100
AcDbLine
 10
100.7222447650098
 20
213.2744889965136
 30
0.0
 11
102.079881060011
 21
200.8484347679782
 31
0.0
  0
LINE
  5
80
330
2
100
AcDbEntity
  8
AM_VIS
100
AcDbLine
 10
110.6630881478379
 20
214.3605980325146
 30
0.0
 11
112.0207244428391
 21
201.9345438039791
 31
0.0
  0
LINE
  5
81
330
2
100
AcDbEntity
  8
AM_VIS
100
AcDbLine
 10
122.1558043578637
 20
118.3782533215319
 30
0.0
 11
113.7207796545226
 21
195.581606508741
 31
0.0
  0
LINE
  5
82
330
2
100
AcDbEntity
  8
AM_VIS
100
AcDbLine
 10
110.2267922984695
 20
117.0749224783359
 30
0.0
 11
101.7917675951289
 21
194.2782756655399
 31
0.0
  0
LINE
  5
83
330
2
100
AcDbEntity
  8
AM_VIS
100
AcDbLine
 10
102.1341865118111
 20
200.3513925988368
 30
0.0
 11
112.0750298946392
 21
201.4375016348377
 31
0.0
  0
SPLINE
  5
84
330
2
100
AcDbEntity
  8
AM_VIS
100
AcDbSpline
210
0.0
220
0.0
230
1.0
 70
    24
 71
     3
 72
    10
 73
     6
 74
     0
 42
0.0000000001
 43
0.0000000001
 40
0.0
 40
0.0
 40
0.0
 40
0.0
 40
1.110902832752599
 40
1.110902832752599
 40
2.221805665505198
 40
2.221805665505198
 40
2.221805665505198
 40
2.221805665505198
 10
102.0798810600111
 20
200.8484347679782
 30
0.0
 10
102.0920074604034
 20
200.7374453156284
 30
0.0
 10
102.1054616410056
 20
200.6143030732034
 30
0.0
 10
102.1265702119062
 20
200.421102399604
 30
0.0
 10
102.1341865118111
 20
200.3513925988368
 30
0.0
 10
102.1341865118111
 20
200.3513925988368
 30
0.0
  0
LINE
  5
85
330
2
100
AcDbEntity
  8
AM_VIS
100
AcDbLine
 10
102.1341865118111
 20
200.3513925988368
 30
0.0
 11
102.7858519334117
 21
194.3868865691399
 31
0.0
  0
LINE
  5
86
330
2
100
AcDbEntity
  8
AM_VIS
100
AcDbLine
 10
112.7266953162397
 20
195.4729956051409
 30
0.0
 11
112.0750298946392
 21
201.4375016348377
 31
0.0
  0
SPLINE
  5
87
330
2
100
AcDbEntity
  8
AM_VIS
100
AcDbSpline
210
0.0
220
0.0
230
1.0
 70
    24
 71
     3
 72
    10
 73
     6
 74
     0
 42
0.0000000001
 43
0.0000000001
 40
4.564540839656428
 40
4.564540839656428
 40
4.564540839656428
 40
4.564540839656428
 40
5.675443672409002
 40
5.675443672409002
 40
6.786346505161576
 40
6.786346505161576
 40
6.786346505161576
 40
6.786346505161576
 10
112.0750298946392
 20
201.4375016348377
 30
0.0
 10
112.0750298946392
 20
201.4375016348377
 30
0.0
 10
112.0674135947343
 20
201.5072114356049
 30
0.0
 10
112.0463050238338
 20
201.7004121092043
 30
0.0
 10
112.0328508432315
 20
201.8235543516294
 30
0.0
 10
112.0207244428391
 20
201.9345438039791
 30
0.0
  0
LINE
  5
88
330
2
100
AcDbEntity
  8
AM_VIS
100
AcDbLine
 10
101.7917675951289
 20
194.2782756655398
 30
0.0
 11
102.7858519334117
 21
194.3868865691399
 31
0.0
  0
LINE
  5
89
330
2
100
AcDbEntity
  8
AM_VIS
100
AcDbLine
 10
112.7266953162398
 20
195.4729956051409
 30
0.0
 11
113.7207796545226
 21
195.581606508741
 31
0.0
  0
LINE
  5
8A
330
2
100
AcDbEntity
  8
AM_VIS
100
AcDbLine
 10
96.24886524273817
 20
212.7857399303133
 30
0.0
 11
115.1364676701115
 21
214.8493470987151
 31
0.0
  0
SPLINE
  5
8B
330
2
100
AcDbEntity
  8
AM_VIS
100
AcDbSpline
210
0.0
220
0.0
230
1.0
 70
    28
 71
     2
 72
     6
 73
     3
 74
     0
 42
0.0000000001
 43
0.0000000001
 40
6.617810245657917
 40
6.617810245657917
 40
6.617810245657917
 40
13.04984894672373
 40
13.04984894672373
 40
13.04984894672373
 10
95.53135915756991
 20
219.3528666021858
 30
0.0
 41
1.079583196665445
 10
95.4885889175375
 20
219.744330298293
 30
0.0
 41
1.078466188711203
 10
95.4885889175375
 20
219.744330298293
 30
0.0
 41
1.0
  0
SPLINE
  5
8C
330
2
100
AcDbEntity
  8
AM_VIS
100
AcDbSpline
210
0.0
220
0.0
230
1.0
 70
    28
 71
     2
 72
     6
 73
     3
 74
     0
 42
0.0000000001
 43
0.0000000001
 40
13.04984894672373
 40
13.04984894672373
 40
13.04984894672373
 40
19.48188764778955
 40
19.48188764778955
 40
19.48188764778955
 10
96.24886524273817
 20
212.7857399303133
 30
0.0
 41
1.0
 10
96.24886524273817
 20
212.7857399303133
 30
0.0
 41
1.078466188711203
 10
96.20609500270569
 20
213.1772036264205
 30
0.0
 41
1.079583196665444
  0
LINE
  5
8D
330
2
100
AcDbEntity
  8
AM_VIS
100
AcDbLine
 10
96.20609500270569
 20
213.1772036264205
 30
0.0
 11
95.53135915756991
 21
219.3528666021858
 31
0.0
  0
SPLINE
  5
8E
330
2
100
AcDbEntity
  8
AM_VIS
100
AcDbSpline
210
0.0
220
0.0
230
1.0
 70
    12
 71
     2
 72
     6
 73
     3
 74
     0
 42
0.0000000001
 43
0.0000000001
 40
6.127478565216442
 40
6.127478565216442
 40
6.127478565216442
 40
19.9346189147304
 40
19.9346189147304
 40
19.9346189147304
 10
104.9751604084681
 20
220.3846698458001
 30
0.0
 41
1.24726503856845
 10
100.1734492367863
 20
220.5992486322576
 30
0.0
 41
1.440217572580998
 10
95.53135915756991
 20
219.3528666021858
 30
0.0
 41
1.247265116479671
  0
SPLINE
  5
8F
330
2
100
AcDbEntity
  8
AM_VIS
100
AcDbSpline
210
0.0
220
0.0
230
1.0
 70
    12
 71
     2
 72
     6
 73
     3
 74
     0
 42
0.0000000001
 43
0.0000000001
 40
6.127481352770829
 40
6.127481352770829
 40
6.127481352770829
 40
19.93462170228486
 40
19.93462170228486
 40
19.93462170228486
 10
96.20609500270569
 20
213.1772036264205
 30
0.0
 41
1.24726511647967
 10
101.0078055867794
 20
212.9626251204149
 30
0.0
 41
1.440217572580999
 10
105.6498961791808
 20
214.209007551208
 30
0.0
 41
1.247265038568449
  0
SPLINE
  5
90
330
2
100
AcDbEntity
  8
AM_VIS
100
AcDbSpline
210
0.0
220
0.0
230
1.0
 70
    28
 71
     2
 72
     6
 73
     3
 74
     0
 42
0.0000000001
 43
0.0000000001
 40
13.04984894672373
 40
13.04984894672373
 40
13.04984894672373
 40
19.48188764778955
 40
19.48188764778955
 40
19.48188764778955
 10
114.3761913449109
 20
221.8079374666948
 30
0.0
 41
1.0
 10
114.3761913449109
 20
221.8079374666948
 30
0.0
 41
1.078466188711203
 10
114.4189615849433
 20
221.4164737705876
 30
0.0
 41
1.079583196665444
  0
SPLINE
  5
91
330
2
100
AcDbEntity
  8
AM_VIS
100
AcDbSpline
210
0.0
220
0.0
230
1.0
 70
    28
 71
     2
 72
     6
 73
     3
 74
     0
 42
0.0000000001
 43
0.0000000001
 40
6.617810245657905
 40
6.617810245657905
 40
6.617810245657905
 40
13.04984894672373
 40
13.04984894672373
 40
13.04984894672373
 10
115.0936974300791
 20
215.2408107948223
 30
0.0
 41
1.079583196665444
 10
115.1364676701115
 20
214.8493470987151
 30
0.0
 41
1.078466188711203
 10
115.1364676701115
 20
214.8493470987151
 30
0.0
 41
1.0
  0
LINE
  5
92
330
2
100
AcDbEntity
  8
AM_VIS
100
AcDbLine
 10
105.6498961791808
 20
214.209007551208
 30
0.0
 11
104.9751604084681
 21
220.3846698458001
 31
0.0
  0
SPLINE
  5
93
330
2
100
AcDbEntity
  8
AM_VIS
100
AcDbSpline
210
0.0
220
0.0
230
1.0
 70
    12
 71
     2
 72
     6
 73
     3
 74
     0
 42
0.0000000001
 43
0.0000000001
 40
6.127481352770836
 40
6.127481352770836
 40
6.127481352770836
 40
19.93462170228476
 40
19.93462170228476
 40
19.93462170228476
 10
114.4189615849433
 20
221.4164737705876
 30
0.0
 41
1.24726511647967
 10
109.6172510008695
 20
221.6310522765932
 30
0.0
 41
1.440217572580997
 10
104.9751604084681
 20
220.3846698458
 30
0.0
 41
1.247265038568452
  0
LINE
  5
94
330
2
100
AcDbEntity
  8
AM_VIS
100
AcDbLine
 10
115.093697430079
 20
215.2408107948223
 30
0.0
 11
114.4189615849433
 21
221.4164737705876
 31
0.0
  0
SPLINE
  5
95
330
2
100
AcDbEntity
  8
AM_VIS
100
AcDbSpline
210
0.0
220
0.0
230
1.0
 70
    12
 71
     2
 72
     6
 73
     3
 74
     0
 42
0.0000000001
 43
0.0000000001
 40
6.12747856521644
 40
6.12747856521644
 40
6.12747856521644
 40
19.93461891473044
 40
19.93461891473044
 40
19.93461891473044
 10
105.6498961791808
 20
214.209007551208
 30
0.0
 41
1.24726503856845
 10
110.4516073508626
 20
213.9944287647506
 30
0.0
 41
1.440217572580998
 10
115.0936974300791
 20
215.2408107948224
 30
0.0
 41
1.24726511647967
  0
LINE
  5
96
330
2
100
AcDbEntity
  8
AM_VIS
100
AcDbLine
 10
114.8732335140524
 20
221.8622429184946
 30
0.0
 11
94.9915467483963
 21
219.6900248464927
 31
0.0
  0
LINE
  5
97
330
2
100
AcDbEntity
  8
AM_VIS
100
AcDbLine
 10
114.8732335140524
 20
221.8622429184946
 30
0.0
 11
109.768521044848
 21
268.5842068177866
 31
0.0
  0
LINE
  5
98
330
2
100
AcDbEntity
  8
AM_VIS
100
AcDbLine
 10
94.99154674839628
 20
219.6900248464927
 30
0.0
 11
89.88683427919182
 21
266.4119887457847
 31
0.0
  0
LINE
  5
99
330
2
100
AcDbEntity
  8
AM_VIS
100
AcDbLine
 10
106.4604353191992
 20
271.2406271218347
 30
0.0
 11
109.768521044848
 21
268.5842068177866
 31
0.0
  0
LINE
  5
9A
330
2
100
AcDbEntity
  8
AM_VIS
100
AcDbLine
 10
106.4604353191993
 20
271.2406271218347
 30
0.0
 11
92.54325458323998
 21
269.7200744714334
 31
0.0
  0
LINE
  5
9B
330
2
100
AcDbEntity
  8
AM_VIS
100
AcDbLine
 10
89.88683427919182
 20
266.4119887457847
 30
0.0
 11
92.54325458323998
 21
269.7200744714334
 31
0.0
  0
LINE
  5
9C
330
2
100
AcDbEntity
  8
AM_VIS
100
AcDbLine
 10
60.52675465542759
 20
281.4285260721251
 30
0.0
 11
60.75231397064332
 21
275.4327673215315
 31
0.0
  0
LINE
  5
9D
330
2
100
AcDbEntity
  8
AM_VIS
100
AcDbLine
 10
80.5126171574062
 20
282.1803904561775
 30
0.0
 11
80.77761764565313
 21
275.1362167549121
 31
0.0
  0
ARC
  5
9E
330
2
100
AcDbEntity
  8
AM_VIS
100
AcDbCircle
 10
70.51968590641692
 20
281.8044582641513
 30
0.0
 40
10.0
100
AcDbArc
 50
2.154440462509766
 51
182.1544404625097
  0
ARC
  5
9F
330
2
100
AcDbEntity
  8
AM_VIS
100
AcDbCircle
 10
61.49324364178037
 20
242.4372975836656
 30
0.0
 40
3.0
100
AcDbArc
 50
92.15444046250976
 51
182.1544404625097
  0
LINE
  5
A0
330
2
100
AcDbEntity
  8
AM_VIS
100
AcDbLine
 10
58.49536426648353
 20
242.3245179260577
 30
0.0
 11
60.18705913060145
 21
197.3563272966059
 31
0.0
  0
ARC
  5
A1
330
2
100
AcDbEntity
  8
AM_VIS
100
AcDbCircle
 10
50.19412787961218
 20
196.9803951045797
 30
0.0
 40
10.0
100
AcDbArc
 50
182.1544404625097
 51
2.154440462509766
  0
LINE
  5
A2
330
2
100
AcDbEntity
  8
AM_VIS
100
AcDbLine
 10
40.20119662862287
 20
196.6044629125535
 30
0.0
 11
37.68245094204728
 21
263.5571022941817
 31
0.0
  0
ARC
  5
A3
330
2
100
AcDbEntity
  8
AM_VIS
100
AcDbCircle
 10
48.67467531813551
 20
263.9706277054106
 30
0.0
 40
11.0
100
AcDbArc
 50
92.15444046250992
 51
182.1544404625099
  0
LINE
  5
A4
330
2
100
AcDbEntity
  8
AM_VIS
100
AcDbLine
 10
48.26114990690669
 20
274.9628520814987
 30
0.0
 11
62.60517767831974
 21
275.5024717053262
 31
0.0
  0
CIRCLE
  5
A5
330
2
100
AcDbEntity
  8
AM_VIS
100
AcDbCircle
 10
48.67467531813551
 20
263.9706277054106
 30
0.0
 40
4.0
  0
LINE
  5
A6
330
2
100
AcDbEntity
  8
AM_VIS
100
AcDbLine
 10
63.73297425439838
 20
245.5236779523584
 30
0.0
 11
61.38046398417251
 21
245.4351769589624
 31
0.0
  0
LINE
  5
A7
330
2
100
AcDbEntity
  8
AM_VIS
100
AcDbLine
 10
66.46565606437516
 20
245.6264809274947
 30
0.0
 11
63.73297425439838
 21
245.5236779523584
 31
0.0
  0
LINE
  5
A8
330
2
100
AcDbEntity
  8
AM_VIS
100
AcDbLine
 10
63.73297425439836
 20
245.5236779523584
 30
0.0
 11
62.60517767831974
 21
275.5024717053262
 31
0.0
  0
LINE
  5
A9
330
2
100
AcDbEntity
  8
AM_VIS
100
AcDbLine
 10
62.60517767831974
 20
275.5024717053262
 30
0.0
 11
75.74171084712725
 21
275.9966656095708
 31
0.0
  0
ARC
  5
AA
330
2
100
AcDbEntity
  8
AM_VIS
100
AcDbCircle
 10
100.9010703576981
 20
258.9304232282544
 30
0.0
 40
11.99999999999999
100
AcDbArc
 50
331.51656014594
 51
40.95393274221212
  0
ARC
  5
AB
330
2
100
AcDbEntity
  8
AM_VIS
100
AcDbCircle
 10
100.9010703576981
 20
258.9304232282544
 30
0.0
 40
11.99999999999999
100
AcDbArc
 50
82.0397051704821
 51
92.15444046250977
  0
LINE
  5
AC
330
2
100
AcDbEntity
  8
AM_VIS
100
AcDbLine
 10
92.05263281197639
 20
246.5890581747961
 30
0.0
 11
67.57842179436451
 21
245.6683429647267
 31
0.0
  0
LINE
  5
AD
330
2
100
AcDbEntity
  8
AM_VIS
100
AcDbLine
 10
76.18424661387971
 20
264.2332955469376
 30
0.0
 11
69.11754057205325
 21
247.4596148142045
 31
0.0
  0
ARC
  5
AE
330
2
100
AcDbEntity
  8
AM_VIS
100
AcDbCircle
 10
66.35287640676731
 20
248.6243603027915
 30
0.0
 40
2.999999999999999
100
AcDbArc
 50
272.1544404625098
 51
337.15444046251
  0
SPLINE
  5
AF
330
2
100
AcDbEntity
  8
AM_VIS
100
AcDbSpline
210
0.0
220
0.0
230
1.0
 70
    24
 71
     3
 72
    10
 73
     6
 74
     0
 42
0.0000000001
 43
0.0000000001
 40
0.0
 40
0.0
 40
0.0
 40
0.0
 40
0.5341509876506754
 40
0.5341509876506754
 40
1.06830197530135
 40
1.06830197530135
 40
1.06830197530135
 40
1.06830197530135
 10
66.46565606437516
 20
245.6264809274947
 30
0.0
 10
66.63793069158433
 20
245.6329618665316
 30
0.0
 10
66.82727937252988
 20
245.640085128255
 30
0.0
 10
67.20854935787716
 20
245.6544284333119
 30
0.0
 10
67.40049732445649
 20
245.6616494796714
 30
0.0
 10
67.57842179436451
 20
245.6683429647267
 30
0.0
  0
LINE
  5
B0
330
2
100
AcDbEntity
  8
AM_VIS
100
AcDbLine
 10
78.97046668756459
 20
270.113886546764
 30
0.0
 11
100.4499517272667
 21
270.9219407294414
 31
0.0
  0
ARC
  5
B1
330
2
100
AcDbEntity
  8
AM_VIS
100
AcDbCircle
 10
78.96294804372408
 20
270.3137451717839
 30
0.0
 40
0.2
100
AcDbArc
 50
247.1544404624944
 51
272.1544404625148
  0
ARC
  5
B2
330
2
100
AcDbEntity
  8
AM_VIS
100
AcDbCircle
 10
78.96294804372408
 20
270.3137451717839
 30
0.0
 40
0.2
100
AcDbArc
 50
157.1544404625149
 51
247.1544404624944
  0
LINE
  5
B3
330
2
100
AcDbEntity
  8
AM_VIS
100
AcDbLine
 10
76.18424661387973
 20
264.2332955469376
 30
0.0
 11
80.77761764565313
 21
275.1362167549121
 31
0.0
  0
CIRCLE
  5
B4
330
2
100
AcDbEntity
  8
AM_VIS
100
AcDbCircle
 10
100.8051757944818
 20
258.5513387371897
 30
0.0
 40
3.9
  0
CIRCLE
  5
B5
330
2
100
AcDbEntity
  8
AM_VIS
100
AcDbCircle
 10
119.0151818217612
 20
91.88039510457997
 30
0.0
 40
13.5
  0
ARC
  5
B6
330
2
100
AcDbEntity
  8
AM_VIS
100
AcDbCircle
 10
135.2463639450863
 20
90.63591654733311
 30
0.0
 40
2.0
100
AcDbArc
 50
6.235246444076042
 51
96.235246444076
  0
LINE
  5
B7
330
2
100
AcDbEntity
  8
AM_VIS
100
AcDbLine
 10
138.6464743684541
 20
77.93004195684915
 30
0.0
 11
137.234532621652
 21
90.85313835453334
 31
0.0
  0
LINE
  5
B8
330
2
100
AcDbEntity
  8
AM_VIS
100
AcDbLine
 10
102.8594381902712
 20
74.02004942726107
 30
0.0
 11
101.5492306031971
 21
86.0120023439345
 31
0.0
  0
LINE
  5
B9
330
2
100
AcDbEntity
  8
AM_VIS
100
AcDbLine
 10
145.060137084039
 20
67.56532147964636
 30
0.0
 11
98.83521535388837
 21
62.51491446224195
 31
0.0
  0
LINE
  5
BA
330
2
100
AcDbEntity
  8
AM_VIS
100
AcDbLine
 10
87.15472437906536
 20
61.23873634494084
 30
0.0
 11
98.83521535388837
 21
62.51491446224195
 31
0.0
  0
LINE
  5
BB
330
2
100
AcDbEntity
  8
AM_VIS
100
AcDbLine
 10
145.060137084039
 20
67.56532147964636
 30
0.0
 11
156.740628058862
 21
68.84149959694747
 31
0.0
  0
LINE
  5
BC
330
2
100
AcDbEntity
  8
AM_VIS
100
AcDbLine
 10
159.9989551668648
 20
39.01896944846318
 30
0.0
 11
156.740628058862
 21
68.84149959694747
 31
0.0
  0
LINE
  5
BD
330
2
100
AcDbEntity
  8
AM_VIS
100
AcDbLine
 10
148.3184641920418
 20
37.74279133116206
 30
0.0
 11
102.0935424618912
 21
32.69238431375765
 31
0.0
  0
LINE
  5
BE
330
2
100
AcDbEntity
  8
AM_VIS
100
AcDbLine
 10
87.15472437906536
 20
61.23873634494084
 30
0.0
 11
90.4130514870682
 21
31.41620619645655
 31
0.0
  0
LINE
  5
BF
330
2
100
AcDbEntity
  8
AM_VIS
100
AcDbLine
 10
132.5070627099718
 20
92.34852980564301
 30
0.0
 11
135.0291421378861
 21
92.62408522389874
 31
0.0
  0
LINE
  5
C0
330
2
100
AcDbEntity
  8
AM_VIS
100
AcDbLine
 10
124.331224691327
 20
-140.9193894490337
 30
0.0
 11
124.7656683057274
 21
-144.895726802165
 31
0.0
  0
LINE
  5
C1
330
2
100
AcDbEntity
  8
AM_VIS
100
AcDbLine
 10
164.0945982226394
 20
-136.5749533050299
 30
0.0
 11
164.5290418370398
 21
-140.5512906581611
 31
0.0
  0
LINE
  5
C2
330
2
100
AcDbEntity
  8
AM_VIS
100
AcDbLine
 10
164.5290418370398
 20
-140.5512906581611
 30
0.0
 11
124.7656683057274
 21
-144.8957268021649
 31
0.0
  0
LINE
  5
C3
330
2
100
AcDbEntity
  8
AM_VIS
100
AcDbLine
 10
164.0670452140557
 20
-106.3994377198453
 30
0.0
 11
117.8421234839051
 21
-111.4498447372497
 31
0.0
  0
LINE
  5
C4
330
2
100
AcDbEntity
  8
AM_VIS
100
AcDbLine
 10
179.0058632968816
 20
-134.9457897510285
 30
0.0
 11
175.7475361888787
 21
-105.1232596025442
 31
0.0
  0
LINE
  5
C5
330
2
100
AcDbEntity
  8
AM_VIS
100
AcDbLine
 10
121.1004505919079
 20
-141.272374885734
 30
0.0
 11
109.4199596170849
 21
-142.5485530030351
 31
0.0
  0
LINE
  5
C6
330
2
100
AcDbEntity
  8
AM_VIS
100
AcDbLine
 10
167.3253723220585
 20
-136.2219678683296
 30
0.0
 11
121.1004505919079
 21
-141.272374885734
 31
0.0
  0
LINE
  5
C7
330
2
100
AcDbEntity
  8
AM_VIS
100
AcDbLine
 10
179.0058632968816
 20
-134.9457897510285
 30
0.0
 11
167.3253723220585
 21
-136.2219678683296
 31
0.0
  0
LINE
  5
C8
330
2
100
AcDbEntity
  8
AM_VIS
100
AcDbLine
 10
106.1616325090821
 20
-112.7260228545508
 30
0.0
 11
109.4199596170849
 21
-142.5485530030351
 31
0.0
  0
LINE
  5
C9
330
2
100
AcDbEntity
  8
AM_VIS
100
AcDbLine
 10
137.4752891649904
 20
-109.3047793911478
 30
0.0
 11
144.43387953297
 21
-108.5445030659472
 31
0.0
  0
LINE
  5
CA
330
2
100
AcDbEntity
  8
AM_VIS
100
AcDbLine
 10
117.5936023993341
 20
-111.4769974631497
 30
0.0
 11
124.5521927673139
 21
-110.7167211379491
 31
0.0
  0
LINE
  5
CB
330
2
100
AcDbEntity
  8
AM_VIS
100
AcDbLine
 10
90.41305148706809
 20
31.41620619645653
 30
0.0
 11
106.1616325090818
 21
-112.7260228545508
 31
0.0
  0
LINE
  5
CC
330
2
100
AcDbEntity
  8
AM_VIS
100
AcDbLine
 10
117.5936023993341
 20
-111.4769974631497
 30
0.0
 11
106.1616325090818
 21
-112.7260228545508
 31
0.0
  0
LINE
  5
CD
330
2
100
AcDbEntity
  8
AM_VIS
100
AcDbLine
 10
157.3569759306466
 20
-107.1325613191459
 30
0.0
 11
164.3155662986262
 21
-106.3722849939453
 31
0.0
  0
LINE
  5
CE
330
2
100
AcDbEntity
  8
AM_VIS
100
AcDbLine
 10
175.7475361888786
 20
-105.1232596025442
 30
0.0
 11
159.9989551668648
 21
39.01896944846319
 31
0.0
  0
LINE
  5
CF
330
2
100
AcDbEntity
  8
AM_VIS
100
AcDbLine
 10
175.7475361888786
 20
-105.1232596025441
 30
0.0
 11
164.3155662986262
 21
-106.3722849939452
 31
0.0
  0
LINE
  5
D0
330
2
100
AcDbEntity
  8
AM_VIS
100
AcDbLine
 10
140.1172684012087
 20
36.84675137646129
 30
0.0
 11
155.8658494232225
 21
-107.295477674546
 31
0.0
  0
LINE
  5
D1
330
2
100
AcDbEntity
  8
AM_VIS
100
AcDbLine
 10
145.9250060403943
 20
-108.381586710547
 30
0.0
 11
130.1764250183805
 21
35.76064234046035
 31
0.0
  0
LINE
  5
D2
330
2
100
AcDbEntity
  8
AM_VIS
100
AcDbLine
 10
120.2355816355525
 20
34.67453330445939
 30
0.0
 11
135.9841626575662
 21
-109.4676957465479
 31
0.0
  0
LINE
  5
D3
330
2
100
AcDbEntity
  8
AM_VIS
100
AcDbLine
 10
101.8450213773203
 20
32.66523158785762
 30
0.0
 11
108.8036117453001
 21
33.42550791305829
 31
0.0
  0
LINE
  5
D4
330
2
100
AcDbEntity
  8
AM_VIS
100
AcDbLine
 10
90.41305148706806
 20
31.41620619645653
 30
0.0
 11
101.8450213773203
 21
32.66523158785762
 31
0.0
  0
LINE
  5
D5
330
2
100
AcDbEntity
  8
AM_VIS
100
AcDbLine
 10
148.5669852766125
 20
37.76994405706209
 30
0.0
 11
159.9989551668648
 21
39.01896944846318
 31
0.0
  0
LINE
  5
D6
330
2
100
AcDbEntity
  8
AM_VIS
100
AcDbLine
 10
141.6083949086329
 20
37.00966773186143
 30
0.0
 11
148.5669852766125
 21
37.76994405706209
 31
0.0
  0
LINE
  5
D7
330
2
100
AcDbEntity
  8
AM_VIS
100
AcDbLine
 10
121.7267081429767
 20
34.83744965985954
 30
0.0
 11
128.6852985109563
 21
35.59772598506019
 31
0.0
  0
LINE
  5
D8
330
2
100
AcDbEntity
  8
AM_VIS
100
AcDbLine
 10
126.043319274738
 20
-110.5538047825489
 30
0.0
 11
110.2947382527243
 21
33.58842426845842
 31
0.0
  0
LINE
  5
D9
330
2
100
AcDbEntity
  8
AM_VIS
100
AcDbLine
 10
106.8489945691704
 20
83.54068182018723
 30
0.0
 11
107.721248978086
 21
75.55718828353665
 31
0.0
  0
LINE
  5
DA
330
2
100
AcDbEntity
  8
AM_VIS
100
AcDbLine
 10
133.5674417734391
 20
78.38107177713911
 30
0.0
 11
132.3336278761291
 21
89.67381524042504
 31
0.0
  0
ARC
  5
DB
330
2
100
AcDbEntity
  8
AM_VIS
100
AcDbCircle
 10
135.5556104500047
 20
78.5982935843393
 30
0.0
 40
2.0
100
AcDbArc
 50
186.2352464440759
 51
216.235246444265
  0
ARC
  5
DC
330
2
100
AcDbEntity
  8
AM_VIS
100
AcDbCircle
 10
105.7330803015203
 20
75.33996647633646
 30
0.0
 40
2.0
100
AcDbArc
 50
336.2352464442654
 51
6.235246444075964
  0
LINE
  5
DD
330
2
100
AcDbEntity
  8
AM_VIS
100
AcDbLine
 10
92.01653516687793
 20
62.77587520123693
 30
0.0
 11
92.12514607047941
 21
61.78179086294132
 31
0.0
  0
LINE
  5
DE
330
2
100
AcDbEntity
  8
AM_VIS
100
AcDbLine
 10
151.7702063674479
 20
68.29844507894701
 30
0.0
 11
151.6615954638492
 21
69.29252941721706
 31
0.0
  0
CIRCLE
  5
DF
330
2
100
AcDbEntity
  8
AM_VIS
100
AcDbCircle
 10
79.19412787961192
 20
212.7303951045799
 30
0.0
 40
3.999999999999999
  0
CIRCLE
  5
E0
330
2
100
AcDbEntity
  8
AM_VIS
100
AcDbCircle
 10
79.19412787961192
 20
212.7303951045799
 30
0.0
 40
5.875
  0
CIRCLE
  5
E1
330
2
100
AcDbEntity
  8
AM_VIS
100
AcDbCircle
 10
79.19412787961192
 20
212.7303951045799
 30
0.0
 40
4.0
  0
CIRCLE
  5
E2
330
2
100
AcDbEntity
  8
AM_VIS
100
AcDbCircle
 10
48.67467531820202
 20
263.9706277054123
 30
0.0
 40
4.0
  0
LINE
  5
E3
330
2
100
AcDbEntity
  8
AM_VIS
100
AcDbLine
 10
419.0701496557384
 20
210.2874258137164
 30
0.0
 11
419.0701496557384
 21
212.7053951093388
 31
0.0
  0
LINE
  5
E4
330
2
100
AcDbEntity
  8
AM_VIS
100
AcDbLine
 10
424.0701496557384
 20
210.2874258137164
 30
0.0
 11
424.0701496557384
 21
213.9020495356374
 31
0.0
  0
LINE
  5
E5
330
2
100
AcDbEntity
  8
AM_VIS
100
AcDbLine
 10
419.0701496557384
 20
210.2874258137164
 30
0.0
 11
419.0701496557384
 21
201.2099332824823
 31
0.0
  0
LINE
  5
E6
330
2
100
AcDbEntity
  8
AM_VIS
100
AcDbLine
 10
424.0701496557384
 20
210.2874258137164
 30
0.0
 11
424.0701496557384
 21
197.0767718690228
 31
0.0
  0
LINE
  5
E7
330
2
100
AcDbEntity
  8
AM_VIS
100
AcDbLine
 10
424.0701496557384
 20
197.0767718690228
 30
0.0
 11
424.0701496557384
 21
195.9372626828973
 31
0.0
  0
LINE
  5
E8
330
2
100
AcDbEntity
  8
AM_VIS
100
AcDbLine
 10
424.0701496557384
 20
122.0589850712042
 30
0.0
 11
419.8201496557401
 21
122.0589850712042
 31
0.0
  0
LINE
  5
E9
330
2
100
AcDbEntity
  8
AM_VIS
100
AcDbLine
 10
424.0701496557384
 20
195.9372626828973
 30
0.0
 11
424.0701496557384
 21
122.0589850712042
 31
0.0
  0
LINE
  5
EA
330
2
100
AcDbEntity
  8
AM_VIS
100
AcDbLine
 10
424.0701496557384
 20
122.0589850712042
 30
0.0
 11
424.0701496557384
 21
121.3517801239252
 31
0.0
  0
ELLIPSE
  5
EB
330
2
100
AcDbEntity
  8
AM_VIS
100
AcDbEllipse
 10
391.9251496557384
 20
115.2914342505635
 30
0.0
 11
-14.34
 21
-0.0000000000000032
 31
0.0
210
0.0
220
0.0
230
1.0
 40
0.4226182617406992
 41
4.712388980384689
 42
6.283185307179586
  0
LINE
  5
EC
330
2
100
AcDbEntity
  8
AM_VIS
100
AcDbLine
 10
436.7451496557384
 20
121.3517801239252
 30
0.0
 11
419.8201496557401
 21
121.3517801239252
 31
0.0
  0
LINE
  5
ED
330
2
100
AcDbEntity
  8
AM_VIS
100
AcDbLine
 10
407.8201496557402
 20
121.3517801239252
 30
0.0
 11
391.9251496557384
 21
121.3517801239252
 31
0.0
  0
LINE
  5
EE
330
2
100
AcDbEntity
  8
AM_VIS
100
AcDbLine
 10
377.5851496557384
 20
115.2914342505635
 30
0.0
 11
377.5851496557384
 21
105.3253388379832
 31
0.0
  0
LINE
  5
EF
330
2
100
AcDbEntity
  8
AM_VIS
100
AcDbLine
 10
383.2451496557384
 20
103.3905039999454
 30
0.0
 11
383.2451496557384
 21
115.2914342505635
 31
0.0
  0
ELLIPSE
  5
F0
330
2
100
AcDbEntity
  8
AM_VIS
100
AcDbEllipse
 10
391.2451496557384
 20
115.2914342505635
 30
0.0
 11
-7.999999999999999
 21
-0.0000000000000018
 31
0.0
210
0.0
220
0.0
230
1.0
 40
0.4226182617406992
 41
4.712388980384689
 42
6.283185307179586
  0
LINE
  5
F1
330
2
100
AcDbEntity
  8
AM_VIS
100
AcDbLine
 10
391.2451496557384
 20
118.6723803444891
 30
0.0
 11
404.0816595088061
 21
118.6723803444891
 31
0.0
  0
LINE
  5
F2
330
2
100
AcDbEntity
  8
AM_VIS
100
AcDbLine
 10
428.5086398026706
 20
118.6723803444891
 30
0.0
 11
436.7451496557385
 21
118.6723803444891
 31
0.0
  0
ELLIPSE
  5
F3
330
2
100
AcDbEntity
  8
AM_VIS
100
AcDbEllipse
 10
436.7451496557384
 20
115.2914342505635
 30
0.0
 11
-7.999999999999998
 21
-0.0000000000000018
 31
0.0
210
0.0
220
0.0
230
1.0
 40
0.4226182617406992
 41
3.141592653589793
 42
4.712388980384689
  0
LINE
  5
F4
330
2
100
AcDbEntity
  8
AM_VIS
100
AcDbLine
 10
444.7451496557384
 20
115.2914342505635
 30
0.0
 11
444.7451496557384
 21
103.3905039999454
 31
0.0
  0
LINE
  5
F5
330
2
100
AcDbEntity
  8
AM_VIS
100
AcDbLine
 10
451.0851496557385
 20
115.2914342505635
 30
0.0
 11
451.0851496557385
 21
105.3253388379833
 31
0.0
  0
ELLIPSE
  5
F6
330
2
100
AcDbEntity
  8
AM_VIS
100
AcDbEllipse
 10
436.7451496557384
 20
115.2914342505635
 30
0.0
 11
-14.34
 21
-0.0000000000000032
 31
0.0
210
0.0
220
0.0
230
1.0
 40
0.4226182617406992
 41
3.141592653589791
 42
4.712388980384689
  0
LINE
  5
F7
330
2
100
AcDbEntity
  8
AM_VIS
100
AcDbLine
 10
401.2951496557384
 20
95.65216255375828
 30
0.0
 11
400.2951496557384
 21
95.65216255375828
 31
0.0
  0
LINE
  5
F8
330
2
100
AcDbEntity
  8
AM_VIS
100
AcDbLine
 10
444.7451496557384
 20
79.64465204400173
 30
0.0
 11
444.7451496557384
 21
103.3905039999454
 31
0.0
  0
LINE
  5
F9
330
2
100
AcDbEntity
  8
AM_VIS
100
AcDbLine
 10
383.2451496557384
 20
103.3905039999454
 30
0.0
 11
383.2451496557384
 21
79.2043168177974
 31
0.0
  0
LINE
  5
FA
330
2
100
AcDbEntity
  8
AM_VIS
100
AcDbLine
 10
451.0851496557385
 20
79.18039510458005
 30
0.0
 11
449.4873344975456
 21
79.18039510458005
 31
0.0
  0
LINE
  5
FB
330
2
100
AcDbEntity
  8
AM_VIS
100
AcDbLine
 10
383.102964813931
 20
79.18039510458001
 30
0.0
 11
377.5851496557384
 21
79.18039510458001
 31
0.0
  0
LINE
  5
FC
330
2
100
AcDbEntity
  8
AM_VIS
100
AcDbLine
 10
403.8201496557384
 20
210.2874258137164
 30
0.0
 11
403.8201496557384
 21
213.8056194719831
 31
0.0
  0
LINE
  5
FD
330
2
100
AcDbEntity
  8
AM_VIS
100
AcDbLine
 10
403.8201496557384
 20
210.2874258137164
 30
0.0
 11
403.8201496557384
 21
197.0767718690228
 31
0.0
  0
LINE
  5
FE
330
2
100
AcDbEntity
  8
AM_VIS
100
AcDbLine
 10
403.8201496557384
 20
197.0767718690228
 30
0.0
 11
403.8201496557384
 21
195.9372626828973
 31
0.0
  0
LINE
  5
FF
330
2
100
AcDbEntity
  8
AM_VIS
100
AcDbLine
 10
403.8201496557384
 20
195.9372626828973
 30
0.0
 11
403.8201496557384
 21
122.0589850712042
 31
0.0
  0
LINE
  5
100
330
2
100
AcDbEntity
  8
AM_VIS
100
AcDbLine
 10
407.8201496557402
 20
122.0589850712042
 30
0.0
 11
403.8201496557384
 21
122.0589850712042
 31
0.0
  0
LINE
  5
101
330
2
100
AcDbEntity
  8
AM_VIS
100
AcDbLine
 10
403.8201496557384
 20
122.0589850712042
 30
0.0
 11
403.8201496557384
 21
121.3517801239252
 31
0.0
  0
CIRCLE
  5
102
330
2
100
AcDbEntity
  8
AM_VIS
100
AcDbCircle
 10
439.3201496557384
 20
189.18039510458
 30
0.0
 40
4.15
  0
CIRCLE
  5
103
330
2
100
AcDbEntity
  8
AM_VIS
100
AcDbCircle
 10
389.3201496557384
 20
189.18039510458
 30
0.0
 40
4.15
  0
LINE
  5
104
330
2
100
AcDbEntity
  8
AM_VIS
100
AcDbLine
 10
384.3201496557384
 20
214.18039510458
 30
0.0
 11
397.5701496557384
 21
214.18039510458
 31
0.0
  0
LINE
  5
105
330
2
100
AcDbEntity
  8
AM_VIS
100
AcDbLine
 10
430.0701496557384
 20
214.18039510458
 30
0.0
 11
444.3201496557384
 21
214.18039510458
 31
0.0
  0
ARC
  5
106
330
2
100
AcDbEntity
  8
AM_VIS
100
AcDbCircle
 10
444.3201496557384
 20
209.1803951045799
 30
0.0
 40
5.0
100
AcDbArc
 50
0.0
 51
90.0
  0
LINE
  5
107
330
2
100
AcDbEntity
  8
AM_VIS
100
AcDbLine
 10
449.3201496557384
 20
209.1803951045799
 30
0.0
 11
449.3201496557384
 21
118.2042821415056
 31
0.0
  0
LINE
  5
108
330
2
100
AcDbEntity
  8
AM_VIS
100
AcDbLine
 10
401.2951496557384
 20
94.18039510458001
 30
0.0
 11
400.2951496557384
 21
94.18039510458001
 31
0.0
  0
LINE
  5
109
330
2
100
AcDbEntity
  8
AM_VIS
100
AcDbLine
 10
379.3201496557384
 20
118.1810300208996
 30
0.0
 11
379.3201496557384
 21
209.1803951045799
 31
0.0
  0
ARC
  5
10A
330
2
100
AcDbEntity
  8
AM_VIS
100
AcDbCircle
 10
384.3201496557384
 20
209.1803951045799
 30
0.0
 40
5.0
100
AcDbArc
 50
90.0
 51
180.0
  0
LINE
  5
10B
330
2
100
AcDbEntity
  8
AM_VIS
100
AcDbLine
 10
408.8201496557384
 20
245.1892215727085
 30
0.0
 11
408.8201496557384
 21
244.7261826989991
 31
0.0
  0
LINE
  5
10C
330
2
100
AcDbEntity
  8
AM_VIS
100
AcDbLine
 10
418.8201496557383
 20
244.7261826989993
 30
0.0
 11
418.8201496557383
 21
245.1892215727074
 31
0.0
  0
LINE
  5
10D
330
2
100
AcDbEntity
  8
AM_VIS
100
AcDbLine
 10
419.0701496557385
 20
212.957611926902
 30
0.0
 11
419.0701496557385
 21
212.7053951093388
 31
0.0
  0
LINE
  5
10E
330
2
100
AcDbEntity
  8
AM_VIS
100
AcDbLine
 10
419.0701496557385
 20
202.2303951046098
 30
0.0
 11
418.8201496557401
 21
202.2303951046098
 31
0.0
  0
ELLIPSE
  5
10F
330
2
100
AcDbEntity
  8
AM_VIS
100
AcDbEllipse
 10
416.2951496557384
 20
117.7265878999343
 30
0.0
 11
-15.0
 21
0.0000000000000033
 31
0.0
210
0.0
220
0.0
230
1.0
 40
0.1086109035996688
 41
4.712388980384689
 42
6.283185307179586
  0
ELLIPSE
  5
110
330
2
100
AcDbEntity
  8
AM_VIS
100
AcDbEllipse
 10
416.2951496557384
 20
117.7265878999343
 30
0.0
 11
-15.0
 21
0.0000000000000033
 31
0.0
210
0.0
220
0.0
230
1.0
 40
0.1086109035996688
 41
3.141592653589794
 42
4.712388980384689
  0
LINE
  5
111
330
2
100
AcDbEntity
  8
AM_VIS
100
AcDbLine
 10
444.6451496557383
 20
104.88039510458
 30
0.0
 11
444.6451496557383
 21
93.29233685137573
 31
0.0
  0
LINE
  5
112
330
2
100
AcDbEntity
  8
AM_VIS
100
AcDbLine
 10
444.6451496557383
 20
79.64994832916352
 30
0.0
 11
444.6451496557383
 21
93.29233685137575
 31
0.0
  0
LINE
  5
113
330
2
100
AcDbEntity
  8
AM_VIS
100
AcDbLine
 10
432.2951496557383
 20
79.77642731804275
 30
0.0
 11
432.2951496557383
 21
93.29233685137571
 31
0.0
  0
LINE
  5
114
330
2
100
AcDbEntity
  8
AM_VIS
100
AcDbLine
 10
432.2951496557383
 20
104.88039510458
 30
0.0
 11
432.2951496557383
 21
93.29233685137573
 31
0.0
  0
LINE
  5
115
330
2
100
AcDbEntity
  8
AM_VIS
100
AcDbLine
 10
400.2951496557384
 20
93.29233685137575
 30
0.0
 11
400.2951496557384
 21
104.88039510458
 31
0.0
  0
LINE
  5
116
330
2
100
AcDbEntity
  8
AM_VIS
100
AcDbLine
 10
400.2951496557384
 20
93.29233685137575
 30
0.0
 11
400.2951496557384
 21
79.77642731804275
 31
0.0
  0
LINE
  5
117
330
2
100
AcDbEntity
  8
AM_VIS
100
AcDbLine
 10
387.9451496557384
 20
93.29233685137575
 30
0.0
 11
387.9451496557384
 21
79.64994832916353
 31
0.0
  0
LINE
  5
118
330
2
100
AcDbEntity
  8
AM_VIS
100
AcDbLine
 10
387.9451496557384
 20
93.29233685137575
 30
0.0
 11
387.9451496557384
 21
104.88039510458
 31
0.0
  0
ELLIPSE
  5
119
330
2
100
AcDbEntity
  8
AM_VIS
100
AcDbEllipse
 10
439.5451496557384
 20
63.50899880053349
 30
0.0
 11
-11.75
 21
0.0000000000000026
 31
0.0
210
0.0
220
0.0
230
1.0
 40
0.1086109035996688
 41
2.480564933864727
 42
3.141592653589791
  0
LINE
  5
11A
330
2
100
AcDbEntity
  8
AM_VIS
100
AcDbLine
 10
451.2951496557383
 20
63.50899880053348
 30
0.0
 11
451.2951496557383
 21
68.55940581791807
 31
0.0
  0
ELLIPSE
  5
11B
330
2
100
AcDbEntity
  8
AM_VIS
100
AcDbEllipse
 10
439.5451496557384
 20
68.55940581791809
 30
0.0
 11
-11.75
 21
0.0000000000000026
 31
0.0
210
0.0
220
0.0
230
1.0
 40
0.1086109035996688
 41
3.141592653589794
 42
4.712388980384689
  0
LINE
  5
11C
330
2
100
AcDbEntity
  8
AM_VIS
100
AcDbLine
 10
439.5451496557384
 20
69.8355839352142
 30
0.0
 11
393.0451496557383
 21
69.8355839352142
 31
0.0
  0
ELLIPSE
  5
11D
330
2
100
AcDbEntity
  8
AM_VIS
100
AcDbEllipse
 10
393.0451496557383
 20
68.5594058179181
 30
0.0
 11
-11.75
 21
0.0000000000000026
 31
0.0
210
0.0
220
0.0
230
1.0
 40
0.1086109035996688
 41
4.712388980384689
 42
6.283185307179586
  0
LINE
  5
11E
330
2
100
AcDbEntity
  8
AM_VIS
100
AcDbLine
 10
381.2951496557383
 20
68.5594058179181
 30
0.0
 11
381.2951496557383
 21
68.34880349310414
 31
0.0
  0
ELLIPSE
  5
11F
330
2
100
AcDbEntity
  8
AM_VIS
100
AcDbEllipse
 10
439.5451496557384
 20
78.50024920074665
 30
0.0
 11
-11.75
 21
0.0000000000000026
 31
0.0
210
0.0
220
0.0
230
1.0
 40
0.1086109035996688
 41
3.141592653589794
 42
4.712388980384689
  0
LINE
  5
120
330
2
100
AcDbEntity
  8
AM_VIS
100
AcDbLine
 10
451.2951496557383
 20
68.55940581791807
 30
0.0
 11
451.2951496557383
 21
78.50024920074663
 31
0.0
  0
LINE
  5
121
330
2
100
AcDbEntity
  8
AM_VIS
100
AcDbLine
 10
439.5451496557384
 20
79.77642731804275
 30
0.0
 11
393.0451496557383
 21
79.77642731804277
 31
0.0
  0
ELLIPSE
  5
122
330
2
100
AcDbEntity
  8
AM_VIS
100
AcDbEllipse
 10
393.0451496557383
 20
78.50024920074665
 30
0.0
 11
-11.75
 21
0.0000000000000026
 31
0.0
210
0.0
220
0.0
230
1.0
 40
0.1086109035996688
 41
4.712388980384689
 42
6.283185307179586
  0
LINE
  5
123
330
2
100
AcDbEntity
  8
AM_VIS
100
AcDbLine
 10
381.2951496557383
 20
78.50024920074665
 30
0.0
 11
381.2951496557383
 21
68.55940581791809
 31
0.0
  0
LINE
  5
124
330
2
100
AcDbEntity
  8
AM_VIS
100
AcDbLine
 10
401.2951496557384
 20
91.99711818047461
 30
0.0
 11
401.2951496557384
 21
117.7265878999343
 31
0.0
  0
LINE
  5
125
330
2
100
AcDbEntity
  8
AM_VIS
100
AcDbLine
 10
431.2951496557385
 20
104.88039510458
 30
0.0
 11
431.2951496557385
 21
117.7265878999343
 31
0.0
  0
LINE
  5
126
330
2
100
AcDbEntity
  8
AM_VIS
100
AcDbLine
 10
432.2951496557383
 20
104.88039510458
 30
0.0
 11
444.6451496557383
 21
104.88039510458
 31
0.0
  0
LINE
  5
127
330
2
100
AcDbEntity
  8
AM_VIS
100
AcDbLine
 10
400.2951496557384
 20
104.88039510458
 30
0.0
 11
387.9451496557384
 21
104.88039510458
 31
0.0
  0
SPLINE
  5
128
330
2
100
AcDbEntity
  8
AM_VIS
100
AcDbSpline
210
0.0
220
0.0
230
1.0
 70
    12
 71
     2
 72
     6
 73
     3
 74
     0
 42
0.0000000001
 43
0.0000000001
 40
0.0
 40
0.0
 40
0.0
 40
4.489288544457886
 40
4.489288544457886
 40
4.489288544457886
 10
371.0851496557383
 20
79.78600715322861
 30
0.0
 41
1.0
 10
371.2501750949939
 20
79.61681949252263
 30
0.0
 41
1.015279817641361
 10
371.8560782374475
 20
79.42898191270143
 30
0.0
 41
1.0
  0
SPLINE
  5
129
330
2
100
AcDbEntity
  8
AM_VIS
100
AcDbSpline
210
0.0
220
0.0
230
1.0
 70
    12
 71
     2
 72
     6
 73
     3
 74
     0
 42
0.0000000001
 43
0.0000000001
 40
0.0
 40
0.0
 40
0.0
 40
4.489288544457886
 40
4.489288544457886
 40
4.489288544457886
 10
371.8560782374475
 20
80.41030944911993
 30
0.0
 41
1.0
 10
371.2501750949939
 20
80.22247186929872
 30
0.0
 41
1.015279817641361
 10
371.0851496557383
 20
80.05328420859274
 30
0.0
 41
1.0
  0
LINE
  5
12A
330
2
100
AcDbEntity
  8
AM_VIS
100
AcDbLine
 10
371.8560782374475
 20
81.25328940655228
 30
0.0
 11
371.8560782374475
 21
80.41030944911993
 31
0.0
  0
SPLINE
  5
12B
330
2
100
AcDbEntity
  8
AM_VIS
100
AcDbSpline
210
0.0
220
0.0
230
1.0
 70
    12
 71
     2
 72
     6
 73
     3
 74
     0
 42
0.0000000001
 43
0.0000000001
 40
0.0
 40
0.0
 40
0.0
 40
4.489317750108253
 40
4.489317750108253
 40
4.489317750108253
 10
371.0851496557383
 20
85.24552174798575
 30
0.0
 41
1.0
 10
371.250172147076
 20
83.353676650859
 30
0.0
 41
1.015280026684792
 10
371.8560782374475
 20
81.25328940655228
 30
0.0
 41
1.0
  0
LINE
  5
12C
330
2
100
AcDbEntity
  8
AM_VIS
100
AcDbLine
 10
371.0851496557384
 20
85.24552174798557
 30
0.0
 11
371.0851496557384
 21
80.05328420859274
 31
0.0
  0
SPLINE
  5
12D
330
2
100
AcDbEntity
  8
AM_VIS
100
AcDbSpline
210
0.0
220
0.0
230
1.0
 70
    12
 71
     2
 72
     6
 73
     3
 74
     0
 42
0.0000000001
 43
0.0000000001
 40
0.0
 40
0.0
 40
0.0
 40
4.489317750108252
 40
4.489317750108252
 40
4.489317750108252
 10
371.8560782374475
 20
92.22633487775064
 30
0.0
 41
1.0
 10
371.250172147076
 20
90.12594763344395
 30
0.0
 41
1.015280026685218
 10
371.0851496557383
 20
88.23410253631719
 30
0.0
 41
1.0
  0
LINE
  5
12E
330
2
100
AcDbEntity
  8
AM_VIS
100
AcDbLine
 10
371.8560782374475
 20
93.70468272572995
 30
0.0
 11
371.8560782374475
 21
92.22633487775059
 31
0.0
  0
SPLINE
  5
12F
330
2
100
AcDbEntity
  8
AM_VIS
100
AcDbSpline
210
0.0
220
0.0
230
1.0
 70
    12
 71
     2
 72
     6
 73
     3
 74
     0
 42
0.0000000001
 43
0.0000000001
 40
0.0
 40
0.0
 40
0.0
 40
4.489259339835413
 40
4.489259339835413
 40
4.489259339835413
 10
371.0851496557384
 20
97.33983882732779
 30
0.0
 41
1.0
 10
371.2501780427889
 20
95.61720555853629
 30
0.0
 41
1.015279608607052
 10
371.8560782374475
 20
93.70468272572987
 30
0.0
 41
1.0
  0
LINE
  5
130
330
2
100
AcDbEntity
  8
AM_VIS
100
AcDbLine
 10
371.0851496557384
 20
97.33983882732768
 30
0.0
 11
371.0851496557384
 21
88.23410253631731
 31
0.0
  0
SPLINE
  5
131
330
2
100
AcDbEntity
  8
AM_VIS
100
AcDbSpline
210
0.0
220
0.0
230
1.0
 70
    12
 71
     2
 72
     6
 73
     3
 74
     0
 42
0.0000000001
 43
0.0000000001
 40
0.0
 40
0.0
 40
0.0
 40
4.489259339835388
 40
4.489259339835388
 40
4.489259339835388
 10
371.8560782374475
 20
103.6964388397013
 30
0.0
 41
1.0
 10
371.2501780427889
 20
101.7839160068948
 30
0.0
 41
1.01527960860693
 10
371.0851496557383
 20
100.0612827381034
 30
0.0
 41
1.0
  0
LINE
  5
132
330
2
100
AcDbEntity
  8
AM_VIS
100
AcDbLine
 10
371.8560782374475
 20
104.3318176627713
 30
0.0
 11
371.8560782374475
 21
103.6964388397012
 31
0.0
  0
SPLINE
  5
133
330
2
100
AcDbEntity
  8
AM_VIS
100
AcDbSpline
210
0.0
220
0.0
230
1.0
 70
    12
 71
     2
 72
     6
 73
     3
 74
     0
 42
0.0000000001
 43
0.0000000001
 40
0.0
 40
0.0
 40
0.0
 40
4.489346956745006
 40
4.489346956745006
 40
4.489346956745006
 10
371.0851496557383
 20
103.9747876476992
 30
0.0
 41
1.0
 10
371.2501691990396
 20
104.1439775709738
 30
0.0
 41
1.01528023573722
 10
371.8560782374475
 20
104.3318176627714
 30
0.0
 41
1.0
  0
LINE
  5
134
330
2
100
AcDbEntity
  8
AM_VIS
100
AcDbLine
 10
371.0851496557384
 20
103.9747876476992
 30
0.0
 11
371.0851496557384
 21
100.0612827381035
 31
0.0
  0
LINE
  5
135
330
2
100
AcDbEntity
  8
AM_VIS
100
AcDbLine
 10
371.8560782374475
 20
79.42898191270143
 30
0.0
 11
375.2560782374475
 21
79.42898191270143
 31
0.0
  0
LINE
  5
136
330
2
100
AcDbEntity
  8
AM_VIS
100
AcDbLine
 10
375.2560782374475
 20
80.41030944911993
 30
0.0
 11
371.8560782374475
 21
80.41030944911993
 31
0.0
  0
LINE
  5
137
330
2
100
AcDbEntity
  8
AM_VIS
100
AcDbLine
 10
375.2560782374475
 20
81.25328940655228
 30
0.0
 11
375.2560782374475
 21
80.41030944911993
 31
0.0
  0
LINE
  5
138
330
2
100
AcDbEntity
  8
AM_VIS
100
AcDbLine
 10
371.8560782374475
 20
81.25328940655231
 30
0.0
 11
375.2560782374475
 21
81.25328940655231
 31
0.0
  0
LINE
  5
139
330
2
100
AcDbEntity
  8
AM_VIS
100
AcDbLine
 10
375.2560782374475
 20
92.22633487775059
 30
0.0
 11
371.8560782374475
 21
92.22633487775059
 31
0.0
  0
LINE
  5
13A
330
2
100
AcDbEntity
  8
AM_VIS
100
AcDbLine
 10
375.2560782374475
 20
93.70468272572995
 30
0.0
 11
375.2560782374475
 21
92.22633487775059
 31
0.0
  0
LINE
  5
13B
330
2
100
AcDbEntity
  8
AM_VIS
100
AcDbLine
 10
371.8560782374475
 20
93.70468272572995
 30
0.0
 11
375.2560782374475
 21
93.70468272572995
 31
0.0
  0
SPLINE
  5
13C
330
2
100
AcDbEntity
  8
AM_VIS
100
AcDbSpline
210
0.0
220
0.0
230
1.0
 70
    12
 71
     2
 72
     6
 73
     3
 74
     0
 42
0.0000000001
 43
0.0000000001
 40
0.0
 40
0.0
 40
0.0
 40
5.59061555148098
 40
5.59061555148098
 40
5.59061555148098
 10
375.2560782374475
 20
79.42898191270143
 30
0.0
 41
1.0
 10
376.0160029704095
 20
79.66456811895182
 30
0.0
 41
1.024357497129432
 10
376.0851496557384
 20
79.87499945252642
 30
0.0
 41
1.0
  0
SPLINE
  5
13D
330
2
100
AcDbEntity
  8
AM_VIS
100
AcDbSpline
210
0.0
220
0.0
230
1.0
 70
    12
 71
     2
 72
     6
 73
     3
 74
     0
 42
0.0000000001
 43
0.0000000001
 40
0.0
 40
0.0
 40
0.0
 40
5.59061555148098
 40
5.59061555148098
 40
5.59061555148098
 10
376.0851496557384
 20
79.96429190929493
 30
0.0
 41
1.0
 10
376.0160029704095
 20
80.17472324286954
 30
0.0
 41
1.024357497129432
 10
375.2560782374475
 20
80.41030944911993
 30
0.0
 41
1.0
  0
SPLINE
  5
13E
330
2
100
AcDbEntity
  8
AM_VIS
100
AcDbSpline
210
0.0
220
0.0
230
1.0
 70
    12
 71
     2
 72
     6
 73
     3
 74
     0
 42
0.0000000001
 43
0.0000000001
 40
0.0
 40
0.0
 40
0.0
 40
5.590725438793462
 40
5.590725438793462
 40
5.590725438793462
 10
375.2560782374475
 20
81.25328940655228
 30
0.0
 41
1.0
 10
376.0160167975031
 20
83.88763371066493
 30
0.0
 41
1.024358508160214
 10
376.0851496557384
 20
86.24069416285434
 30
0.0
 41
1.0
  0
SPLINE
  5
13F
330
2
100
AcDbEntity
  8
AM_VIS
100
AcDbSpline
210
0.0
220
0.0
230
1.0
 70
    12
 71
     2
 72
     6
 73
     3
 74
     0
 42
0.0000000001
 43
0.0000000001
 40
0.0
 40
0.0
 40
0.0
 40
5.590725438793505
 40
5.590725438793505
 40
5.590725438793505
 10
376.0851496557384
 20
87.23893012144856
 30
0.0
 41
1.0
 10
376.0160167975031
 20
89.59199057363795
 30
0.0
 41
1.02435850816068
 10
375.2560782374475
 20
92.22633487775064
 30
0.0
 41
1.0
  0
SPLINE
  5
140
330
2
100
AcDbEntity
  8
AM_VIS
100
AcDbSpline
210
0.0
220
0.0
230
1.0
 70
    12
 71
     2
 72
     6
 73
     3
 74
     0
 42
0.0000000001
 43
0.0000000001
 40
0.0
 40
0.0
 40
0.0
 40
5.590505691017647
 40
5.590505691017647
 40
5.590505691017647
 10
375.2560782374475
 20
93.70468272572995
 30
0.0
 41
1.0
 10
376.0159891469613
 20
96.10334009233287
 30
0.0
 41
1.024356486367967
 10
376.0851496557384
 20
98.24587923533499
 30
0.0
 41
1.0
  0
LINE
  5
141
330
2
100
AcDbEntity
  8
AM_VIS
100
AcDbLine
 10
375.2560782374475
 20
103.6964388397012
 30
0.0
 11
371.8560782374475
 21
103.6964388397012
 31
0.0
  0
LINE
  5
142
330
2
100
AcDbEntity
  8
AM_VIS
100
AcDbLine
 10
375.2560782374475
 20
104.3318176627713
 30
0.0
 11
375.2560782374475
 21
103.6964388397012
 31
0.0
  0
LINE
  5
143
330
2
100
AcDbEntity
  8
AM_VIS
100
AcDbLine
 10
371.8560782374475
 20
104.3318176627713
 30
0.0
 11
375.2560782374475
 21
104.3318176627713
 31
0.0
  0
SPLINE
  5
144
330
2
100
AcDbEntity
  8
AM_VIS
100
AcDbSpline
210
0.0
220
0.0
230
1.0
 70
    12
 71
     2
 72
     6
 73
     3
 74
     0
 42
0.0000000001
 43
0.0000000001
 40
0.0
 40
0.0
 40
0.0
 40
5.590505691017647
 40
5.590505691017647
 40
5.590505691017647
 10
376.0851496557384
 20
99.15524233009623
 30
0.0
 41
1.0
 10
376.0159891469613
 20
101.2977814730983
 30
0.0
 41
1.024356486368036
 10
375.2560782374475
 20
103.6964388397012
 30
0.0
 41
1.0
  0
SPLINE
  5
145
330
2
100
AcDbEntity
  8
AM_VIS
100
AcDbSpline
210
0.0
220
0.0
230
1.0
 70
    12
 71
     2
 72
     6
 73
     3
 74
     0
 42
0.0000000001
 43
0.0000000001
 40
0.0
 40
0.0
 40
0.0
 40
5.149673311984344
 40
5.149673311984344
 40
5.149673311984344
 10
375.2560782374475
 20
104.3318176627713
 30
0.0
 41
1.0
 10
375.9573802102977
 20
104.1144044561552
 30
0.0
 41
1.022437356734263
 10
376.0697498758476
 20
103.9197744861934
 30
0.0
 41
1.003540977139602
  0
LINE
  5
146
330
2
100
AcDbEntity
  8
AM_VIS
100
AcDbLine
 10
371.0851496557384
 20
79.78600715322861
 30
0.0
 11
371.0851496557384
 21
80.05328420859274
 31
0.0
  0
LINE
  5
147
330
2
100
AcDbEntity
  8
AM_VIS
100
AcDbLine
 10
371.0851496557384
 20
85.24552174798557
 30
0.0
 11
371.0851496557384
 21
88.23410253631733
 31
0.0
  0
LINE
  5
148
330
2
100
AcDbEntity
  8
AM_VIS
100
AcDbLine
 10
371.0851496557384
 20
97.33983882732772
 30
0.0
 11
371.0851496557384
 21
100.0612827381035
 31
0.0
  0
LINE
  5
149
330
2
100
AcDbEntity
  8
AM_VIS
100
AcDbLine
 10
383.5701496557401
 20
85.88039510458003
 30
0.0
 11
383.2451496557384
 21
85.88039510458003
 31
0.0
  0
LINE
  5
14A
330
2
100
AcDbEntity
  8
AM_VIS
100
AcDbLine
 10
383.5701496557401
 20
97.88039510458004
 30
0.0
 11
383.2451496557384
 21
97.88039510458004
 31
0.0
  0
LINE
  5
14B
330
2
100
AcDbEntity
  8
AM_VIS
100
AcDbLine
 10
376.0851496557384
 20
79.86768892416302
 30
0.0
 11
376.0697563576058
 21
79.84102694970113
 31
0.0
  0
LINE
  5
14C
330
2
100
AcDbEntity
  8
AM_VIS
100
AcDbLine
 10
376.0851496557384
 20
103.893101284997
 30
0.0
 11
376.0697498758476
 21
103.9197744861934
 31
0.0
  0
SPLINE
  5
14D
330
2
100
AcDbEntity
  8
AM_VIS
100
AcDbSpline
210
0.0
220
0.0
230
1.0
 70
    12
 71
     2
 72
     6
 73
     3
 74
     0
 42
0.0000000001
 43
0.0000000001
 40
0.0
 40
0.0
 40
0.0
 40
4.489346956745006
 40
4.489346956745006
 40
4.489346956745006
 10
456.8142210740293
 20
79.42897254638868
 30
0.0
 41
1.0
 10
457.4201301124372
 20
79.61681263818627
 30
0.0
 41
1.01528023573722
 10
457.5851496557384
 20
79.7860025614608
 30
0.0
 41
1.0
  0
SPLINE
  5
14E
330
2
100
AcDbEntity
  8
AM_VIS
100
AcDbSpline
210
0.0
220
0.0
230
1.0
 70
    12
 71
     2
 72
     6
 73
     3
 74
     0
 42
0.0000000001
 43
0.0000000001
 40
0.0
 40
0.0
 40
0.0
 40
4.489288544457886
 40
4.489288544457886
 40
4.489288544457886
 10
456.8142210740293
 20
104.3318082964586
 30
0.0
 41
1.0
 10
457.420124216483
 20
104.1439707166373
 30
0.0
 41
1.015279817641361
 10
457.5851496557384
 20
103.9747830559314
 30
0.0
 41
1.0
  0
LINE
  5
14F
330
2
100
AcDbEntity
  8
AM_VIS
100
AcDbLine
 10
456.8142210740293
 20
103.6964270034756
 30
0.0
 11
456.8142210740293
 21
104.3318082964586
 31
0.0
  0
SPLINE
  5
150
330
2
100
AcDbEntity
  8
AM_VIS
100
AcDbSpline
210
0.0
220
0.0
230
1.0
 70
    12
 71
     2
 72
     6
 73
     3
 74
     0
 42
0.0000000001
 43
0.0000000001
 40
0.0
 40
0.0
 40
0.0
 40
4.489317750108253
 40
4.489317750108253
 40
4.489317750108253
 10
457.5851496557384
 20
100.0612222898018
 30
0.0
 41
1.0
 10
457.4201271644009
 20
101.7838785949572
 30
0.0
 41
1.015280026684792
 10
456.8142210740293
 20
103.6964270034756
 30
0.0
 41
1.0
  0
LINE
  5
151
330
2
100
AcDbEntity
  8
AM_VIS
100
AcDbLine
 10
457.5851496557384
 20
100.0612222898019
 30
0.0
 11
457.5851496557384
 21
103.9747830559314
 31
0.0
  0
SPLINE
  5
152
330
2
100
AcDbEntity
  8
AM_VIS
100
AcDbSpline
210
0.0
220
0.0
230
1.0
 70
    12
 71
     2
 72
     6
 73
     3
 74
     0
 42
0.0000000001
 43
0.0000000001
 40
0.0
 40
0.0
 40
0.0
 40
4.489317750108252
 40
4.489317750108252
 40
4.489317750108252
 10
456.8142210740293
 20
93.70470728158821
 30
0.0
 41
1.0
 10
457.4201271644009
 20
95.61725569010659
 30
0.0
 41
1.015280026685218
 10
457.5851496557384
 20
97.33991199526208
 30
0.0
 41
1.0
  0
LINE
  5
153
330
2
100
AcDbEntity
  8
AM_VIS
100
AcDbLine
 10
456.8142210740293
 20
92.22635965449484
 30
0.0
 11
456.8142210740293
 21
93.70470728158826
 31
0.0
  0
SPLINE
  5
154
330
2
100
AcDbEntity
  8
AM_VIS
100
AcDbSpline
210
0.0
220
0.0
230
1.0
 70
    12
 71
     2
 72
     6
 73
     3
 74
     0
 42
0.0000000001
 43
0.0000000001
 40
0.0
 40
0.0
 40
0.0
 40
4.489259339835413
 40
4.489259339835413
 40
4.489259339835413
 10
457.5851496557384
 20
88.23418069951889
 30
0.0
 41
1.0
 10
457.4201212686879
 20
90.12600049779056
 30
0.0
 41
1.015279608607052
 10
456.8142210740293
 20
92.22635965449493
 30
0.0
 41
1.0
  0
LINE
  5
155
330
2
100
AcDbEntity
  8
AM_VIS
100
AcDbLine
 10
457.5851496557384
 20
88.23418069951902
 30
0.0
 11
457.5851496557384
 21
97.33991199526194
 31
0.0
  0
SPLINE
  5
156
330
2
100
AcDbEntity
  8
AM_VIS
100
AcDbSpline
210
0.0
220
0.0
230
1.0
 70
    12
 71
     2
 72
     6
 73
     3
 74
     0
 42
0.0000000001
 43
0.0000000001
 40
0.0
 40
0.0
 40
0.0
 40
4.489259339835388
 40
4.489259339835388
 40
4.489259339835388
 10
456.8142210740293
 20
81.25327421700413
 30
0.0
 41
1.0
 10
457.4201212686879
 20
83.35363337370855
 30
0.0
 41
1.01527960860693
 10
457.5851496557384
 20
85.24545317198013
 30
0.0
 41
1.0
  0
LINE
  5
157
330
2
100
AcDbEntity
  8
AM_VIS
100
AcDbLine
 10
456.8142210740293
 20
80.41029650858799
 30
0.0
 11
456.8142210740293
 21
81.25327421700418
 31
0.0
  0
SPLINE
  5
158
330
2
100
AcDbEntity
  8
AM_VIS
100
AcDbSpline
210
0.0
220
0.0
230
1.0
 70
    12
 71
     2
 72
     6
 73
     3
 74
     0
 42
0.0000000001
 43
0.0000000001
 40
0.0
 40
0.0
 40
0.0
 40
4.489346956745006
 40
4.489346956745006
 40
4.489346956745006
 10
457.5851496557384
 20
80.05326649351587
 30
0.0
 41
1.0
 10
457.4201301124372
 20
80.22245641679043
 30
0.0
 41
1.01528023573722
 10
456.8142210740293
 20
80.41029650858801
 30
0.0
 41
1.0
  0
LINE
  5
159
330
2
100
AcDbEntity
  8
AM_VIS
100
AcDbLine
 10
457.5851496557384
 20
80.05326649351585
 30
0.0
 11
457.5851496557384
 21
85.24545317198002
 31
0.0
  0
LINE
  5
15A
330
2
100
AcDbEntity
  8
AM_VIS
100
AcDbLine
 10
453.4142210740293
 20
79.42897254638871
 30
0.0
 11
456.8142210740293
 21
79.42897254638871
 31
0.0
  0
LINE
  5
15B
330
2
100
AcDbEntity
  8
AM_VIS
100
AcDbLine
 10
453.4142210740293
 20
104.3318082964586
 30
0.0
 11
456.8142210740293
 21
104.3318082964586
 31
0.0
  0
LINE
  5
15C
330
2
100
AcDbEntity
  8
AM_VIS
100
AcDbLine
 10
453.4142210740293
 20
103.6964270034756
 30
0.0
 11
453.4142210740293
 21
104.3318082964586
 31
0.0
  0
LINE
  5
15D
330
2
100
AcDbEntity
  8
AM_VIS
100
AcDbLine
 10
456.8142210740293
 20
103.6964270034756
 30
0.0
 11
453.4142210740293
 21
103.6964270034756
 31
0.0
  0
LINE
  5
15E
330
2
100
AcDbEntity
  8
AM_VIS
100
AcDbLine
 10
453.4142210740293
 20
93.70470728158826
 30
0.0
 11
456.8142210740293
 21
93.70470728158826
 31
0.0
  0
LINE
  5
15F
330
2
100
AcDbEntity
  8
AM_VIS
100
AcDbLine
 10
453.4142210740293
 20
92.22635965449484
 30
0.0
 11
453.4142210740293
 21
93.70470728158826
 31
0.0
  0
LINE
  5
160
330
2
100
AcDbEntity
  8
AM_VIS
100
AcDbLine
 10
456.8142210740293
 20
92.22635965449484
 30
0.0
 11
453.4142210740293
 21
92.22635965449484
 31
0.0
  0
SPLINE
  5
161
330
2
100
AcDbEntity
  8
AM_VIS
100
AcDbSpline
210
0.0
220
0.0
230
1.0
 70
    12
 71
     2
 72
     6
 73
     3
 74
     0
 42
0.0000000001
 43
0.0000000001
 40
0.0
 40
0.0
 40
0.0
 40
5.590835352818166
 40
5.590835352818166
 40
5.590835352818166
 10
452.5851496557384
 20
79.87500794379326
 30
0.0
 41
1.0
 10
452.6542686832516
 20
79.66456818500225
 30
0.0
 41
1.02435951945957
 10
453.4142210740293
 20
79.42897254638871
 30
0.0
 41
1.0
  0
SPLINE
  5
162
330
2
100
AcDbEntity
  8
AM_VIS
100
AcDbSpline
210
0.0
220
0.0
230
1.0
 70
    12
 71
     2
 72
     6
 73
     3
 74
     0
 42
0.0000000001
 43
0.0000000001
 40
0.4409070027362249
 40
0.4409070027362249
 40
0.4409070027362249
 40
5.59061555148098
 40
5.59061555148098
 40
5.59061555148098
 10
452.6005429538711
 20
103.9197632594589
 30
0.0
 41
1.003538938751199
 10
452.712913071493
 20
104.1143940124326
 30
0.0
 41
1.022436529580402
 10
453.4142210740293
 20
104.3318082964586
 30
0.0
 41
1.0
  0
SPLINE
  5
163
330
2
100
AcDbEntity
  8
AM_VIS
100
AcDbSpline
210
0.0
220
0.0
230
1.0
 70
    12
 71
     2
 72
     6
 73
     3
 74
     0
 42
0.0000000001
 43
0.0000000001
 40
0.0
 40
0.0
 40
0.0
 40
5.590725438793462
 40
5.590725438793462
 40
5.590725438793462
 10
453.4142210740293
 20
103.6964270034756
 30
0.0
 41
1.0
 10
452.6542825139737
 20
101.2976736212234
 30
0.0
 41
1.024358508160214
 10
452.5851496557384
 20
99.15504871470638
 30
0.0
 41
1.0
  0
SPLINE
  5
164
330
2
100
AcDbEntity
  8
AM_VIS
100
AcDbSpline
210
0.0
220
0.0
230
1.0
 70
    12
 71
     2
 72
     6
 73
     3
 74
     0
 42
0.0000000001
 43
0.0000000001
 40
0.0
 40
0.0
 40
0.0
 40
5.590725438793505
 40
5.590725438793505
 40
5.590725438793505
 10
452.5851496557384
 20
98.24608557035753
 30
0.0
 41
1.0
 10
452.6542825139737
 20
96.10346066384042
 30
0.0
 41
1.02435850816068
 10
453.4142210740293
 20
93.70470728158821
 30
0.0
 41
1.0
  0
SPLINE
  5
165
330
2
100
AcDbEntity
  8
AM_VIS
100
AcDbSpline
210
0.0
220
0.0
230
1.0
 70
    12
 71
     2
 72
     6
 73
     3
 74
     0
 42
0.0000000001
 43
0.0000000001
 40
0.0
 40
0.0
 40
0.0
 40
5.590505691017647
 40
5.590505691017647
 40
5.590505691017647
 10
453.4142210740293
 20
92.22635965449484
 30
0.0
 41
1.0
 10
452.6543101645154
 20
89.59212079610276
 30
0.0
 41
1.024356486367967
 10
452.5851496557384
 20
87.23915453059751
 30
0.0
 41
1.0
  0
LINE
  5
166
330
2
100
AcDbEntity
  8
AM_VIS
100
AcDbLine
 10
453.4142210740293
 20
81.25327421700422
 30
0.0
 11
456.8142210740293
 21
81.25327421700422
 31
0.0
  0
LINE
  5
167
330
2
100
AcDbEntity
  8
AM_VIS
100
AcDbLine
 10
453.4142210740293
 20
80.41029650858799
 30
0.0
 11
453.4142210740293
 21
81.25327421700418
 31
0.0
  0
LINE
  5
168
330
2
100
AcDbEntity
  8
AM_VIS
100
AcDbLine
 10
456.8142210740293
 20
80.41029650858801
 30
0.0
 11
453.4142210740293
 21
80.41029650858801
 31
0.0
  0
SPLINE
  5
169
330
2
100
AcDbEntity
  8
AM_VIS
100
AcDbSpline
210
0.0
220
0.0
230
1.0
 70
    12
 71
     2
 72
     6
 73
     3
 74
     0
 42
0.0000000001
 43
0.0000000001
 40
0.0
 40
0.0
 40
0.0
 40
5.590505691017647
 40
5.590505691017647
 40
5.590505691017647
 10
452.5851496557384
 20
86.24047934090155
 30
0.0
 41
1.0
 10
452.6543101645154
 20
83.88751307539624
 30
0.0
 41
1.024356486368036
 10
453.4142210740293
 20
81.25327421700418
 30
0.0
 41
1.0
  0
SPLINE
  5
16A
330
2
100
AcDbEntity
  8
AM_VIS
100
AcDbSpline
210
0.0
220
0.0
230
1.0
 70
    12
 71
     2
 72
     6
 73
     3
 74
     0
 42
0.0000000001
 43
0.0000000001
 40
0.0
 40
0.0
 40
0.0
 40
5.590835352818166
 40
5.590835352818166
 40
5.590835352818166
 10
453.4142210740293
 20
80.41029650858801
 30
0.0
 41
1.0
 10
452.6542686832516
 20
80.17470086997443
 30
0.0
 41
1.02435951945957
 10
452.5851496557384
 20
79.96426111118345
 30
0.0
 41
1.0
  0
LINE
  5
16B
330
2
100
AcDbEntity
  8
AM_VIS
100
AcDbLine
 10
457.5851496557384
 20
80.05326649351587
 30
0.0
 11
457.5851496557384
 21
79.7860025614608
 31
0.0
  0
LINE
  5
16C
330
2
100
AcDbEntity
  8
AM_VIS
100
AcDbLine
 10
457.5851496557384
 20
100.0612222898019
 30
0.0
 11
457.5851496557384
 21
97.3399119952619
 31
0.0
  0
LINE
  5
16D
330
2
100
AcDbEntity
  8
AM_VIS
100
AcDbLine
 10
457.5851496557384
 20
88.234180699519
 30
0.0
 11
457.5851496557384
 21
85.24545317198002
 31
0.0
  0
LINE
  5
16E
330
2
100
AcDbEntity
  8
AM_VIS
100
AcDbLine
 10
444.6451496557383
 20
97.88039510458004
 30
0.0
 11
444.7451496557384
 21
97.88039510458004
 31
0.0
  0
LINE
  5
16F
330
2
100
AcDbEntity
  8
AM_VIS
100
AcDbLine
 10
444.6451496557383
 20
85.88039510458003
 30
0.0
 11
444.7451496557384
 21
85.88039510458003
 31
0.0
  0
LINE
  5
170
330
2
100
AcDbEntity
  8
AM_VIS
100
AcDbLine
 10
452.5851496557384
 20
79.86768892416299
 30
0.0
 11
452.6005494356293
 21
79.84101572296665
 31
0.0
  0
LINE
  5
171
330
2
100
AcDbEntity
  8
AM_VIS
100
AcDbLine
 10
452.5851496557384
 20
103.893101284997
 30
0.0
 11
452.6005429538711
 21
103.9197632594589
 31
0.0
  0
LINE
  5
172
330
2
100
AcDbEntity
  8
AM_VIS
100
AcDbLine
 10
407.0701496557384
 20
252.5513387371909
 30
0.0
 11
407.0701496557384
 21
259.0361943396316
 31
0.0
  0
LINE
  5
173
330
2
100
AcDbEntity
  8
AM_VIS
100
AcDbLine
 10
407.0701496557384
 20
259.0361943396316
 30
0.0
 11
407.0701496557384
 21
264.5513387371909
 31
0.0
  0
LINE
  5
174
330
2
100
AcDbEntity
  8
AM_VIS
100
AcDbLine
 10
420.8201496557383
 20
252.5513387371909
 30
0.0
 11
419.8201496557384
 21
252.5513387371909
 31
0.0
  0
LINE
  5
175
330
2
100
AcDbEntity
  8
AM_VIS
100
AcDbLine
 10
407.8201496557384
 20
252.5513387371909
 30
0.0
 11
407.0701496557384
 21
252.5513387371909
 31
0.0
  0
LINE
  5
176
330
2
100
AcDbEntity
  8
AM_VIS
100
AcDbLine
 10
420.8201496557383
 20
264.5513387371909
 30
0.0
 11
419.8201496557384
 21
264.5513387371909
 31
0.0
  0
LINE
  5
177
330
2
100
AcDbEntity
  8
AM_VIS
100
AcDbLine
 10
407.8201496557384
 20
264.5513387371909
 30
0.0
 11
407.0701496557384
 21
264.5513387371909
 31
0.0
  0
SPLINE
  5
178
330
2
100
AcDbEntity
  8
AM_VIS
100
AcDbSpline
210
0.0
220
0.0
230
1.0
 70
    12
 71
     2
 72
     6
 73
     3
 74
     0
 42
0.0000000001
 43
0.0000000001
 40
6.633954809021183
 40
6.633954809021183
 40
6.633954809021183
 40
9.96426167380382
 40
9.96426167380382
 40
9.96426167380382
 10
396.3409643192204
 20
265.0845135711464
 30
0.0
 41
1.168713763271501
 10
396.3798103163082
 20
265.2294888059487
 30
0.0
 41
1.15585652979314
 10
396.601512162961
 20
265.3960417119594
 30
0.0
 41
1.087572280497931
  0
LINE
  5
179
330
2
100
AcDbEntity
  8
AM_VIS
100
AcDbLine
 10
399.258790558251
 20
265.3960417119594
 30
0.0
 11
396.601512162961
 21
265.3960417119594
 31
0.0
  0
SPLINE
  5
17A
330
2
100
AcDbEntity
  8
AM_VIS
100
AcDbSpline
210
0.0
220
0.0
230
1.0
 70
    12
 71
     2
 72
     6
 73
     3
 74
     0
 42
0.0000000001
 43
0.0000000001
 40
1.758605972049861
 40
1.758605972049861
 40
1.758605972049861
 40
5.088912836832589
 40
5.088912836832589
 40
5.088912836832589
 10
399.258790558251
 20
265.3960417119594
 30
0.0
 41
1.087572280497931
 10
399.4804924049038
 20
265.2294888059486
 30
0.0
 41
1.155856529793141
 10
399.5193384019916
 20
265.0845135711465
 30
0.0
 41
1.168713763271501
  0
SPLINE
  5
17B
330
2
100
AcDbEntity
  8
AM_VIS
100
AcDbSpline
210
0.0
220
0.0
230
1.0
 70
    12
 71
     2
 72
     6
 73
     3
 74
     0
 42
0.0000000001
 43
0.0000000001
 40
1.758604772090482
 40
1.758604772090482
 40
1.758604772090482
 40
9.964264660755395
 40
9.964264660755395
 40
9.964264660755395
 10
396.601512162961
 20
265.3960417119594
 30
0.0
 41
1.087572289972704
 10
396.0987352081112
 20
262.3513994852901
 30
0.0
 41
1.255820421171479
 10
396.6015119285413
 20
259.306757613512
 30
0.0
 41
1.087572357908661
  0
LINE
  5
17C
330
2
100
AcDbEntity
  8
AM_VIS
100
AcDbLine
 10
399.2587907926708
 20
259.306757613512
 30
0.0
 11
396.6015119285412
 21
259.306757613512
 31
0.0
  0
SPLINE
  5
17D
330
2
100
AcDbEntity
  8
AM_VIS
100
AcDbSpline
210
0.0
220
0.0
230
1.0
 70
    12
 71
     2
 72
     6
 73
     3
 74
     0
 42
0.0000000001
 43
0.0000000001
 40
1.758606428749256
 40
1.758606428749256
 40
1.758606428749256
 40
9.964266317414162
 40
9.964266317414162
 40
9.964266317414162
 10
399.2587907926708
 20
259.306757613512
 30
0.0
 41
1.087572357908662
 10
399.7615675131008
 20
262.3513994852901
 30
0.0
 41
1.255820421171479
 10
399.258790558251
 20
265.3960417119594
 30
0.0
 41
1.087572289972703
  0
SPLINE
  5
17E
330
2
100
AcDbEntity
  8
AM_VIS
100
AcDbSpline
210
0.0
220
0.0
230
1.0
 70
    12
 71
     2
 72
     6
 73
     3
 74
     0
 42
0.0000000001
 43
0.0000000001
 40
1.758606428749267
 40
1.758606428749267
 40
1.758606428749267
 40
9.964266317414146
 40
9.964266317414146
 40
9.964266317414146
 10
396.6015119285413
 20
259.306757613512
 30
0.0
 41
1.087572357908663
 10
396.0987352081112
 20
255.8844062375327
 30
0.0
 41
1.255820421171479
 10
396.601512162961
 20
252.4620544626352
 30
0.0
 41
1.087572289972703
  0
LINE
  5
17F
330
2
100
AcDbEntity
  8
AM_VIS
100
AcDbLine
 10
399.258790558251
 20
252.4620544626352
 30
0.0
 11
396.601512162961
 21
252.4620544626352
 31
0.0
  0
SPLINE
  5
180
330
2
100
AcDbEntity
  8
AM_VIS
100
AcDbSpline
210
0.0
220
0.0
230
1.0
 70
    12
 71
     2
 72
     6
 73
     3
 74
     0
 42
0.0000000001
 43
0.0000000001
 40
1.758604772090474
 40
1.758604772090474
 40
1.758604772090474
 40
9.964264660755373
 40
9.964264660755373
 40
9.964264660755373
 10
399.258790558251
 20
252.4620544626352
 30
0.0
 41
1.087572289972703
 10
399.7615675131008
 20
255.8844062375327
 30
0.0
 41
1.255820421171479
 10
399.2587907926708
 20
259.306757613512
 30
0.0
 41
1.087572357908662
  0
SPLINE
  5
181
330
2
100
AcDbEntity
  8
AM_VIS
100
AcDbSpline
210
0.0
220
0.0
230
1.0
 70
    12
 71
     2
 72
     6
 73
     3
 74
     0
 42
0.0000000001
 43
0.0000000001
 40
1.758605972049705
 40
1.758605972049705
 40
1.758605972049705
 40
9.964264987121397
 40
9.964264987121397
 40
9.964264987121397
 10
396.601512162961
 20
252.4620544626352
 30
0.0
 41
1.087572280497924
 10
396.0987356476481
 20
252.0843449804474
 30
0.0
 41
1.255820219371637
 10
396.6015126318004
 20
251.706635410206
 30
0.0
 41
1.08757214462607
  0
LINE
  5
182
330
2
100
AcDbEntity
  8
AM_VIS
100
AcDbLine
 10
399.2587900894116
 20
251.706635410206
 30
0.0
 11
396.6015126318004
 21
251.706635410206
 31
0.0
  0
SPLINE
  5
183
330
2
100
AcDbEntity
  8
AM_VIS
100
AcDbSpline
210
0.0
220
0.0
230
1.0
 70
    12
 71
     2
 72
     6
 73
     3
 74
     0
 42
0.0000000001
 43
0.0000000001
 40
1.75860265873245
 40
1.75860265873245
 40
1.75860265873245
 40
9.964261673803823
 40
9.964261673803823
 40
9.964261673803823
 10
399.2587900894116
 20
251.706635410206
 30
0.0
 41
1.087572144626077
 10
399.7615670735638
 20
252.0843449804475
 30
0.0
 41
1.255820219371631
 10
399.258790558251
 20
252.4620544626352
 30
0.0
 41
1.087572280497931
  0
LINE
  5
184
330
2
100
AcDbEntity
  8
AM_VIS
100
AcDbLine
 10
395.930151360606
 20
253.5513387371899
 30
0.0
 11
395.930151360606
 21
263.5513387371898
 31
0.0
  0
LINE
  5
185
330
2
100
AcDbEntity
  8
AM_VIS
100
AcDbLine
 10
395.930151360606
 20
263.5513387371899
 30
0.0
 11
396.3409643192204
 21
265.0845135711465
 31
0.0
  0
LINE
  5
186
330
2
100
AcDbEntity
  8
AM_VIS
100
AcDbLine
 10
395.930151360606
 20
253.5513387371899
 30
0.0
 11
396.3409643192204
 21
252.0181639032333
 31
0.0
  0
LINE
  5
187
330
2
100
AcDbEntity
  8
AM_VIS
100
AcDbLine
 10
399.930151360606
 20
253.5513387371899
 30
0.0
 11
399.5193384019916
 21
252.0181639032333
 31
0.0
  0
LINE
  5
188
330
2
100
AcDbEntity
  8
AM_VIS
100
AcDbLine
 10
399.930151360606
 20
263.5513387371898
 30
0.0
 11
399.5193384019916
 21
265.0845135711464
 31
0.0
  0
LINE
  5
189
330
2
100
AcDbEntity
  8
AM_VIS
100
AcDbLine
 10
428.1301513606062
 20
267.0513387371897
 30
0.0
 11
428.1301513606062
 21
250.0513387371897
 31
0.0
  0
LINE
  5
18A
330
2
100
AcDbEntity
  8
AM_VIS
100
AcDbLine
 10
426.5301513606062
 20
250.0513387371898
 30
0.0
 11
426.5301513606062
 21
267.0513387371897
 31
0.0
  0
LINE
  5
18B
330
2
100
AcDbEntity
  8
AM_VIS
100
AcDbLine
 10
426.5301513606062
 20
267.0513387371897
 30
0.0
 11
428.1301513606062
 21
267.0513387371897
 31
0.0
  0
LINE
  5
18C
330
2
100
AcDbEntity
  8
AM_VIS
100
AcDbLine
 10
426.5301513606062
 20
250.0513387371897
 30
0.0
 11
428.1301513606062
 21
250.0513387371897
 31
0.0
  0
LINE
  5
18D
330
2
100
AcDbEntity
  8
AM_VIS
100
AcDbLine
 10
399.930151360606
 20
250.0513387371899
 30
0.0
 11
399.930151360606
 21
267.0513387371899
 31
0.0
  0
LINE
  5
18E
330
2
100
AcDbEntity
  8
AM_VIS
100
AcDbLine
 10
399.930151360606
 20
267.0513387371899
 30
0.0
 11
401.3201496557384
 21
267.0513387371899
 31
0.0
  0
LINE
  5
18F
330
2
100
AcDbEntity
  8
AM_VIS
100
AcDbLine
 10
399.930151360606
 20
250.0513387371899
 30
0.0
 11
401.3201496557383
 21
250.0513387371899
 31
0.0
  0
SPLINE
  5
190
330
2
100
AcDbEntity
  8
AM_VIS
100
AcDbSpline
210
0.0
220
0.0
230
1.0
 70
    12
 71
     2
 72
     6
 73
     3
 74
     0
 42
0.0000000001
 43
0.0000000001
 40
3.513108976624989
 40
3.513108976624989
 40
3.513108976624989
 40
10.94354183627146
 40
10.94354183627146
 40
10.94354183627146
 10
430.5274094380211
 20
196.98039510458
 30
0.0
 41
1.27461320283873
 10
430.1406580695326
 20
194.4803949588768
 30
0.0
 41
1.471796511733411
 10
430.5274092576983
 20
191.98039510458
 30
0.0
 41
1.274613282458267
  0
LINE
  5
191
330
2
100
AcDbEntity
  8
AM_VIS
100
AcDbLine
 10
430.5274092576983
 20
191.98039510458
 30
0.0
 11
434.1128900537786
 21
191.98039510458
 31
0.0
  0
SPLINE
  5
192
330
2
100
AcDbEntity
  8
AM_VIS
100
AcDbSpline
210
0.0
220
0.0
230
1.0
 70
    12
 71
     2
 72
     6
 73
     3
 74
     0
 42
0.0000000001
 43
0.0000000001
 40
3.513110476771645
 40
3.513110476771645
 40
3.513110476771645
 40
10.94354333641804
 40
10.94354333641804
 40
10.94354333641804
 10
434.1128900537785
 20
191.98039510458
 30
0.0
 41
1.27461328245827
 10
434.4996412419444
 20
194.4803949588768
 30
0.0
 41
1.471796511733409
 10
434.1128898734558
 20
196.98039510458
 30
0.0
 41
1.274613202838732
  0
LINE
  5
193
330
2
100
AcDbEntity
  8
AM_VIS
100
AcDbLine
 10
430.5274094380211
 20
196.98039510458
 30
0.0
 11
434.1128898734559
 21
196.98039510458
 31
0.0
  0
SPLINE
  5
194
330
2
100
AcDbEntity
  8
AM_VIS
100
AcDbSpline
210
0.0
220
0.0
230
1.0
 70
    28
 71
     2
 72
     6
 73
     3
 74
     0
 42
0.0000000001
 43
0.0000000001
 40
3.805110778761527
 40
3.805110778761527
 40
3.805110778761527
 40
7.239048164719878
 40
7.239048164719878
 40
7.239048164719878
 10
430.5274092576983
 20
191.98039510458
 30
0.0
 41
1.085693285370878
 10
430.3201496557385
 20
191.98039510458
 30
0.0
 41
1.081513766124146
 10
430.3201496557385
 20
191.98039510458
 30
0.0
 41
1.0
  0
SPLINE
  5
195
330
2
100
AcDbEntity
  8
AM_VIS
100
AcDbSpline
210
0.0
220
0.0
230
1.0
 70
    28
 71
     2
 72
     6
 73
     3
 74
     0
 42
0.0000000001
 43
0.0000000001
 40
7.239048164719878
 40
7.239048164719878
 40
7.239048164719878
 40
10.67298555067823
 40
10.67298555067823
 40
10.67298555067823
 10
434.3201496557385
 20
191.98039510458
 30
0.0
 41
1.0
 10
434.3201496557385
 20
191.98039510458
 30
0.0
 41
1.081513766124174
 10
434.1128900537786
 20
191.98039510458
 30
0.0
 41
1.085693285370906
  0
SPLINE
  5
196
330
2
100
AcDbEntity
  8
AM_VIS
100
AcDbSpline
210
0.0
220
0.0
230
1.0
 70
    12
 71
     2
 72
     6
 73
     3
 74
     0
 42
0.0000000001
 43
0.0000000001
 40
3.513110476771644
 40
3.513110476771644
 40
3.513110476771644
 40
10.94354333641812
 40
10.94354333641812
 40
10.94354333641812
 10
430.5274092576983
 20
201.98039510458
 30
0.0
 41
1.27461328245827
 10
430.1406580695326
 20
199.480395250283
 30
0.0
 41
1.471796511733411
 10
430.5274094380211
 20
196.98039510458
 30
0.0
 41
1.274613202838728
  0
SPLINE
  5
197
330
2
100
AcDbEntity
  8
AM_VIS
100
AcDbSpline
210
0.0
220
0.0
230
1.0
 70
    12
 71
     2
 72
     6
 73
     3
 74
     0
 42
0.0000000001
 43
0.0000000001
 40
3.513108976624988
 40
3.513108976624988
 40
3.513108976624988
 40
10.94354183627143
 40
10.94354183627143
 40
10.94354183627143
 10
434.1128898734558
 20
196.98039510458
 30
0.0
 41
1.27461320283873
 10
434.4996412419444
 20
199.4803952502831
 30
0.0
 41
1.47179651173341
 10
434.1128900537786
 20
201.9803951045799
 30
0.0
 41
1.274613282458269
  0
LINE
  5
198
330
2
100
AcDbEntity
  8
AM_VIS
100
AcDbLine
 10
430.5274092576983
 20
201.9803951045799
 30
0.0
 11
434.1128900537786
 21
201.9803951045799
 31
0.0
  0
SPLINE
  5
199
330
2
100
AcDbEntity
  8
AM_VIS
100
AcDbSpline
210
0.0
220
0.0
230
1.0
 70
    28
 71
     2
 72
     6
 73
     3
 74
     0
 42
0.0000000001
 43
0.0000000001
 40
7.239048164719878
 40
7.239048164719878
 40
7.239048164719878
 40
10.67298555067821
 40
10.67298555067821
 40
10.67298555067821
 10
430.3201496557385
 20
201.9803951045799
 30
0.0
 41
1.0
 10
430.3201496557385
 20
201.9803951045799
 30
0.0
 41
1.081513766124146
 10
430.5274092576983
 20
201.9803951045799
 30
0.0
 41
1.085693285370878
  0
SPLINE
  5
19A
330
2
100
AcDbEntity
  8
AM_VIS
100
AcDbSpline
210
0.0
220
0.0
230
1.0
 70
    28
 71
     2
 72
     6
 73
     3
 74
     0
 42
0.0000000001
 43
0.0000000001
 40
3.80511077876152
 40
3.80511077876152
 40
3.80511077876152
 40
7.239048164719878
 40
7.239048164719878
 40
7.239048164719878
 10
434.1128900537786
 20
201.9803951045799
 30
0.0
 41
1.085693285370907
 10
434.3201496557385
 20
201.9803951045799
 30
0.0
 41
1.081513766124174
 10
434.3201496557385
 20
201.9803951045799
 30
0.0
 41
1.0
  0
LINE
  5
19B
330
2
100
AcDbEntity
  8
AM_VIS
100
AcDbLine
 10
430.3201496557385
 20
201.9803951045799
 30
0.0
 11
430.3201496557385
 21
191.98039510458
 31
0.0
  0
LINE
  5
19C
330
2
100
AcDbEntity
  8
AM_VIS
100
AcDbLine
 10
434.3201496557385
 20
201.9803951045799
 30
0.0
 11
434.3201496557385
 21
191.98039510458
 31
0.0
  0
LINE
  5
19D
330
2
100
AcDbEntity
  8
AM_VIS
100
AcDbLine
 10
437.8201496557384
 20
199.98039510458
 30
0.0
 11
437.8201496557384
 21
196.98039510458
 31
0.0
  0
LINE
  5
19E
330
2
100
AcDbEntity
  8
AM_VIS
100
AcDbLine
 10
437.8201496557384
 20
196.98039510458
 30
0.0
 11
437.8201496557384
 21
193.98039510458
 31
0.0
  0
LINE
  5
19F
330
2
100
AcDbEntity
  8
AM_VIS
100
AcDbLine
 10
394.8201496557384
 20
191.98039510458
 30
0.0
 11
394.8201496557384
 21
196.98039510458
 31
0.0
  0
LINE
  5
1A0
330
2
100
AcDbEntity
  8
AM_VIS
100
AcDbLine
 10
394.8201496557384
 20
196.98039510458
 30
0.0
 11
394.8201496557384
 21
201.9803951045799
 31
0.0
  0
LINE
  5
1A1
330
2
100
AcDbEntity
  8
AM_VIS
100
AcDbLine
 10
430.0701496557384
 20
199.98039510458
 30
0.0
 11
430.3201496557385
 21
199.98039510458
 31
0.0
  0
LINE
  5
1A2
330
2
100
AcDbEntity
  8
AM_VIS
100
AcDbLine
 10
434.3201496557385
 20
199.98039510458
 30
0.0
 11
437.8201496557384
 21
199.98039510458
 31
0.0
  0
LINE
  5
1A3
330
2
100
AcDbEntity
  8
AM_VIS
100
AcDbLine
 10
430.0701496557384
 20
193.98039510458
 30
0.0
 11
430.3201496557384
 21
193.98039510458
 31
0.0
  0
LINE
  5
1A4
330
2
100
AcDbEntity
  8
AM_VIS
100
AcDbLine
 10
434.3201496557385
 20
193.98039510458
 30
0.0
 11
437.8201496557384
 21
193.98039510458
 31
0.0
  0
LINE
  5
1A5
330
2
100
AcDbEntity
  8
AM_VIS
100
AcDbLine
 10
397.5701496557384
 20
191.98039510458
 30
0.0
 11
394.8201496557384
 21
191.98039510458
 31
0.0
  0
LINE
  5
1A6
330
2
100
AcDbEntity
  8
AM_VIS
100
AcDbLine
 10
397.5701496557384
 20
201.9803951045799
 30
0.0
 11
394.8201496557384
 21
201.9803951045799
 31
0.0
  0
ELLIPSE
  5
1A7
330
2
100
AcDbEntity
  8
AM_VIS
100
AcDbEllipse
 10
413.8201496557401
 20
194.9299410871404
 30
0.0
 11
-6.0
 21
-0.0000000000000007
 31
0.0
210
0.0
220
0.0
230
1.0
 40
0.1086109036000946
 41
4.126703436927545
 42
5.298074523841838
  0
LINE
  5
1A8
330
2
100
AcDbEntity
  8
AM_VIS
100
AcDbLine
 10
417.1367744460956
 20
201.4375016348378
 30
0.0
 11
417.1367744460956
 21
195.4729956051409
 31
0.0
  0
LINE
  5
1A9
330
2
100
AcDbEntity
  8
AM_VIS
100
AcDbLine
 10
416.111437503218
 20
201.4375016348377
 30
0.0
 11
417.1367744460956
 21
201.4375016348377
 31
0.0
  0
SPLINE
  5
1AA
330
2
100
AcDbEntity
  8
AM_VIS
100
AcDbSpline
210
0.0
220
0.0
230
1.0
 70
     8
 71
     3
 72
    10
 73
     6
 74
     0
 42
0.0000000001
 43
0.0000000001
 40
0.0
 40
0.0
 40
0.0
 40
0.0
 40
1.110902832752573
 40
1.110902832752573
 40
2.221805665505147
 40
2.221805665505147
 40
2.221805665505147
 40
2.221805665505147
 10
413.8201496557401
 20
201.9345438039791
 30
0.0
 10
414.1732177528457
 20
201.8235543516294
 30
0.0
 10
414.5611673193733
 20
201.7004121092043
 30
0.0
 10
415.3450832694168
 20
201.5072114356049
 30
0.0
 10
415.7411365589672
 20
201.4375016348378
 30
0.0
 10
416.111437503218
 20
201.4375016348377
 30
0.0
  0
SPLINE
  5
1AB
330
2
100
AcDbEntity
  8
AM_VIS
100
AcDbSpline
210
0.0
220
0.0
230
1.0
 70
     8
 71
     3
 72
    10
 73
     6
 74
     0
 42
0.0000000001
 43
0.0000000001
 40
4.564540839656428
 40
4.564540839656428
 40
4.564540839656428
 40
4.564540839656428
 40
5.675443672409002
 40
5.675443672409002
 40
6.786346505161576
 40
6.786346505161576
 40
6.786346505161576
 40
6.786346505161576
 10
411.5288618082622
 20
201.4375016348377
 30
0.0
 10
411.8991627525131
 20
201.4375016348377
 30
0.0
 10
412.2952160420635
 20
201.5072114356049
 30
0.0
 10
413.079131992107
 20
201.7004121092043
 30
0.0
 10
413.4670815586346
 20
201.8235543516294
 30
0.0
 10
413.8201496557401
 20
201.9345438039791
 30
0.0
  0
LINE
  5
1AC
330
2
100
AcDbEntity
  8
AM_VIS
100
AcDbLine
 10
410.5035248653847
 20
201.4375016348377
 30
0.0
 11
411.5288618082622
 21
201.4375016348377
 31
0.0
  0
LINE
  5
1AD
330
2
100
AcDbEntity
  8
AM_VIS
100
AcDbLine
 10
410.5035248653847
 20
195.4729956051409
 30
0.0
 11
410.5035248653847
 21
201.4375016348377
 31
0.0
  0
ELLIPSE
  5
1AE
330
2
100
AcDbEntity
  8
AM_VIS
100
AcDbEllipse
 10
413.8201496557401
 20
200.8944471168372
 30
0.0
 11
-6.0
 21
-0.0000000000000007
 31
0.0
210
0.0
220
0.0
230
1.0
 40
0.1086109036000947
 41
5.298074523841838
 42
6.28318530717959
  0
ELLIPSE
  5
1AF
330
2
100
AcDbEntity
  8
AM_VIS
100
AcDbEllipse
 10
413.8201496557401
 20
200.8944471168372
 30
0.0
 11
-6.0
 21
-0.0000000000000007
 31
0.0
210
0.0
220
0.0
230
1.0
 40
0.1086109036000947
 41
3.141592653589798
 42
4.126703436927545
  0
LINE
  5
1B0
330
2
100
AcDbEntity
  8
AM_VIS
100
AcDbLine
 10
407.8201496557402
 20
119.0707959295987
 30
0.0
 11
407.8201496557402
 21
200.8944471168373
 31
0.0
  0
LINE
  5
1B1
330
2
100
AcDbEntity
  8
AM_VIS
100
AcDbLine
 10
419.8201496557401
 20
119.3101273319756
 30
0.0
 11
419.8201496557401
 21
200.8944471168373
 31
0.0
  0
SPLINE
  5
1B2
330
2
100
AcDbEntity
  8
AM_VIS
100
AcDbSpline
210
0.0
220
0.0
230
1.0
 70
     8
 71
     1
 72
     7
 73
     5
 74
     0
 42
0.0000000001
 43
0.0000000001
 40
6.245733714473293
 40
6.245733714473293
 40
6.249653358113739
 40
6.260830674469021
 40
6.272007990824303
 40
6.283185307179586
 40
6.283185307179586
 10
408.7963208894991
 20
201.2514645101024
 30
0.0
 10
408.8009751674895
 20
201.2639679185669
 30
0.0
 10
408.8112547909344
 20
201.3040272039026
 30
0.0
 10
408.8178661494301
 20
201.346978477526
 30
0.0
 10
408.8201496557402
 20
201.3914892859786
 30
0.0
  0
SPLINE
  5
1B3
330
2
100
AcDbEntity
  8
AM_VIS
100
AcDbSpline
210
0.0
220
0.0
230
1.0
 70
     8
 71
     1
 72
     7
 73
     5
 74
     0
 42
0.0000000001
 43
0.0000000001
 40
3.141592653589793
 40
3.141592653589793
 40
3.153353198073368
 40
3.165113742556944
 40
3.176874287040519
 40
3.179044246296112
 40
3.179044246296112
 10
418.8201496557401
 20
201.3914892859786
 30
0.0
 10
418.8226752625945
 20
201.3446858644907
 30
0.0
 10
418.8299602850275
 20
201.2996916769627
 30
0.0
 10
418.8412068809379
 20
201.2580266762934
 30
0.0
 10
418.8438083506484
 20
201.2511455507495
 30
0.0
  0
LINE
  5
1B4
330
2
100
AcDbEntity
  8
AM_VIS
100
AcDbLine
 10
418.8201496557401
 20
213.9266961217412
 30
0.0
 11
418.8201496557401
 21
201.3914892859786
 31
0.0
  0
LINE
  5
1B5
330
2
100
AcDbEntity
  8
AM_VIS
100
AcDbLine
 10
408.8201496557402
 20
213.9266961217429
 30
0.0
 11
408.8201496557402
 21
201.3914892859786
 31
0.0
  0
SPLINE
  5
1B6
330
2
100
AcDbEntity
  8
AM_VIS
100
AcDbSpline
210
0.0
220
0.0
230
1.0
 70
    12
 71
     2
 72
     6
 73
     3
 74
     0
 42
0.0000000001
 43
0.0000000001
 40
6.12747856521644
 40
6.12747856521644
 40
6.12747856521644
 40
19.93461891473044
 40
19.93461891473044
 40
19.93461891473044
 10
402.8504919838343
 20
214.209007551208
 30
0.0
 41
1.24726503856845
 10
405.5929059223163
 20
213.9944287647506
 30
0.0
 41
1.440217572580998
 10
408.3353195411357
 20
215.2408107948224
 30
0.0
 41
1.24726511647967
  0
LINE
  5
1B7
330
2
100
AcDbEntity
  8
AM_VIS
100
AcDbLine
 10
408.3353195411357
 20
215.2408107948223
 30
0.0
 11
408.3353195411357
 21
221.4164737705876
 31
0.0
  0
SPLINE
  5
1B8
330
2
100
AcDbEntity
  8
AM_VIS
100
AcDbSpline
210
0.0
220
0.0
230
1.0
 70
    12
 71
     2
 72
     6
 73
     3
 74
     0
 42
0.0000000001
 43
0.0000000001
 40
6.127481352770836
 40
6.127481352770836
 40
6.127481352770836
 40
19.93462170228476
 40
19.93462170228476
 40
19.93462170228476
 10
408.3353195411357
 20
221.4164737705876
 30
0.0
 41
1.24726511647967
 10
405.5929059223163
 20
221.6310522765932
 30
0.0
 41
1.440217572580997
 10
402.8504919838343
 20
220.3846698458
 30
0.0
 41
1.247265038568452
  0
LINE
  5
1B9
330
2
100
AcDbEntity
  8
AM_VIS
100
AcDbLine
 10
402.8504919838343
 20
214.209007551208
 30
0.0
 11
402.8504919838343
 21
220.3846698458001
 31
0.0
  0
SPLINE
  5
1BA
330
2
100
AcDbEntity
  8
AM_VIS
100
AcDbSpline
210
0.0
220
0.0
230
1.0
 70
    12
 71
     2
 72
     6
 73
     3
 74
     0
 42
0.0000000001
 43
0.0000000001
 40
6.617810245657905
 40
6.617810245657905
 40
6.617810245657905
 40
13.04984894672373
 40
13.04984894672373
 40
13.04984894672373
 10
408.3353195411357
 20
215.2408107948223
 30
0.0
 41
1.079583196665444
 10
411.2746312998027
 20
214.8493470987151
 30
0.0
 41
1.078466188711203
 10
413.8201496557386
 20
214.8493470987151
 30
0.0
 41
1.0
  0
SPLINE
  5
1BB
330
2
100
AcDbEntity
  8
AM_VIS
100
AcDbSpline
210
0.0
220
0.0
230
1.0
 70
    12
 71
     2
 72
     6
 73
     3
 74
     0
 42
0.0000000001
 43
0.0000000001
 40
13.04984894672373
 40
13.04984894672373
 40
13.04984894672373
 40
19.48188204589985
 40
19.48188204589985
 40
19.48188204589985
 10
413.8201496557386
 20
214.8493470987151
 30
0.0
 41
1.0
 10
416.3656659559938
 20
214.8493470987151
 30
0.0
 41
1.078466120372227
 10
419.3049746557386
 20
215.2408101136491
 30
0.0
 41
1.079583194719702
  0
LINE
  5
1BC
330
2
100
AcDbEntity
  8
AM_VIS
100
AcDbLine
 10
419.3049746557386
 20
215.2408101136491
 30
0.0
 11
419.3049746557386
 21
221.4164744517608
 31
0.0
  0
SPLINE
  5
1BD
330
2
100
AcDbEntity
  8
AM_VIS
100
AcDbSpline
210
0.0
220
0.0
230
1.0
 70
    12
 71
     2
 72
     6
 73
     3
 74
     0
 42
0.0000000001
 43
0.0000000001
 40
6.617815847547628
 40
6.617815847547628
 40
6.617815847547628
 40
13.04984894672373
 40
13.04984894672373
 40
13.04984894672373
 10
419.3049746557386
 20
221.4164744517608
 30
0.0
 41
1.079583194719702
 10
416.3656659559938
 20
221.8079374666948
 30
0.0
 41
1.078466120372227
 10
413.8201496557386
 20
221.8079374666948
 30
0.0
 41
1.0
  0
SPLINE
  5
1BE
330
2
100
AcDbEntity
  8
AM_VIS
100
AcDbSpline
210
0.0
220
0.0
230
1.0
 70
    12
 71
     2
 72
     6
 73
     3
 74
     0
 42
0.0000000001
 43
0.0000000001
 40
13.04984894672373
 40
13.04984894672373
 40
13.04984894672373
 40
19.48188764778955
 40
19.48188764778955
 40
19.48188764778955
 10
413.8201496557386
 20
221.8079374666948
 30
0.0
 41
1.0
 10
411.2746312998027
 20
221.8079374666948
 30
0.0
 41
1.078466188711203
 10
408.3353195411357
 20
221.4164737705876
 30
0.0
 41
1.079583196665444
  0
SPLINE
  5
1BF
330
2
100
AcDbEntity
  8
AM_VIS
100
AcDbSpline
210
0.0
220
0.0
230
1.0
 70
    12
 71
     2
 72
     6
 73
     3
 74
     0
 42
0.0000000001
 43
0.0000000001
 40
14.36692709986814
 40
14.36692709986814
 40
14.36692709986814
 40
19.93462170228486
 40
19.93462170228486
 40
19.93462170228486
 10
405.0990076727562
 20
213.4081965588094
 30
0.0
 41
1.340128841830914
 10
404.0524604804361
 20
213.6627324628598
 30
0.0
 41
1.325072662373918
 10
402.8504919838343
 20
214.209007551208
 30
0.0
 41
1.247265038568449
  0
LINE
  5
1C0
330
2
100
AcDbEntity
  8
AM_VIS
100
AcDbLine
 10
424.78980221304
 20
214.2090061888614
 30
0.0
 11
424.78980221304
 21
220.3846712081467
 31
0.0
  0
SPLINE
  5
1C1
330
2
100
AcDbEntity
  8
AM_VIS
100
AcDbSpline
210
0.0
220
0.0
230
1.0
 70
    12
 71
     2
 72
     6
 73
     3
 74
     0
 42
0.0000000001
 43
0.0000000001
 40
6.618689511425067
 40
6.618689511425067
 40
6.618689511425067
 40
11.88041887404029
 40
11.88041887404029
 40
11.88041887404029
 10
424.78980221304
 20
214.2090061888614
 30
0.0
 41
1.079481732430125
 10
423.587834276856
 20
213.662731355214
 30
0.0
 41
1.078527736530154
 10
422.5412875724885
 20
213.408195569841
 30
0.0
 41
1.025824941571423
  0
LINE
  5
1C2
330
2
100
AcDbEntity
  8
AM_VIS
100
AcDbLine
 10
422.0506324927204
 20
213.30225199338
 30
0.0
 11
422.0441456547091
 21
213.3010316919867
 31
0.0
  0
SPLINE
  5
1C3
330
2
100
AcDbEntity
  8
AM_VIS
100
AcDbSpline
210
0.0
220
0.0
230
1.0
 70
    12
 71
     2
 72
     6
 73
     3
 74
     0
 42
0.0000000001
 43
0.0000000001
 40
0.0
 40
0.0
 40
0.0
 40
6.424688169162345
 40
6.424688169162345
 40
6.424688169162345
 10
422.050632492717
 20
214.332835035649
 30
0.0
 41
1.0
 10
423.3218857428748
 20
214.0941498098265
 30
0.0
 41
1.078316882292358
 10
424.78980221304
 20
214.2090061888614
 30
0.0
 41
1.079481732430007
  0
SPLINE
  5
1C4
330
2
100
AcDbEntity
  8
AM_VIS
100
AcDbSpline
210
0.0
220
0.0
230
1.0
 70
    12
 71
     2
 72
     6
 73
     3
 74
     0
 42
0.0000000001
 43
0.0000000001
 40
6.618689511426148
 40
6.618689511426148
 40
6.618689511426148
 40
13.04337768058853
 40
13.04337768058853
 40
13.04337768058853
 10
424.78980221304
 20
220.3846712081467
 30
0.0
 41
1.079481732430041
 10
423.3218857428749
 20
221.0518153152461
 30
0.0
 41
1.078316882292392
 10
422.050632492717
 20
221.2914254036287
 30
0.0
 41
1.0
  0
LINE
  5
1C5
330
2
100
AcDbEntity
  8
AM_VIS
100
AcDbLine
 10
422.0506324927231
 20
221.2914254036276
 30
0.0
 11
422.0441456547064
 21
221.2926457050218
 31
0.0
  0
SPLINE
  5
1C6
330
2
100
AcDbEntity
  8
AM_VIS
100
AcDbSpline
210
0.0
220
0.0
230
1.0
 70
    12
 71
     2
 72
     6
 73
     3
 74
     0
 42
0.0000000001
 43
0.0000000001
 40
0.0
 40
0.0
 40
0.0
 40
6.424690970345568
 40
6.424690970345568
 40
6.424690970345568
 10
422.0441456547123
 20
221.2926457050207
 30
0.0
 41
1.0
 10
420.7728918905404
 20
221.5313310273524
 30
0.0
 41
1.078316916438779
 10
419.3049746557386
 20
221.4164744517608
 30
0.0
 41
1.079481733445776
  0
SPLINE
  5
1C7
330
2
100
AcDbEntity
  8
AM_VIS
100
AcDbSpline
210
0.0
220
0.0
230
1.0
 70
    12
 71
     2
 72
     6
 73
     3
 74
     0
 42
0.0000000001
 43
0.0000000001
 40
6.618686710242966
 40
6.618686710242966
 40
6.618686710242966
 40
13.04337768058852
 40
13.04337768058852
 40
13.04337768058852
 10
419.3049746557386
 20
215.2408101136491
 30
0.0
 41
1.079481733445777
 10
420.7728918905404
 20
214.5736655223067
 30
0.0
 41
1.078316916438781
 10
422.0441456547123
 20
214.3340553370411
 30
0.0
 41
1.0
  0
LINE
  5
1C8
330
2
100
AcDbEntity
  8
AM_VIS
100
AcDbLine
 10
422.0441456547063
 20
214.3340553370422
 30
0.0
 11
422.0506324927231
 21
214.3328350356479
 31
0.0
  0
ELLIPSE
  5
1C9
330
2
100
AcDbEntity
  8
AM_VIS
100
AcDbEllipse
 10
413.8201496557386
 20
213.8175435145142
 30
0.0
 11
-9.5
 21
0.0000000000000012
 31
0.0
210
0.0
220
0.0
230
1.0
 40
0.1086109036000949
 41
3.665874254295549
 42
4.712388980384693
  0
ELLIPSE
  5
1CA
330
2
100
AcDbEntity
  8
AM_VIS
100
AcDbEllipse
 10
413.8201496557386
 20
213.8175435145142
 30
0.0
 11
-9.5
 21
0.0000000000000012
 31
0.0
210
0.0
220
0.0
230
1.0
 40
0.1086109036000949
 41
2.618676703098378
 42
3.664508604080635
  0
ELLIPSE
  5
1CB
330
2
100
AcDbEntity
  8
AM_VIS
100
AcDbEllipse
 10
413.8201496557386
 20
213.8175435145142
 30
0.0
 11
-9.5
 21
0.0000000000000012
 31
0.0
210
0.0
220
0.0
230
1.0
 40
0.1086109036000949
 41
2.125058161247407
 42
2.617311052884621
  0
ELLIPSE
  5
1CC
330
2
100
AcDbEntity
  8
AM_VIS
100
AcDbEllipse
 10
413.8201496557386
 20
213.8175435145142
 30
0.0
 11
-9.5
 21
0.0000000000000012
 31
0.0
210
0.0
220
0.0
230
1.0
 40
0.1086109036000949
 41
4.712388980384693
 42
7.299719799522346
  0
ELLIPSE
  5
1CD
330
2
100
AcDbEntity
  8
AM_VIS
100
AcDbEllipse
 10
413.8201496557386
 20
213.8175435145142
 30
0.0
 11
-5.099999999999999
 21
0.0000000000000006
 31
0.0
210
0.0
220
0.0
230
1.0
 40
0.1086109036000949
 41
2.943238131432469
 42
6.283185307179592
  0
ELLIPSE
  5
1CE
330
2
100
AcDbEntity
  8
AM_VIS
100
AcDbEllipse
 10
413.8201496557386
 20
213.8175435145142
 30
0.0
 11
-5.099999999999999
 21
0.0000000000000006
 31
0.0
210
0.0
220
0.0
230
1.0
 40
0.1086109036000949
 41
0.0000000000000056
 42
0.1983545221603305
  0
ELLIPSE
  5
1CF
330
2
100
AcDbEntity
  8
AM_VIS
100
AcDbEllipse
 10
413.8201496557386
 20
220.7761338824939
 30
0.0
 11
-9.5
 21
0.0000000000000012
 31
0.0
210
0.0
220
0.0
230
1.0
 40
0.1086109036000949
 41
3.665874254295549
 42
4.712388980384693
  0
ELLIPSE
  5
1D0
330
2
100
AcDbEntity
  8
AM_VIS
100
AcDbEllipse
 10
413.8201496557386
 20
220.7761338824939
 30
0.0
 11
-9.5
 21
0.0000000000000012
 31
0.0
210
0.0
220
0.0
230
1.0
 40
0.1086109036000949
 41
3.561585085285564
 42
3.664508604080637
  0
ELLIPSE
  5
1D1
330
2
100
AcDbEntity
  8
AM_VIS
100
AcDbEllipse
 10
413.8201496557386
 20
220.7761338824939
 30
0.0
 11
-9.5
 21
0.0000000000000012
 31
0.0
210
0.0
220
0.0
230
1.0
 40
0.1086109036000949
 41
4.712388980384693
 42
5.863192875483813
  0
LINE
  5
1D2
330
2
100
AcDbEntity
  8
AM_VIS
100
AcDbLine
 10
422.4945239059811
 20
213.3968219478787
 30
0.0
 11
422.5412875724885
 21
213.408195569841
 31
0.0
  0
LINE
  5
1D3
330
2
100
AcDbEntity
  8
AM_VIS
100
AcDbLine
 10
422.4945239059811
 20
221.1968554491294
 30
0.0
 11
422.5412875724885
 21
221.1854818271671
 31
0.0
  0
LINE
  5
1D4
330
2
100
AcDbEntity
  8
AM_VIS
100
AcDbLine
 10
405.1457754054961
 20
221.1968554491294
 30
0.0
 11
405.0990076727562
 21
221.1854808381987
 31
0.0
  0
LINE
  5
1D5
330
2
100
AcDbEntity
  8
AM_VIS
100
AcDbLine
 10
405.1457754054961
 20
213.3968219478787
 30
0.0
 11
405.0990076727562
 21
213.4081965588095
 31
0.0
  0
LINE
  5
1D6
330
2
100
AcDbEntity
  8
AM_VIS
100
AcDbLine
 10
426.3201496557383
 20
268.5842068177866
 30
0.0
 11
426.3201496557383
 21
271.2406271218347
 31
0.0
  0
LINE
  5
1D7
330
2
100
AcDbEntity
  8
AM_VIS
100
AcDbLine
 10
426.3201496557383
 20
271.2406271218347
 30
0.0
 11
420.8201496557383
 21
271.2406271218347
 31
0.0
  0
LINE
  5
1D8
330
2
100
AcDbEntity
  8
AM_VIS
100
AcDbLine
 10
420.8201496557383
 20
271.2406271218347
 30
0.0
 11
420.8201496557383
 21
268.5842068177866
 31
0.0
  0
LINE
  5
1D9
330
2
100
AcDbEntity
  8
AM_VIS
100
AcDbLine
 10
420.8201496557383
 20
268.5842068177866
 30
0.0
 11
426.3201496557383
 21
268.5842068177866
 31
0.0
  0
LINE
  5
1DA
330
2
100
AcDbEntity
  8
AM_VIS
100
AcDbLine
 10
420.8201496557383
 20
268.5842068177866
 30
0.0
 11
420.8201496557383
 21
244.7261826989992
 31
0.0
  0
LINE
  5
1DB
330
2
100
AcDbEntity
  8
AM_VIS
100
AcDbLine
 10
406.8201496557383
 20
268.5842068177866
 30
0.0
 11
406.8201496557383
 21
271.2406271218347
 31
0.0
  0
LINE
  5
1DC
330
2
100
AcDbEntity
  8
AM_VIS
100
AcDbLine
 10
406.8201496557383
 20
244.7261826989992
 30
0.0
 11
406.8201496557383
 21
268.5842068177866
 31
0.0
  0
LINE
  5
1DD
330
2
100
AcDbEntity
  8
AM_VIS
100
AcDbLine
 10
406.8201496557383
 20
271.2406271218347
 30
0.0
 11
401.3201496557384
 21
271.2406271218347
 31
0.0
  0
LINE
  5
1DE
330
2
100
AcDbEntity
  8
AM_VIS
100
AcDbLine
 10
401.3201496557384
 20
271.2406271218347
 30
0.0
 11
401.3201496557384
 21
268.5842068177866
 31
0.0
  0
LINE
  5
1DF
330
2
100
AcDbEntity
  8
AM_VIS
100
AcDbLine
 10
401.3201496557383
 20
268.5842068177866
 30
0.0
 11
406.8201496557382
 21
268.5842068177866
 31
0.0
  0
LINE
  5
1E0
330
2
100
AcDbEntity
  8
AM_VIS
100
AcDbLine
 10
420.8201496557383
 20
244.7261826989992
 30
0.0
 11
406.8201496557382
 21
244.7261826989992
 31
0.0
  0
LINE
  5
1E1
330
2
100
AcDbEntity
  8
AM_VIS
100
AcDbLine
 10
401.3201496557384
 20
219.6900248464927
 30
0.0
 11
402.8504919838343
 21
219.6900248464927
 31
0.0
  0
LINE
  5
1E2
330
2
100
AcDbEntity
  8
AM_VIS
100
AcDbLine
 10
424.78980221304
 20
219.6900248464927
 30
0.0
 11
426.3201496557384
 21
219.6900248464927
 31
0.0
  0
LINE
  5
1E3
330
2
100
AcDbEntity
  8
AM_VIS
100
AcDbLine
 10
426.3201496557383
 20
221.8622429184946
 30
0.0
 11
426.3201496557383
 21
268.5842068177866
 31
0.0
  0
LINE
  5
1E4
330
2
100
AcDbEntity
  8
AM_VIS
100
AcDbLine
 10
426.3201496557384
 20
219.6900248464927
 30
0.0
 11
426.3201496557384
 21
221.8622429184946
 31
0.0
  0
LINE
  5
1E5
330
2
100
AcDbEntity
  8
AM_VIS
100
AcDbLine
 10
401.3201496557383
 20
221.8622429184946
 30
0.0
 11
401.3201496557383
 21
268.5842068177866
 31
0.0
  0
LINE
  5
1E6
330
2
100
AcDbEntity
  8
AM_VIS
100
AcDbLine
 10
426.3201496557383
 20
221.8622429184946
 30
0.0
 11
401.3201496557383
 21
221.8622429184946
 31
0.0
  0
LINE
  5
1E7
330
2
100
AcDbEntity
  8
AM_VIS
100
AcDbLine
 10
401.3201496557384
 20
221.8622429184946
 30
0.0
 11
401.3201496557384
 21
219.6900248464927
 31
0.0
  0
ELLIPSE
  5
1E8
330
2
100
AcDbEntity
  8
AM_VIS
100
AcDbEllipse
 10
413.8201496557384
 20
253.3303743389631
 30
0.0
 11
0.0
 21
21.80584241594899
 31
0.0
210
0.0
220
0.0
230
1.0
 40
0.4585926931530014
 41
5.507787810568849
 42
5.639684198386301
  0
ELLIPSE
  5
1E9
330
2
100
AcDbEntity
  8
AM_VIS
100
AcDbEllipse
 10
413.8201496557384
 20
253.3303743389631
 30
0.0
 11
0.0
 21
21.80584241594899
 31
0.0
210
0.0
220
0.0
230
1.0
 40
0.4585926931530014
 41
5.651655663810599
 42
6.914714950548572
  0
ELLIPSE
  5
1EA
330
2
100
AcDbEntity
  8
AM_VIS
100
AcDbEllipse
 10
413.8201496557384
 20
253.3303743389631
 30
0.0
 11
0.0
 21
21.80584241594899
 31
0.0
210
0.0
220
0.0
230
1.0
 40
0.4585926931530014
 41
0.6435011087932842
 42
0.7753974966107675
  0
ELLIPSE
  5
1EB
330
2
100
AcDbEntity
  8
AM_VIS
100
AcDbEllipse
 10
420.0201496557384
 20
270.3137451717839
 30
0.0
 11
-0.1960385024306374
 21
-0.1960385024306191
 31
0.0
210
0.0
220
0.0
230
1.0
 40
0.2020491489514265
 41
4.51302386368999
 42
6.083820190484538
  0
ELLIPSE
  5
1EC
330
2
100
AcDbEntity
  8
AM_VIS
100
AcDbEllipse
 10
407.6201496557384
 20
270.3137451717839
 30
0.0
 11
0.1960385024306374
 21
-0.1960385024306191
 31
0.0
210
0.0
220
0.0
230
1.0
 40
0.2020491489514265
 41
0.1993651166950488
 42
1.770161443489588
  0
SPLINE
  5
1ED
330
2
100
AcDbEntity
  8
AM_VIS
100
AcDbSpline
210
0.0
220
0.0
230
1.0
 70
     8
 71
     3
 72
    10
 73
     6
 74
     0
 42
0.0000000001
 43
0.0000000001
 40
2.13537767391545
 40
2.13537767391545
 40
2.13537767391545
 40
2.13537767391545
 40
2.669528661566125
 40
2.669528661566125
 40
3.2036796492168
 40
3.2036796492168
 40
3.2036796492168
 40
3.2036796492168
 10
419.8201496557384
 20
245.6683429647267
 30
0.0
 10
419.8201496557384
 20
245.6616494796714
 30
0.0
 10
419.8484165856871
 20
245.6544284333119
 30
0.0
 10
419.926225738864
 20
245.640085128255
 30
0.0
 10
419.9756370734341
 20
245.6329618665316
 30
0.0
 10
420.0201496557384
 20
245.6264809274947
 30
0.0
  0
LINE
  5
1EE
330
2
100
AcDbEntity
  8
AM_VIS
100
AcDbLine
 10
419.8201496557384
 20
270.9304232282544
 30
0.0
 11
419.8201496557384
 21
246.9389057270672
 31
0.0
  0
LINE
  5
1EF
330
2
100
AcDbEntity
  8
AM_VIS
100
AcDbLine
 10
419.8201496557384
 20
245.6683429647267
 30
0.0
 11
419.8201496557384
 21
246.9389057270672
 31
0.0
  0
SPLINE
  5
1F0
330
2
100
AcDbEntity
  8
AM_VIS
100
AcDbSpline
210
0.0
220
0.0
230
1.0
 70
     8
 71
     3
 72
    10
 73
     6
 74
     0
 42
0.0000000001
 43
0.0000000001
 40
0.0
 40
0.0
 40
0.0
 40
0.0
 40
0.5341509876506754
 40
0.5341509876506754
 40
1.06830197530135
 40
1.06830197530135
 40
1.06830197530135
 40
1.06830197530135
 10
407.6201496557384
 20
245.6264809274947
 30
0.0
 10
407.6646622380427
 20
245.6329618665316
 30
0.0
 10
407.7140735726128
 20
245.640085128255
 30
0.0
 10
407.7918827257898
 20
245.6544284333119
 30
0.0
 10
407.8201496557384
 20
245.6616494796714
 30
0.0
 10
407.8201496557384
 20
245.6683429647267
 30
0.0
  0
ELLIPSE
  5
1F1
330
2
100
AcDbEntity
  8
AM_VIS
100
AcDbEllipse
 10
399.1489802700724
 20
248.6243603027915
 30
0.0
 11
-0.0975495969542358
 21
-2.999472782867813
 31
0.0
210
0.0
220
0.0
230
1.0
 40
0.5765351914575433
 41
0.0563501030606313
 42
1.190814116856948
  0
LINE
  5
1F2
330
2
100
AcDbEntity
  8
AM_VIS
100
AcDbLine
 10
426.9215479069616
 20
247.4596148142046
 30
0.0
 11
426.3201496557384
 21
249.7310254630314
 31
0.0
  0
LINE
  5
1F3
330
2
100
AcDbEntity
  8
AM_VIS
100
AcDbLine
 10
401.3201496557383
 20
249.7310254630304
 30
0.0
 11
400.7187514045152
 21
247.4596148142045
 31
0.0
  0
LINE
  5
1F4
330
2
100
AcDbEntity
  8
AM_VIS
100
AcDbLine
 10
407.8201496557384
 20
246.9389057270672
 30
0.0
 11
407.8201496557384
 21
245.6683429647267
 31
0.0
  0
LINE
  5
1F5
330
2
100
AcDbEntity
  8
AM_VIS
100
AcDbLine
 10
407.8201496557384
 20
246.9389057270672
 30
0.0
 11
407.8201496557384
 21
270.9304232282544
 31
0.0
  0
ELLIPSE
  5
1F6
330
2
100
AcDbEntity
  8
AM_VIS
100
AcDbEllipse
 10
428.4913190414044
 20
248.6243603027915
 30
0.0
 11
-0.0975495969542359
 21
2.999472782867813
 31
0.0
210
0.0
220
0.0
230
1.0
 40
0.5765351914575433
 41
1.950778536732843
 42
3.085242550529162
  0
LINE
  5
1F7
330
2
100
AcDbEntity
  8
AM_VIS
100
AcDbLine
 10
430.0701496557384
 20
275.5024717053262
 30
0.0
 11
430.0701496557384
 21
263.5513387371897
 31
0.0
  0
LINE
  5
1F8
330
2
100
AcDbEntity
  8
AM_VIS
100
AcDbLine
 10
430.0701496557384
 20
253.5513387371898
 30
0.0
 11
430.0701496557384
 21
245.5236779523584
 31
0.0
  0
LINE
  5
1F9
330
2
100
AcDbEntity
  8
AM_VIS
100
AcDbLine
 10
422.4804036935828
 20
275.9966656095708
 30
0.0
 11
430.0701496557384
 21
275.5024717053262
 31
0.0
  0
LINE
  5
1FA
330
2
100
AcDbEntity
  8
AM_VIS
100
AcDbLine
 10
430.0701496557384
 20
245.5236779523584
 30
0.0
 11
428.4913190414044
 21
245.6264809274947
 31
0.0
  0
LINE
  5
1FB
330
2
100
AcDbEntity
  8
AM_VIS
100
AcDbLine
 10
397.5701496557384
 20
275.5024717053262
 30
0.0
 11
405.159895617894
 21
275.9966656095708
 31
0.0
  0
LINE
  5
1FC
330
2
100
AcDbEntity
  8
AM_VIS
100
AcDbLine
 10
397.5701496557384
 20
245.5236779523584
 30
0.0
 11
397.5701496557384
 21
251.706635410206
 31
0.0
  0
LINE
  5
1FD
330
2
100
AcDbEntity
  8
AM_VIS
100
AcDbLine
 10
397.5701496557384
 20
265.3960417119595
 30
0.0
 11
397.5701496557384
 21
275.5024717053262
 31
0.0
  0
LINE
  5
1FE
330
2
100
AcDbEntity
  8
AM_VIS
100
AcDbLine
 10
399.1489802700724
 20
245.6264809274947
 30
0.0
 11
397.5701496557384
 21
245.5236779523584
 31
0.0
  0
LINE
  5
1FF
330
2
100
AcDbEntity
  8
AM_VIS
100
AcDbLine
 10
397.5701496557384
 20
245.5236779523584
 30
0.0
 11
397.5701496557384
 21
245.4351769589624
 31
0.0
  0
LINE
  5
200
330
2
100
AcDbEntity
  8
AM_VIS
100
AcDbLine
 10
430.0701496557384
 20
245.4351769589624
 30
0.0
 11
430.0701496557384
 21
245.5236779523584
 31
0.0
  0
LINE
  5
201
330
2
100
AcDbEntity
  8
AM_VIS
100
AcDbLine
 10
397.5701496557384
 20
186.9803951045797
 30
0.0
 11
397.5701496557384
 21
197.3563272966059
 31
0.0
  0
LINE
  5
202
330
2
100
AcDbEntity
  8
AM_VIS
100
AcDbLine
 10
430.0701496557384
 20
197.3563272966059
 30
0.0
 11
430.0701496557384
 21
186.9803951045797
 31
0.0
  0
LINE
  5
203
330
2
100
AcDbEntity
  8
AM_VIS
100
AcDbLine
 10
397.5701496557384
 20
242.3245179260577
 30
0.0
 11
397.5701496557384
 21
197.3563272966059
 31
0.0
  0
LINE
  5
204
330
2
100
AcDbEntity
  8
AM_VIS
100
AcDbLine
 10
430.0701496557384
 20
242.3245179260577
 30
0.0
 11
430.0701496557384
 21
245.4351769589623
 31
0.0
  0
LINE
  5
205
330
2
100
AcDbEntity
  8
AM_VIS
100
AcDbLine
 10
430.0701496557384
 20
197.3563272966059
 30
0.0
 11
430.0701496557384
 21
242.3245179260577
 31
0.0
  0
LINE
  5
206
330
2
100
AcDbEntity
  8
AM_VIS
100
AcDbLine
 10
397.5701496557384
 20
245.4351769589623
 30
0.0
 11
397.5701496557384
 21
242.3245179260577
 31
0.0
  0
ARC
  5
207
330
2
100
AcDbEntity
  8
AM_VIS
100
AcDbCircle
 10
413.8201496557384
 20
281.8044582641513
 30
0.0
 40
10.0
100
AcDbArc
 50
0.0
 51
180.0
  0
LINE
  5
208
330
2
100
AcDbEntity
  8
AM_VIS
100
AcDbLine
 10
423.8201496557384
 20
281.8044582641513
 30
0.0
 11
423.8201496557384
 21
275.90943024082
 31
0.0
  0
LINE
  5
209
330
2
100
AcDbEntity
  8
AM_VIS
100
AcDbLine
 10
403.8201496557384
 20
281.8044582641513
 30
0.0
 11
403.8201496557384
 21
275.90943024082
 31
0.0
  0
LINE
  5
20A
330
2
100
AcDbEntity
  8
AM_VIS
100
AcDbLine
 10
407.8201496557384
 20
270.9304232282543
 30
0.0
 11
419.8201496557384
 21
270.9304232282543
 31
0.0
  0
LINE
  5
20B
330
2
100
AcDbEntity
  8
AM_VIS
100
AcDbLine
 10
403.8201496557384
 20
186.9803951045797
 30
0.0
 11
397.5701496557384
 21
186.9803951045797
 31
0.0
  0
LINE
  5
20C
330
2
100
AcDbEntity
  8
AM_VIS
100
AcDbLine
 10
430.0701496557384
 20
186.9803951045797
 30
0.0
 11
424.0701496557384
 21
186.9803951045797
 31
0.0
  0
LINE
  5
20D
330
2
100
AcDbEntity
  8
AM_VIS
100
AcDbLine
 10
393.1301513606062
 20
254.6513387371898
 30
0.0
 11
393.1301513606062
 21
262.4513387371897
 31
0.0
  0
LINE
  5
20E
330
2
100
AcDbEntity
  8
AM_VIS
100
AcDbLine
 10
431.1301513606061
 20
263.5513387371897
 30
0.0
 11
431.1301513606061
 21
253.5513387371898
 31
0.0
  0
LINE
  5
20F
330
2
100
AcDbEntity
  8
AM_VIS
100
AcDbLine
 10
395.930151360606
 20
254.6513387371898
 30
0.0
 11
393.1301513606062
 21
254.6513387371898
 31
0.0
  0
LINE
  5
210
330
2
100
AcDbEntity
  8
AM_VIS
100
AcDbLine
 10
395.930151360606
 20
262.4513387371897
 30
0.0
 11
393.1301513606062
 21
262.4513387371897
 31
0.0
  0
LINE
  5
211
330
2
100
AcDbEntity
  8
AM_VIS
100
AcDbLine
 10
426.5301513606062
 20
254.5513387371897
 30
0.0
 11
426.3201496557383
 21
254.5513387371897
 31
0.0
  0
LINE
  5
212
330
2
100
AcDbEntity
  8
AM_VIS
100
AcDbLine
 10
407.0701496557384
 20
254.5513387371897
 30
0.0
 11
406.8201496557382
 21
254.5513387371897
 31
0.0
  0
LINE
  5
213
330
2
100
AcDbEntity
  8
AM_VIS
100
AcDbLine
 10
426.5301513606062
 20
262.5513387371897
 30
0.0
 11
426.3201496557383
 21
262.5513387371897
 31
0.0
  0
LINE
  5
214
330
2
100
AcDbEntity
  8
AM_VIS
100
AcDbLine
 10
407.0701496557384
 20
262.5513387371897
 30
0.0
 11
406.8201496557382
 21
262.5513387371897
 31
0.0
  0
LINE
  5
215
330
2
100
AcDbEntity
  8
AM_VIS
100
AcDbLine
 10
428.1301513606061
 20
263.5513387371897
 30
0.0
 11
431.1301513606061
 21
263.5513387371897
 31
0.0
  0
LINE
  5
216
330
2
100
AcDbEntity
  8
AM_VIS
100
AcDbLine
 10
428.1301513606061
 20
253.5513387371897
 30
0.0
 11
431.1301513606061
 21
253.5513387371897
 31
0.0
  0
LINE
  5
217
330
2
100
AcDbEntity
  8
AM_VIS
100
AcDbLine
 10
451.0851496557385
 20
78.74044633328018
 30
0.0
 11
451.0851496557385
 21
92.97132021007147
 31
0.0
  0
LINE
  5
218
330
2
100
AcDbEntity
  8
AM_VIS
100
AcDbLine
 10
451.0851496557385
 20
92.97132021007147
 30
0.0
 11
451.0851496557385
 21
105.3253388379832
 31
0.0
  0
LINE
  5
219
330
2
100
AcDbEntity
  8
AM_VIS
100
AcDbLine
 10
452.5851496557384
 20
105.3803951045799
 30
0.0
 11
452.5851496557384
 21
92.97132021007147
 31
0.0
  0
LINE
  5
21A
330
2
100
AcDbEntity
  8
AM_VIS
100
AcDbLine
 10
452.5851496557384
 20
92.97132021007147
 30
0.0
 11
452.5851496557384
 21
78.38039510457997
 31
0.0
  0
LINE
  5
21B
330
2
100
AcDbEntity
  8
AM_VIS
100
AcDbLine
 10
452.5851496557384
 20
78.38039510458
 30
0.0
 11
451.2951496557383
 21
78.38039510458
 31
0.0
  0
LINE
  5
21C
330
2
100
AcDbEntity
  8
AM_VIS
100
AcDbLine
 10
452.5851496557384
 20
105.38039510458
 30
0.0
 11
451.0851496557385
 21
105.38039510458
 31
0.0
  0
LINE
  5
21D
330
2
100
AcDbEntity
  8
AM_VIS
100
AcDbLine
 10
376.0851496557384
 20
78.38039510457997
 30
0.0
 11
376.0851496557384
 21
92.97132021007147
 31
0.0
  0
LINE
  5
21E
330
2
100
AcDbEntity
  8
AM_VIS
100
AcDbLine
 10
376.0851496557384
 20
92.97132021007147
 30
0.0
 11
376.0851496557384
 21
105.3803951045799
 31
0.0
  0
LINE
  5
21F
330
2
100
AcDbEntity
  8
AM_VIS
100
AcDbLine
 10
377.5851496557384
 20
105.3253388379832
 30
0.0
 11
377.5851496557384
 21
92.97132021007147
 31
0.0
  0
LINE
  5
220
330
2
100
AcDbEntity
  8
AM_VIS
100
AcDbLine
 10
377.5851496557384
 20
92.97132021007147
 30
0.0
 11
377.5851496557384
 21
78.38039510457997
 31
0.0
  0
LINE
  5
221
330
2
100
AcDbEntity
  8
AM_VIS
100
AcDbLine
 10
377.5851496557384
 20
78.38039510458
 30
0.0
 11
376.0851496557384
 21
78.38039510458
 31
0.0
  0
LINE
  5
222
330
2
100
AcDbEntity
  8
AM_VIS
100
AcDbLine
 10
377.5851496557384
 20
105.38039510458
 30
0.0
 11
376.0851496557384
 21
105.38039510458
 31
0.0
  0
LINE
  5
223
330
2
100
AcDbEntity
  8
AM_VIS
100
AcDbLine
 10
437.0701496557399
 20
39.01896944846319
 30
0.0
 11
390.5701496557398
 21
39.01896944846318
 31
0.0
  0
ELLIPSE
  5
224
330
2
100
AcDbEntity
  8
AM_VIS
100
AcDbEllipse
 10
437.0701496557398
 20
67.56532147964637
 30
0.0
 11
-11.75
 21
-0.0000000000000027
 31
0.0
210
0.0
220
0.0
230
1.0
 40
0.1086109036000947
 41
3.141592653589794
 42
4.712388980384689
  0
LINE
  5
225
330
2
100
AcDbEntity
  8
AM_VIS
100
AcDbLine
 10
448.8201496557398
 20
37.7699440570621
 30
0.0
 11
448.8201496557398
 21
67.56532147964637
 31
0.0
  0
LINE
  5
226
330
2
100
AcDbEntity
  8
AM_VIS
100
AcDbLine
 10
437.0701496557398
 20
68.84149959694749
 30
0.0
 11
390.5701496557398
 21
68.84149959694747
 31
0.0
  0
ELLIPSE
  5
227
330
2
100
AcDbEntity
  8
AM_VIS
100
AcDbEllipse
 10
390.5701496557398
 20
67.56532147964637
 30
0.0
 11
-11.75
 21
-0.0000000000000027
 31
0.0
210
0.0
220
0.0
230
1.0
 40
0.1086109036000947
 41
4.712388980384689
 42
6.283185307179586
  0
LINE
  5
228
330
2
100
AcDbEntity
  8
AM_VIS
100
AcDbLine
 10
378.8201496557398
 20
67.56532147964636
 30
0.0
 11
378.8201496557398
 21
37.76994405706208
 31
0.0
  0
SPLINE
  5
229
330
2
100
AcDbEntity
  8
AM_VIS
100
AcDbSpline
210
0.0
220
0.0
230
1.0
 70
     8
 71
     1
 72
    96
 73
    94
 74
     0
 42
0.0000000001
 43
0.0000000001
 40
4.11009483961944
 40
4.11009483961944
 40
4.113926478476532
 40
4.131290724549629
 40
4.148654970622725
 40
4.166019216695821
 40
4.183383462768919
 40
4.200747708842015
 40
4.218111954915111
 40
4.235476200988207
 40
4.252840447061305
 40
4.270204693134401
 40
4.287568939207497
 40
4.304933185280594
 40
4.322297431353691
 40
4.339661677426787
 40
4.357025923499884
 40
4.374390169572981
 40
4.391754415646078
 40
4.409118661719173
 40
4.42648290779227
 40
4.443847153865367
 40
4.460958302476275
 40
4.478069451087183
 40
4.495180599698091
 40
4.512291748308999
 40
4.529402896919908
 40
4.546514045530815
 40
4.563625194141724
 40
4.580736342752631
 40
4.597847491363539
 40
4.614958639974448
 40
4.632069788585356
 40
4.649180937196264
 40
4.666292085807172
 40
4.68340323441808
 40
4.700514383028988
 40
4.717625531639896
 40
4.734736680250804
 40
4.751847828861712
 40
4.76895897747262
 40
4.786028768952191
 40
4.803098560431761
 40
4.820168351911331
 40
4.837238143390901
 40
4.854307934870472
 40
4.871377726350043
 40
4.888447517829614
 40
4.905517309309184
 40
4.922587100788755
 40
4.939656892268326
 40
4.956726683747895
 40
4.973796475227466
 40
4.990866266707036
 40
5.007936058186607
 40
5.025005849666177
 40
5.042075641145748
 40
5.059145432625318
 40
5.076215224104889
 40
5.093285015584459
 40
5.110446841434677
 40
5.127608667284896
 40
5.144770493135114
 40
5.161932318985332
 40
5.179094144835551
 40
5.196255970685768
 40
5.213417796535987
 40
5.230579622386206
 40
5.247741448236425
 40
5.264903274086642
 40
5.28206509993686
 40
5.299226925787079
 40
5.316388751637297
 40
5.333550577487516
 40
5.350712403337734
 40
5.367874229187952
 40
5.38503605503817
 40
5.402197880888389
 40
5.419359706738607
 40
5.436923457181507
 40
5.454487207624408
 40
5.47205095806731
 40
5.48961470851021
 40
5.507178458953111
 40
5.524742209396012
 40
5.542305959838913
 40
5.559869710281814
 40
5.577433460724715
 40
5.594997211167616
 40
5.612560961610517
 40
5.630124712053418
 40
5.647688462496319
 40
5.665252212939219
 40
5.68281596338212
 40
5.683809339920504
 40
5.683809339920504
 10
423.0333948454741
 20
92.32454123156282
 30
0.0
 10
422.9818304392037
 20
92.32843377240632
 30
0.0
 10
422.7455223101961
 20
92.34561022595466
 30
0.0
 10
422.506685157045
 20
92.36232575570358
 30
0.0
 10
422.2653825210867
 20
92.37857684959077
 30
0.0
 10
422.0216791325824
 20
92.3943600100388
 30
0.0
 10
421.7756408553737
 20
92.40967176659212
 30
0.0
 10
421.5273346344004
 20
92.4245086872755
 30
0.0
 10
421.2768284457543
 20
92.43886738882469
 30
0.0
 10
421.0241912489808
 20
92.45274454592012
 30
0.0
 10
420.769492941382
 20
92.46613689953626
 30
0.0
 10
420.5128043140924
 20
92.47904126450462
 30
0.0
 10
420.254197009736
 20
92.49145453637515
 30
0.0
 10
419.9937434814885
 20
92.50337369765066
 30
0.0
 10
419.7315169533919
 20
92.51479582345769
 30
0.0
 10
419.4675913817843
 20
92.52571808671143
 30
0.0
 10
419.2020414177243
 20
92.53613776282282
 30
0.0
 10
418.9349423703007
 20
92.54605223399163
 30
0.0
 10
418.6663701707339
 20
92.55545899312325
 30
0.0
 10
418.3964013371798
 20
92.56435564740215
 30
0.0
 10
418.1251129401625
 20
92.57273992155147
 30
0.0
 10
417.8565634607307
 20
92.5804986582248
 30
0.0
 10
417.5868826533664
 20
92.58775580501252
 30
0.0
 10
417.3161456506724
 20
92.59450953550715
 30
0.0
 10
417.044427981341
 20
92.6007581438537
 30
0.0
 10
416.7718055401033
 20
92.6065000466316
 30
0.0
 10
416.4983545579617
 20
92.61173378455323
 30
0.0
 10
416.2241515726708
 20
92.61645802398982
 30
0.0
 10
415.9492733994394
 20
92.6206715583341
 30
0.0
 10
415.6737971018229
 20
92.6243733092075
 30
0.0
 10
415.3977999627822
 20
92.62756232751977
 30
0.0
 10
415.1213594558847
 20
92.63023779438595
 30
0.0
 10
414.8445532166272
 20
92.63239902190694
 30
0.0
 10
414.5674590138577
 20
92.63404545381723
 30
0.0
 10
414.2901547212799
 20
92.63517666600362
 30
0.0
 10
414.0127182890187
 20
92.63579236689787
 30
0.0
 10
413.7352277152326
 20
92.6358923977448
 30
0.0
 10
413.4577610177535
 20
92.63547673274812
 30
0.0
 10
413.1803962057375
 20
92.63454547909388
 30
0.0
 10
412.9032112513122
 20
92.63309887685235
 30
0.0
 10
412.6269530126495
 20
92.63114266029013
 30
0.0
 10
412.3510285440262
 20
92.62867445541733
 30
0.0
 10
412.0755149746001
 20
92.62569489405704
 30
0.0
 10
411.8004892842866
 20
92.62220473802399
 30
0.0
 10
411.526028275468
 20
92.61820487840555
 30
0.0
 10
411.2522085445901
 20
92.61369633470966
 30
0.0
 10
410.9791064536289
 20
92.60868025387491
 30
0.0
 10
410.7067981014017
 20
92.60315790913717
 30
0.0
 10
410.4353592947001
 20
92.59713069874612
 30
0.0
 10
410.1648655192184
 20
92.59060014452442
 30
0.0
 10
409.8953919102487
 20
92.58356789026034
 30
0.0
 10
409.6270132231097
 20
92.57603569992431
 30
0.0
 10
409.3598038032779
 20
92.56800545569793
 30
0.0
 10
409.0938375561787
 20
92.55947915580234
 30
0.0
 10
408.8291879165994
 20
92.55045891211141
 30
0.0
 10
408.5659278176732
 20
92.54094694753304
 30
0.0
 10
408.3041296593861
 20
92.53094559313964
 30
0.0
 10
408.0438652765452
 20
92.52045728502636
 30
0.0
 10
407.7852059061473
 20
92.50948456087266
 30
0.0
 10
407.526841255738
 20
92.49796699658404
 30
0.0
 10
407.2702414166395
 20
92.48596521648201
 30
0.0
 10
407.0154767495368
 20
92.47348208550391
 30
0.0
 10
406.7626168627819
 20
92.46052055461225
 30
0.0
 10
406.5117305744648
 20
92.44708365521928
 30
0.0
 10
406.2628858732567
 20
92.43317449306195
 30
0.0
 10
406.0161498778773
 20
92.41879624146395
 30
0.0
 10
405.7715887950165
 20
92.40395213391288
 30
0.0
 10
405.5292678755224
 20
92.38864545586936
 30
0.0
 10
405.2892513686384
 20
92.37287953571302
 30
0.0
 10
405.0516024740471
 20
92.35665773471541
 30
0.0
 10
404.8163832914451
 20
92.33998343591286
 30
0.0
 10
404.5836547673337
 20
92.32286003173284
 30
0.0
 10
404.3534766386679
 20
92.30529091020303
 30
0.0
 10
404.1259073729587
 20
92.28727943954599
 30
0.0
 10
403.9010041043603
 20
92.26882895092799
 30
0.0
 10
403.6788225652112
 20
92.24994271909345
 30
0.0
 10
403.4594170124185
 20
92.23062394056931
 30
0.0
 10
403.2428401479838
 20
92.21087570906897
 30
0.0
 10
403.0241732266784
 20
92.19022341390511
 30
0.0
 10
402.8085753631818
 20
92.16912741750602
 30
0.0
 10
402.5960973897262
 20
92.1475905012261
 30
0.0
 10
402.3867879936955
 20
92.12561518169939
 30
0.0
 10
402.1806935779069
 20
92.10320365766312
 30
0.0
 10
401.9778581057328
 20
92.08035774866761
 30
0.0
 10
401.7783229287101
 20
92.05707882419504
 30
0.0
 10
401.5821265938796
 20
92.03336772139868
 30
0.0
 10
401.3893046276029
 20
92.00922464929172
 30
0.0
 10
401.1998892920174
 20
91.98464907673905
 30
0.0
 10
401.0139093095773
 20
91.95963960101154
 30
0.0
 10
400.8313895502768
 20
91.9341937929188
 30
0.0
 10
400.6523506751104
 20
91.90830801359906
 30
0.0
 10
400.4768087280726
 20
91.88197719686057
 30
0.0
 10
400.3047746674678
 20
91.85519458945936
 30
0.0
 10
400.2952434086829
 20
91.8536537621844
 30
0.0
  0
ELLIPSE
  5
22A
330
2
100
AcDbEntity
  8
AM_VIS
100
AcDbEllipse
 10
413.8201496557396
 20
-142.723508730163
 30
0.0
 11
-20.0
 21
-0.0000000000000047
 31
0.0
210
0.0
220
0.0
230
1.0
 40
0.1086109036000947
 41
1.570796326794896
 42
7.853981633974482
  0
ELLIPSE
  5
22B
330
2
100
AcDbEntity
  8
AM_VIS
100
AcDbEllipse
 10
413.8201496557396
 20
-138.7471713770318
 30
0.0
 11
-20.0
 21
-0.0000000000000047
 31
0.0
210
0.0
220
0.0
230
1.0
 40
0.1086109036000947
 41
3.141592653589794
 42
4.712388980384689
  0
ELLIPSE
  5
22C
330
2
100
AcDbEntity
  8
AM_VIS
100
AcDbEllipse
 10
413.8201496557396
 20
-138.7471713770318
 30
0.0
 11
-20.0
 21
-0.0000000000000047
 31
0.0
210
0.0
220
0.0
230
1.0
 40
0.1086109036000947
 41
4.712388980384689
 42
6.283185307179586
  0
LINE
  5
22D
330
2
100
AcDbEntity
  8
AM_VIS
100
AcDbLine
 10
433.8201496557395
 20
-138.7471713770318
 30
0.0
 11
433.8201496557395
 21
-142.723508730163
 31
0.0
  0
LINE
  5
22E
330
2
100
AcDbEntity
  8
AM_VIS
100
AcDbLine
 10
393.8201496557396
 20
-138.7471713770318
 30
0.0
 11
393.8201496557396
 21
-142.723508730163
 31
0.0
  0
ELLIPSE
  5
22F
330
2
100
AcDbEntity
  8
AM_VIS
100
AcDbEllipse
 10
390.5701496557395
 20
-136.2219678683296
 30
0.0
 11
-3.0
 21
-0.0000000000000007
 31
0.0
210
0.0
220
0.0
230
1.0
 40
0.1086109036000947
 41
1.570796326794896
 42
7.853981633974482
  0
ELLIPSE
  5
230
330
2
100
AcDbEntity
  8
AM_VIS
100
AcDbEllipse
 10
437.0701496557395
 20
-136.2219678683296
 30
0.0
 11
-3.0
 21
-0.0000000000000007
 31
0.0
210
0.0
220
0.0
230
1.0
 40
0.1086109036000947
 41
1.570796326794896
 42
7.853981633974482
  0
ELLIPSE
  5
231
330
2
100
AcDbEntity
  8
AM_VIS
100
AcDbEllipse
 10
437.0701496557395
 20
-141.272374885734
 30
0.0
 11
-3.0
 21
-0.0000000000000007
 31
0.0
210
0.0
220
0.0
230
1.0
 40
0.1086109036000947
 41
1.570796326794896
 42
7.853981633974482
  0
ELLIPSE
  5
232
330
2
100
AcDbEntity
  8
AM_VIS
100
AcDbEllipse
 10
390.5701496557395
 20
-141.272374885734
 30
0.0
 11
-3.0
 21
-0.0000000000000007
 31
0.0
210
0.0
220
0.0
230
1.0
 40
0.1086109036000947
 41
1.570796326794896
 42
7.853981633974482
  0
ELLIPSE
  5
233
330
2
100
AcDbEntity
  8
AM_VIS
100
AcDbEllipse
 10
437.0701496557395
 20
-141.272374885734
 30
0.0
 11
-11.75
 21
-0.0000000000000027
 31
0.0
210
0.0
220
0.0
230
1.0
 40
0.1086109036000947
 41
1.570796326794896
 42
3.141592653589791
  0
LINE
  5
234
330
2
100
AcDbEntity
  8
AM_VIS
100
AcDbLine
 10
390.5701496557395
 20
-142.5485530030351
 30
0.0
 11
393.8201496557395
 21
-142.5485530030351
 31
0.0
  0
LINE
  5
235
330
2
100
AcDbEntity
  8
AM_VIS
100
AcDbLine
 10
433.8201496557395
 20
-142.5485530030351
 30
0.0
 11
437.0701496557395
 21
-142.5485530030351
 31
0.0
  0
LINE
  5
236
330
2
100
AcDbEntity
  8
AM_VIS
100
AcDbLine
 10
448.8201496557395
 20
-141.272374885734
 30
0.0
 11
448.8201496557395
 21
-136.2219678683296
 31
0.0
  0
ELLIPSE
  5
237
330
2
100
AcDbEntity
  8
AM_VIS
100
AcDbEllipse
 10
437.0701496557395
 20
-136.2219678683296
 30
0.0
 11
-11.75
 21
-0.0000000000000027
 31
0.0
210
0.0
220
0.0
230
1.0
 40
0.1086109036000947
 41
3.141592653589794
 42
4.712388980384689
  0
LINE
  5
238
330
2
100
AcDbEntity
  8
AM_VIS
100
AcDbLine
 10
437.0701496557395
 20
-134.9457897510285
 30
0.0
 11
390.5701496557395
 21
-134.9457897510285
 31
0.0
  0
ELLIPSE
  5
239
330
2
100
AcDbEntity
  8
AM_VIS
100
AcDbEllipse
 10
390.5701496557395
 20
-136.2219678683296
 30
0.0
 11
-11.75
 21
-0.0000000000000027
 31
0.0
210
0.0
220
0.0
230
1.0
 40
0.1086109036000947
 41
4.712388980384689
 42
6.283185307179586
  0
LINE
  5
23A
330
2
100
AcDbEntity
  8
AM_VIS
100
AcDbLine
 10
378.8201496557395
 20
-136.2219678683296
 30
0.0
 11
378.8201496557395
 21
-141.272374885734
 31
0.0
  0
ELLIPSE
  5
23B
330
2
100
AcDbEntity
  8
AM_VIS
100
AcDbEllipse
 10
390.5701496557395
 20
-141.272374885734
 30
0.0
 11
-11.75
 21
-0.0000000000000027
 31
0.0
210
0.0
220
0.0
230
1.0
 40
0.1086109036000947
 41
0.0
 42
1.570796326794896
  0
ELLIPSE
  5
23C
330
2
100
AcDbEntity
  8
AM_VIS
100
AcDbEllipse
 10
437.0701496557395
 20
-106.3994377198453
 30
0.0
 11
-11.75
 21
-0.0000000000000027
 31
0.0
210
0.0
220
0.0
230
1.0
 40
0.1086109036000947
 41
3.141592653589794
 42
4.712388980384689
  0
LINE
  5
23D
330
2
100
AcDbEntity
  8
AM_VIS
100
AcDbLine
 10
448.8201496557395
 20
-136.2219678683296
 30
0.0
 11
448.8201496557395
 21
-106.3994377198453
 31
0.0
  0
LINE
  5
23E
330
2
100
AcDbEntity
  8
AM_VIS
100
AcDbLine
 10
437.0701496557395
 20
-105.1232596025442
 30
0.0
 11
390.5701496557395
 21
-105.1232596025442
 31
0.0
  0
ELLIPSE
  5
23F
330
2
100
AcDbEntity
  8
AM_VIS
100
AcDbEllipse
 10
390.5701496557395
 20
-106.3994377198453
 30
0.0
 11
-11.75
 21
-0.0000000000000027
 31
0.0
210
0.0
220
0.0
230
1.0
 40
0.1086109036000947
 41
4.712388980384689
 42
6.283185307179586
  0
LINE
  5
240
330
2
100
AcDbEntity
  8
AM_VIS
100
AcDbLine
 10
378.8201496557395
 20
-106.3994377198453
 30
0.0
 11
378.8201496557395
 21
-136.2219678683296
 31
0.0
  0
ELLIPSE
  5
241
330
2
100
AcDbEntity
  8
AM_VIS
100
AcDbEllipse
 10
390.32014965574
 20
37.76994405706209
 30
0.0
 11
-11.5
 21
-0.0000000000000027
 31
0.0
210
0.0
220
0.0
230
1.0
 40
0.1086109036000948
 41
4.712388980384689
 42
6.283185307179586
  0
LINE
  5
242
330
2
100
AcDbEntity
  8
AM_VIS
100
AcDbLine
 10
390.32014965574
 20
39.01896944846318
 30
0.0
 11
397.32014965574
 21
39.01896944846318
 31
0.0
  0
ELLIPSE
  5
243
330
2
100
AcDbEntity
  8
AM_VIS
100
AcDbEllipse
 10
397.32014965574
 20
38.85605309306304
 30
0.0
 11
-1.5
 21
-0.0000000000000004
 31
0.0
210
0.0
220
0.0
230
1.0
 40
0.1086109036000948
 41
3.141592653589794
 42
4.712388980384689
  0
ELLIPSE
  5
244
330
2
100
AcDbEntity
  8
AM_VIS
100
AcDbEllipse
 10
400.32014965574
 20
38.63883128586285
 30
0.0
 11
-1.5
 21
-0.0000000000000004
 31
0.0
210
0.0
220
0.0
230
1.0
 40
0.1086109036000948
 41
0.0
 42
1.570796326794896
  0
LINE
  5
245
330
2
100
AcDbEntity
  8
AM_VIS
100
AcDbLine
 10
400.32014965574
 20
38.47591493046271
 30
0.0
 11
407.32014965574
 21
38.47591493046271
 31
0.0
  0
ELLIPSE
  5
246
330
2
100
AcDbEntity
  8
AM_VIS
100
AcDbEllipse
 10
407.32014965574
 20
38.63883128586286
 30
0.0
 11
-1.5
 21
-0.0000000000000004
 31
0.0
210
0.0
220
0.0
230
1.0
 40
0.1086109036000947
 41
1.570796326794896
 42
3.141592653589791
  0
ELLIPSE
  5
247
330
2
100
AcDbEntity
  8
AM_VIS
100
AcDbEllipse
 10
410.3201496557399
 20
38.85605309306304
 30
0.0
 11
-1.5
 21
-0.0000000000000004
 31
0.0
210
0.0
220
0.0
230
1.0
 40
0.1086109036000947
 41
4.712388980384689
 42
6.283185307179586
  0
LINE
  5
248
330
2
100
AcDbEntity
  8
AM_VIS
100
AcDbLine
 10
410.3201496557399
 20
39.01896944846319
 30
0.0
 11
417.32014965574
 21
39.01896944846319
 31
0.0
  0
ELLIPSE
  5
249
330
2
100
AcDbEntity
  8
AM_VIS
100
AcDbEllipse
 10
417.32014965574
 20
38.85605309306304
 30
0.0
 11
-1.5
 21
-0.0000000000000004
 31
0.0
210
0.0
220
0.0
230
1.0
 40
0.1086109036000948
 41
3.141592653589794
 42
4.712388980384689
  0
ELLIPSE
  5
24A
330
2
100
AcDbEntity
  8
AM_VIS
100
AcDbEllipse
 10
420.32014965574
 20
38.63883128586286
 30
0.0
 11
-1.5
 21
-0.0000000000000004
 31
0.0
210
0.0
220
0.0
230
1.0
 40
0.1086109036000948
 41
0.0
 42
1.570796326794896
  0
LINE
  5
24B
330
2
100
AcDbEntity
  8
AM_VIS
100
AcDbLine
 10
420.32014965574
 20
38.47591493046271
 30
0.0
 11
427.3201496557399
 21
38.47591493046271
 31
0.0
  0
ELLIPSE
  5
24C
330
2
100
AcDbEntity
  8
AM_VIS
100
AcDbEllipse
 10
427.3201496557399
 20
38.63883128586286
 30
0.0
 11
-1.5
 21
-0.0000000000000004
 31
0.0
210
0.0
220
0.0
230
1.0
 40
0.1086109036000947
 41
1.570796326794896
 42
3.141592653589791
  0
ELLIPSE
  5
24D
330
2
100
AcDbEntity
  8
AM_VIS
100
AcDbEllipse
 10
430.32014965574
 20
38.85605309306304
 30
0.0
 11
-1.5
 21
-0.0000000000000004
 31
0.0
210
0.0
220
0.0
230
1.0
 40
0.1086109036000947
 41
4.712388980384689
 42
6.283185307179586
  0
LINE
  5
24E
330
2
100
AcDbEntity
  8
AM_VIS
100
AcDbLine
 10
430.32014965574
 20
39.01896944846319
 30
0.0
 11
437.32014965574
 21
39.01896944846319
 31
0.0
  0
ELLIPSE
  5
24F
330
2
100
AcDbEntity
  8
AM_VIS
100
AcDbEllipse
 10
437.32014965574
 20
37.7699440570621
 30
0.0
 11
-11.5
 21
-0.0000000000000027
 31
0.0
210
0.0
220
0.0
230
1.0
 40
0.1086109036000947
 41
3.141592653589794
 42
4.712388980384689
  0
LINE
  5
250
330
2
100
AcDbEntity
  8
AM_VIS
100
AcDbLine
 10
398.82014965574
 20
-105.1232596025443
 30
0.0
 11
398.82014965574
 21
38.85605309306302
 31
0.0
  0
LINE
  5
251
330
2
100
AcDbEntity
  8
AM_VIS
100
AcDbLine
 10
408.82014965574
 20
38.85605309306304
 30
0.0
 11
408.8201496557401
 21
-105.1232596025443
 31
0.0
  0
LINE
  5
252
330
2
100
AcDbEntity
  8
AM_VIS
100
AcDbLine
 10
410.32014965574
 20
-105.1232596025442
 30
0.0
 11
417.3201496557401
 21
-105.1232596025442
 31
0.0
  0
LINE
  5
253
330
2
100
AcDbEntity
  8
AM_VIS
100
AcDbLine
 10
418.82014965574
 20
-105.1232596025442
 30
0.0
 11
418.8201496557399
 21
38.85605309306305
 31
0.0
  0
LINE
  5
254
330
2
100
AcDbEntity
  8
AM_VIS
100
AcDbLine
 10
428.82014965574
 20
38.85605309306304
 30
0.0
 11
428.82014965574
 21
-105.1232596025443
 31
0.0
  0
ELLIPSE
  5
255
330
2
100
AcDbEntity
  8
AM_VIS
100
AcDbEllipse
 10
390.32014965574
 20
-106.3722849939452
 30
0.0
 11
-11.5
 21
-0.0000000000000027
 31
0.0
210
0.0
220
0.0
230
1.0
 40
0.1086109036000948
 41
4.712388980384689
 42
6.283185307179588
  0
LINE
  5
256
330
2
100
AcDbEntity
  8
AM_VIS
100
AcDbLine
 10
378.82014965574
 20
37.76994405706209
 30
0.0
 11
378.8201496557401
 21
-106.3722849939452
 31
0.0
  0
LINE
  5
257
330
2
100
AcDbEntity
  8
AM_VIS
100
AcDbLine
 10
378.82014965574
 20
-106.3994377198453
 30
0.0
 11
378.82014965574
 21
-106.3722849939453
 31
0.0
  0
ELLIPSE
  5
258
330
2
100
AcDbEntity
  8
AM_VIS
100
AcDbEllipse
 10
437.32014965574
 20
-106.3722849939452
 30
0.0
 11
-11.5
 21
-0.0000000000000027
 31
0.0
210
0.0
220
0.0
230
1.0
 40
0.1086109036000947
 41
3.141592653589791
 42
4.712388980384689
  0
LINE
  5
259
330
2
100
AcDbEntity
  8
AM_VIS
100
AcDbLine
 10
448.82014965574
 20
-106.3722849939452
 30
0.0
 11
448.82014965574
 21
37.7699440570621
 31
0.0
  0
LINE
  5
25A
330
2
100
AcDbEntity
  8
AM_VIS
100
AcDbLine
 10
430.3201496557401
 20
-105.1232596025442
 30
0.0
 11
437.32014965574
 21
-105.1232596025442
 31
0.0
  0
LINE
  5
25B
330
2
100
AcDbEntity
  8
AM_VIS
100
AcDbLine
 10
390.32014965574
 20
-105.1232596025442
 30
0.0
 11
397.32014965574
 21
-105.1232596025442
 31
0.0
  0
LINE
  5
25C
330
2
100
AcDbEntity
  8
AM_VIS
100
AcDbLine
 10
448.82014965574
 20
-106.3722849939453
 30
0.0
 11
448.82014965574
 21
-106.3994377198453
 31
0.0
  0
LINE
  5
25D
330
2
100
AcDbEntity
  8
AM_VIS
100
AcDbLine
 10
383.5701496557401
 20
84.88039510458003
 30
0.0
 11
383.5701496557401
 21
92.64067142978069
 31
0.0
  0
LINE
  5
25E
330
2
100
AcDbEntity
  8
AM_VIS
100
AcDbLine
 10
383.5701496557401
 20
92.64067142978069
 30
0.0
 11
383.5701496557401
 21
98.88039510458003
 31
0.0
  0
LINE
  5
25F
330
2
100
AcDbEntity
  8
AM_VIS
100
AcDbLine
 10
383.5701496557401
 20
98.88039510458005
 30
0.0
 11
383.8201496557399
 21
99.1303951045799
 31
0.0
  0
LINE
  5
260
330
2
100
AcDbEntity
  8
AM_VIS
100
AcDbLine
 10
383.5701496557401
 20
84.88039510458005
 30
0.0
 11
383.82014965574
 21
84.6303951045802
 31
0.0
  0
LINE
  5
261
330
2
100
AcDbEntity
  8
AM_VIS
100
AcDbLine
 10
383.82014965574
 20
68.96669670641805
 30
0.0
 11
383.82014965574
 21
68.60990770166286
 31
0.0
  0
LINE
  5
262
330
2
100
AcDbEntity
  8
AM_VIS
100
AcDbLine
 10
443.8201496557399
 20
68.60990770166285
 30
0.0
 11
443.8201496557399
 21
68.96669670641803
 31
0.0
  0
LINE
  5
263
330
2
100
AcDbEntity
  8
AM_VIS
100
AcDbLine
 10
397.82014965574
 20
79.77642731804277
 30
0.0
 11
397.82014965574
 21
93.29233685138126
 31
0.0
  0
LINE
  5
264
330
2
100
AcDbEntity
  8
AM_VIS
100
AcDbLine
 10
383.82014965574
 20
79.2906640722919
 30
0.0
 11
383.82014965574
 21
93.29233685138126
 31
0.0
  0
LINE
  5
265
330
2
100
AcDbEntity
  8
AM_VIS
100
AcDbLine
 10
429.82014965574
 20
93.29233685138126
 30
0.0
 11
429.82014965574
 21
79.77642731804275
 31
0.0
  0
LINE
  5
266
330
2
100
AcDbEntity
  8
AM_VIS
100
AcDbLine
 10
429.82014965574
 20
93.29233685138126
 30
0.0
 11
429.82014965574
 21
103.7843778896142
 31
0.0
  0
LINE
  5
267
330
2
100
AcDbEntity
  8
AM_VIS
100
AcDbLine
 10
397.82014965574
 20
104.88039510458
 30
0.0
 11
397.82014965574
 21
93.29233685138126
 31
0.0
  0
LINE
  5
268
330
2
100
AcDbEntity
  8
AM_VIS
100
AcDbLine
 10
443.8201496557399
 20
93.29233685138126
 30
0.0
 11
443.8201496557399
 21
79.68896502599761
 31
0.0
  0
LINE
  5
269
330
2
100
AcDbEntity
  8
AM_VIS
100
AcDbLine
 10
383.82014965574
 20
104.88039510458
 30
0.0
 11
383.82014965574
 21
93.29233685138126
 31
0.0
  0
LINE
  5
26A
330
2
100
AcDbEntity
  8
AM_VIS
100
AcDbLine
 10
443.8201496557399
 20
93.29233685138126
 30
0.0
 11
443.8201496557399
 21
104.88039510458
 31
0.0
  0
LINE
  5
26B
330
2
100
AcDbEntity
  8
AM_VIS
100
AcDbLine
 10
383.82014965574
 20
104.88039510458
 30
0.0
 11
397.82014965574
 21
104.88039510458
 31
0.0
  0
LINE
  5
26C
330
2
100
AcDbEntity
  8
AM_VIS
100
AcDbLine
 10
431.2285491516219
 20
104.88039510458
 30
0.0
 11
443.8201496557399
 21
104.88039510458
 31
0.0
  0
LINE
  5
26D
330
2
100
AcDbEntity
  8
AM_VIS
100
AcDbLine
 10
-167.124474873313
 20
214.18039510458
 30
0.0
 11
-167.124474873313
 21
216.7303951046098
 31
0.0
  0
LINE
  5
26E
330
2
100
AcDbEntity
  8
AM_VIS
100
AcDbLine
 10
-172.124474873313
 20
223.18039510458
 30
0.0
 11
-167.124474873313
 21
223.18039510458
 31
0.0
  0
LINE
  5
26F
330
2
100
AcDbEntity
  8
AM_VIS
100
AcDbLine
 10
-172.124474873313
 20
214.18039510458
 30
0.0
 11
-172.124474873313
 21
223.18039510458
 31
0.0
  0
ELLIPSE
  5
270
330
2
100
AcDbEntity
  8
AM_VIS
100
AcDbEllipse
 10
-139.979474873313
 20
115.2914342505635
 30
0.0
 11
14.34
 21
-0.0000000000000032
 31
0.0
210
0.0
220
0.0
230
1.0
 40
0.4226182617406992
 41
0.0
 42
0.4970149420532675
  0
ELLIPSE
  5
271
330
2
100
AcDbEntity
  8
AM_VIS
100
AcDbEllipse
 10
-139.979474873313
 20
92.27121645983265
 30
0.0
 11
14.34
 21
-0.0000000000000032
 31
0.0
210
0.0
220
0.0
230
1.0
 40
0.4226182617406992
 41
0.0
 42
0.6503089693192911
  0
LINE
  5
272
330
2
100
AcDbEntity
  8
AM_VIS
100
AcDbLine
 10
-125.639474873313
 20
92.27121645983265
 30
0.0
 11
-125.639474873313
 21
115.2914342505635
 31
0.0
  0
ELLIPSE
  5
273
330
2
100
AcDbEntity
  8
AM_VIS
100
AcDbEllipse
 10
-184.799474873313
 20
115.2914342505635
 30
0.0
 11
14.34
 21
-0.0000000000000032
 31
0.0
210
0.0
220
0.0
230
1.0
 40
0.4226182617406992
 41
2.640207646641456
 42
3.141592653589794
  0
LINE
  5
274
330
2
100
AcDbEntity
  8
AM_VIS
100
AcDbLine
 10
-199.139474873313
 20
115.2914342505635
 30
0.0
 11
-199.139474873313
 21
92.27121645983267
 31
0.0
  0
ELLIPSE
  5
275
330
2
100
AcDbEntity
  8
AM_VIS
100
AcDbEllipse
 10
-184.799474873313
 20
92.27121645983269
 30
0.0
 11
14.34
 21
-0.0000000000000032
 31
0.0
210
0.0
220
0.0
230
1.0
 40
0.4226182617406992
 41
2.488936845609573
 42
3.141592653589794
  0
LINE
  5
276
330
2
100
AcDbEntity
  8
AM_VIS
100
AcDbLine
 10
-199.139474873313
 20
82.30512104725249
 30
0.0
 11
-199.139474873313
 21
92.27121645983269
 31
0.0
  0
ELLIPSE
  5
277
330
2
100
AcDbEntity
  8
AM_VIS
100
AcDbEllipse
 10
-184.799474873313
 20
92.27121645983269
 30
0.0
 11
7.999999999999998
 21
-0.0000000000000018
 31
0.0
210
0.0
220
0.0
230
1.0
 40
0.4226182617406992
 41
2.541537865068736
 42
3.141592653589792
  0
ELLIPSE
  5
278
330
2
100
AcDbEntity
  8
AM_VIS
100
AcDbEllipse
 10
-139.299474873313
 20
92.27121645983265
 30
0.0
 11
7.999999999999999
 21
-0.0000000000000018
 31
0.0
210
0.0
220
0.0
230
1.0
 40
0.4226182617406992
 41
-0.0000000000000002
 42
0.6000547885210628
  0
LINE
  5
279
330
2
100
AcDbEntity
  8
AM_VIS
100
AcDbLine
 10
-192.799474873313
 20
80.37028620921459
 30
0.0
 11
-192.799474873313
 21
92.27121645983267
 31
0.0
  0
LINE
  5
27A
330
2
100
AcDbEntity
  8
AM_VIS
100
AcDbLine
 10
-192.799474873313
 20
80.37028620921459
 30
0.0
 11
-192.799474873313
 21
79.18039510458005
 31
0.0
  0
LINE
  5
27B
330
2
100
AcDbEntity
  8
AM_VIS
100
AcDbLine
 10
-131.299474873313
 20
79.18039510458003
 30
0.0
 11
-131.299474873313
 21
80.37028620921457
 31
0.0
  0
LINE
  5
27C
330
2
100
AcDbEntity
  8
AM_VIS
100
AcDbLine
 10
-131.299474873313
 20
92.27121645983265
 30
0.0
 11
-131.299474873313
 21
80.37028620921457
 31
0.0
  0
LINE
  5
27D
330
2
100
AcDbEntity
  8
AM_VIS
100
AcDbLine
 10
-125.639474873313
 20
82.30512104725253
 30
0.0
 11
-125.639474873313
 21
92.27121645983265
 31
0.0
  0
LINE
  5
27E
330
2
100
AcDbEntity
  8
AM_VIS
100
AcDbLine
 10
-199.139474873313
 20
79.18039510458005
 30
0.0
 11
-192.799474873313
 21
79.18039510458005
 31
0.0
  0
LINE
  5
27F
330
2
100
AcDbEntity
  8
AM_VIS
100
AcDbLine
 10
-131.299474873313
 20
79.18039510458001
 30
0.0
 11
-125.639474873313
 21
79.18039510458001
 31
0.0
  0
LINE
  5
280
330
2
100
AcDbEntity
  8
AM_VIS
100
AcDbLine
 10
-151.874474873313
 20
214.18039510458
 30
0.0
 11
-151.874474873313
 21
223.18039510458
 31
0.0
  0
LINE
  5
281
330
2
100
AcDbEntity
  8
AM_VIS
100
AcDbLine
 10
-156.874474873313
 20
223.18039510458
 30
0.0
 11
-151.874474873313
 21
223.18039510458
 31
0.0
  0
LINE
  5
282
330
2
100
AcDbEntity
  8
AM_VIS
100
AcDbLine
 10
-156.874474873313
 20
214.18039510458
 30
0.0
 11
-156.874474873313
 21
223.18039510458
 31
0.0
  0
LINE
  5
283
330
2
100
AcDbEntity
  8
AM_VIS
100
AcDbLine
 10
-156.874474873313
 20
223.18039510458
 30
0.0
 11
-156.874474873313
 21
224.8503951045831
 31
0.0
  0
CIRCLE
  5
284
330
2
100
AcDbEntity
  8
AM_VIS
100
AcDbCircle
 10
-187.374474873313
 20
189.18039510458
 30
0.0
 40
4.15
  0
CIRCLE
  5
285
330
2
100
AcDbEntity
  8
AM_VIS
100
AcDbCircle
 10
-187.374474873313
 20
104.1803951045799
 30
0.0
 40
4.15
  0
CIRCLE
  5
286
330
2
100
AcDbEntity
  8
AM_VIS
100
AcDbCircle
 10
-137.374474873313
 20
189.18039510458
 30
0.0
 40
4.15
  0
CIRCLE
  5
287
330
2
100
AcDbEntity
  8
AM_VIS
100
AcDbCircle
 10
-137.374474873313
 20
104.18039510458
 30
0.0
 40
4.15
  0
LINE
  5
288
330
2
100
AcDbEntity
  8
AM_VIS
100
AcDbLine
 10
-132.374474873313
 20
214.18039510458
 30
0.0
 11
-192.374474873313
 21
214.18039510458
 31
0.0
  0
ARC
  5
289
330
2
100
AcDbEntity
  8
AM_VIS
100
AcDbCircle
 10
-192.374474873313
 20
209.1803951045799
 30
0.0
 40
5.0
100
AcDbArc
 50
90.0
 51
180.0
  0
LINE
  5
28A
330
2
100
AcDbEntity
  8
AM_VIS
100
AcDbLine
 10
-197.374474873313
 20
209.1803951045799
 30
0.0
 11
-197.3744748733129
 21
99.18039510458001
 31
0.0
  0
ARC
  5
28B
330
2
100
AcDbEntity
  8
AM_VIS
100
AcDbCircle
 10
-192.3744748733129
 20
99.18039510458001
 30
0.0
 40
5.0
100
AcDbArc
 50
180.0
 51
270.0
  0
LINE
  5
28C
330
2
100
AcDbEntity
  8
AM_VIS
100
AcDbLine
 10
-192.3744748733129
 20
94.18039510458001
 30
0.0
 11
-132.3744748733129
 21
94.18039510458003
 31
0.0
  0
ARC
  5
28D
330
2
100
AcDbEntity
  8
AM_VIS
100
AcDbCircle
 10
-132.3744748733129
 20
99.18039510458001
 30
0.0
 40
5.0
100
AcDbArc
 50
270.0
 51
0.0
  0
LINE
  5
28E
330
2
100
AcDbEntity
  8
AM_VIS
100
AcDbLine
 10
-127.374474873313
 20
99.18039510458003
 30
0.0
 11
-127.374474873313
 21
209.1803951045799
 31
0.0
  0
ARC
  5
28F
330
2
100
AcDbEntity
  8
AM_VIS
100
AcDbCircle
 10
-132.374474873313
 20
209.1803951045799
 30
0.0
 40
5.0
100
AcDbArc
 50
0.0
 51
90.0
  0
LINE
  5
290
330
2
100
AcDbEntity
  8
AM_VIS
100
AcDbLine
 10
-156.874474873313
 20
274.1706277054104
 30
0.0
 11
-156.874474873313
 21
263.2146133562002
 31
0.0
  0
LINE
  5
291
330
2
100
AcDbEntity
  8
AM_VIS
100
AcDbLine
 10
-156.874474873313
 20
234.294380755373
 30
0.0
 11
-156.874474873313
 21
224.8503951045831
 31
0.0
  0
LINE
  5
292
330
2
100
AcDbEntity
  8
AM_VIS
100
AcDbLine
 10
-156.874474873313
 20
234.294380755373
 30
0.0
 11
-156.874474873313
 21
263.2146133562001
 31
0.0
  0
LINE
  5
293
330
2
100
AcDbEntity
  8
AM_VIS
100
AcDbLine
 10
-156.874474873313
 20
274.1706277054102
 30
0.0
 11
-151.874474873313
 21
274.1706277054102
 31
0.0
  0
LINE
  5
294
330
2
100
AcDbEntity
  8
AM_VIS
100
AcDbLine
 10
-156.874474873313
 20
224.8503951045831
 30
0.0
 11
-151.874474873313
 21
224.8503951045831
 31
0.0
  0
LINE
  5
295
330
2
100
AcDbEntity
  8
AM_VIS
100
AcDbLine
 10
-166.874474873313
 20
263.2146133561963
 30
0.0
 11
-166.874474873313
 21
274.1706277054096
 31
0.0
  0
LINE
  5
296
330
2
100
AcDbEntity
  8
AM_VIS
100
AcDbLine
 10
-166.874474873313
 20
263.2146133561963
 30
0.0
 11
-166.874474873313
 21
245.9913955083703
 31
0.0
  0
LINE
  5
297
330
2
100
AcDbEntity
  8
AM_VIS
100
AcDbLine
 10
-166.874474873313
 20
274.1706277054097
 30
0.0
 11
-171.874474873313
 21
274.1706277054097
 31
0.0
  0
LINE
  5
298
330
2
100
AcDbEntity
  8
AM_VIS
100
AcDbLine
 10
-167.124474873313
 20
224.8503951045832
 30
0.0
 11
-171.874474873313
 21
224.8503951045832
 31
0.0
  0
LINE
  5
299
330
2
100
AcDbEntity
  8
AM_VIS
100
AcDbLine
 10
-157.124474873313
 20
214.18039510458
 30
0.0
 11
-157.124474873313
 21
216.7303951046099
 31
0.0
  0
LINE
  5
29A
330
2
100
AcDbEntity
  8
AM_VIS
100
AcDbLine
 10
-167.124474873313
 20
216.7303951046098
 30
0.0
 11
-157.124474873313
 21
216.7303951046098
 31
0.0
  0
LINE
  5
29B
330
2
100
AcDbEntity
  8
AM_VIS
100
AcDbLine
 10
-157.124474873313
 20
216.7303951046098
 30
0.0
 11
-157.124474873313
 21
238.7303951046098
 31
0.0
  0
LINE
  5
29C
330
2
100
AcDbEntity
  8
AM_VIS
100
AcDbLine
 10
-167.124474873313
 20
238.7303951046098
 30
0.0
 11
-157.124474873313
 21
238.7303951046098
 31
0.0
  0
LINE
  5
29D
330
2
100
AcDbEntity
  8
AM_VIS
100
AcDbLine
 10
-167.124474873313
 20
238.7303951046098
 30
0.0
 11
-167.124474873313
 21
216.7303951046098
 31
0.0
  0
LINE
  5
29E
330
2
100
AcDbEntity
  8
AM_VIS
100
AcDbLine
 10
-157.124474873313
 20
238.7303951046098
 30
0.0
 11
-157.124474873313
 21
246.5582828659459
 31
0.0
  0
LINE
  5
29F
330
2
100
AcDbEntity
  8
AM_VIS
100
AcDbLine
 10
-167.124474873313
 20
245.9913955083703
 30
0.0
 11
-167.124474873313
 21
238.7303951046098
 31
0.0
  0
LINE
  5
2A0
330
2
100
AcDbEntity
  8
AM_VIS
100
AcDbLine
 10
-157.124474873313
 20
246.7303951046098
 30
0.0
 11
-157.124474873313
 21
246.5582828659458
 31
0.0
  0
LINE
  5
2A1
330
2
100
AcDbEntity
  8
AM_VIS
100
AcDbLine
 10
-166.874474873313
 20
246.7303951046098
 30
0.0
 11
-157.124474873313
 21
246.7303951046098
 31
0.0
  0
ELLIPSE
  5
2A2
330
2
100
AcDbEntity
  8
AM_VIS
100
AcDbEllipse
 10
-178.3494748733129
 20
76.33405081462503
 30
0.0
 11
-1.489033850253018
 21
1.489033850253023
 31
0.0
210
0.0
220
0.0
230
1.0
 40
0.8966936325946782
 41
0.7309853733364673
 42
2.301781700131363
  0
ELLIPSE
  5
2A3
330
2
100
AcDbEntity
  8
AM_VIS
100
AcDbEllipse
 10
-194.6994748733128
 20
76.33405081462503
 30
0.0
 11
1.48903385025302
 21
1.489033850253021
 31
0.0
210
0.0
220
0.0
230
1.0
 40
0.8966936325946784
 41
3.981403607048223
 42
5.55219993384312
  0
ELLIPSE
  5
2A4
330
2
100
AcDbEntity
  8
AM_VIS
100
AcDbEllipse
 10
-194.6994748733128
 20
79.5923779226151
 30
0.0
 11
1.489033850253022
 21
-1.489033850253019
 31
0.0
210
0.0
220
0.0
230
1.0
 40
0.8966936325946782
 41
5.443374353721154
 42
7.01417068051605
  0
LINE
  5
2A5
330
2
100
AcDbEntity
  8
AM_VIS
100
AcDbLine
 10
-192.6994748733129
 20
90.46845335778433
 30
0.0
 11
-192.6994748733129
 21
76.55127262182435
 31
0.0
  0
LINE
  5
2A6
330
2
100
AcDbEntity
  8
AM_VIS
100
AcDbLine
 10
-192.6994748733129
 20
90.46845335778437
 30
0.0
 11
-192.6994748733129
 21
92.80411781120989
 31
0.0
  0
LINE
  5
2A7
330
2
100
AcDbEntity
  8
AM_VIS
100
AcDbLine
 10
-180.3494748733129
 20
90.46845335778433
 30
0.0
 11
-180.3494748733129
 21
76.55127262182435
 31
0.0
  0
LINE
  5
2A8
330
2
100
AcDbEntity
  8
AM_VIS
100
AcDbLine
 10
-180.3494748733129
 20
90.46845335778437
 30
0.0
 11
-180.3494748733129
 21
94.18039510458003
 31
0.0
  0
ELLIPSE
  5
2A9
330
2
100
AcDbEntity
  8
AM_VIS
100
AcDbEllipse
 10
-133.9994748733129
 20
76.33405081462504
 30
0.0
 11
-1.48903385025302
 21
1.489033850253022
 31
0.0
210
0.0
220
0.0
230
1.0
 40
0.8966936325946784
 41
0.7309853733364666
 42
2.301781700131362
  0
ELLIPSE
  5
2AA
330
2
100
AcDbEntity
  8
AM_VIS
100
AcDbEllipse
 10
-150.3494748733129
 20
76.33405081462504
 30
0.0
 11
-1.489033850253158
 21
-1.489033850252884
 31
0.0
210
0.0
220
0.0
230
0.9999999999999998
 40
0.8966936325946786
 41
0.839810953458539
 42
2.410607280253435
  0
LINE
  5
2AB
330
2
100
AcDbEntity
  8
AM_VIS
100
AcDbLine
 10
-135.999474873313
 20
76.55127262182438
 30
0.0
 11
-135.999474873313
 21
90.46845335778437
 31
0.0
  0
LINE
  5
2AC
330
2
100
AcDbEntity
  8
AM_VIS
100
AcDbLine
 10
-148.349474873313
 20
76.55127262182438
 30
0.0
 11
-148.349474873313
 21
90.46845335778437
 31
0.0
  0
LINE
  5
2AD
330
2
100
AcDbEntity
  8
AM_VIS
100
AcDbLine
 10
-148.349474873313
 20
94.18039510458005
 30
0.0
 11
-148.349474873313
 21
90.46845335778437
 31
0.0
  0
LINE
  5
2AE
330
2
100
AcDbEntity
  8
AM_VIS
100
AcDbLine
 10
-135.999474873313
 20
94.18039510458005
 30
0.0
 11
-135.999474873313
 21
90.46845335778437
 31
0.0
  0
ELLIPSE
  5
2AF
330
2
100
AcDbEntity
  8
AM_VIS
100
AcDbEllipse
 10
-141.0994748733129
 20
73.44984218336207
 30
0.0
 11
3.0
 21
0.0000000000000007
 31
0.0
210
0.0
220
0.0
230
1.0
 40
0.1086109035996688
 41
1.570796326794896
 42
7.853981633974482
  0
ELLIPSE
  5
2B0
330
2
100
AcDbEntity
  8
AM_VIS
100
AcDbEllipse
 10
-187.5994748733129
 20
73.44984218336205
 30
0.0
 11
3.0
 21
0.0000000000000007
 31
0.0
210
0.0
220
0.0
230
1.0
 40
0.1086109035996688
 41
1.570796326794896
 42
7.853981633974482
  0
ELLIPSE
  5
2B1
330
2
100
AcDbEntity
  8
AM_VIS
100
AcDbEllipse
 10
-187.5994748733129
 20
73.44984218336205
 30
0.0
 11
11.75
 21
0.0000000000000026
 31
0.0
210
0.0
220
0.0
230
1.0
 40
0.1086109035996688
 41
3.141592653589791
 42
4.712388980384689
  0
LINE
  5
2B2
330
2
100
AcDbEntity
  8
AM_VIS
100
AcDbLine
 10
-199.3494748733129
 20
73.44984218336205
 30
0.0
 11
-199.3494748733129
 21
63.50899880053349
 31
0.0
  0
ELLIPSE
  5
2B3
330
2
100
AcDbEntity
  8
AM_VIS
100
AcDbEllipse
 10
-187.5994748733129
 20
63.50899880053349
 30
0.0
 11
11.75
 21
0.0000000000000026
 31
0.0
210
0.0
220
0.0
230
1.0
 40
0.1086109035996688
 41
3.141592653589794
 42
4.712388980384689
  0
LINE
  5
2B4
330
2
100
AcDbEntity
  8
AM_VIS
100
AcDbLine
 10
-141.0994748733129
 20
62.23282068323739
 30
0.0
 11
-187.5994748733129
 21
62.23282068323738
 31
0.0
  0
LINE
  5
2B5
330
2
100
AcDbEntity
  8
AM_VIS
100
AcDbLine
 10
-141.0994748733129
 20
72.17366406606595
 30
0.0
 11
-187.5994748733129
 21
72.17366406606593
 31
0.0
  0
ELLIPSE
  5
2B6
330
2
100
AcDbEntity
  8
AM_VIS
100
AcDbEllipse
 10
-141.0994748733129
 20
63.5089988005335
 30
0.0
 11
11.75
 21
0.0000000000000026
 31
0.0
210
0.0
220
0.0
230
1.0
 40
0.1086109035996688
 41
4.712388980384689
 42
6.283185307179586
  0
ELLIPSE
  5
2B7
330
2
100
AcDbEntity
  8
AM_VIS
100
AcDbEllipse
 10
-187.5994748733129
 20
78.50024920074665
 30
0.0
 11
11.75
 21
0.0000000000000026
 31
0.0
210
0.0
220
0.0
230
1.0
 40
0.1086109035996688
 41
2.579503232570464
 42
2.952247295182156
  0
ELLIPSE
  5
2B8
330
2
100
AcDbEntity
  8
AM_VIS
100
AcDbEllipse
 10
-187.5994748733129
 20
78.50024920074665
 30
0.0
 11
11.75
 21
0.0000000000000026
 31
0.0
210
0.0
220
0.0
230
1.0
 40
0.1086109035996688
 41
2.019771555114456
 42
2.029240191947501
  0
ELLIPSE
  5
2B9
330
2
100
AcDbEntity
  8
AM_VIS
100
AcDbEllipse
 10
-141.0994748733129
 20
78.50024920074665
 30
0.0
 11
11.75
 21
0.0000000000000026
 31
0.0
210
0.0
220
0.0
230
1.0
 40
0.1086109035996688
 41
0.5844012728610318
 42
0.6679284559572596
  0
ELLIPSE
  5
2BA
330
2
100
AcDbEntity
  8
AM_VIS
100
AcDbEllipse
 10
-141.0994748733129
 20
78.50024920074665
 30
0.0
 11
11.75
 21
0.0000000000000026
 31
0.0
210
0.0
220
0.0
230
1.0
 40
0.1086109035996688
 41
0.0
 42
0.5620894210193124
  0
ELLIPSE
  5
2BB
330
2
100
AcDbEntity
  8
AM_VIS
100
AcDbEllipse
 10
-141.0994748733129
 20
73.44984218336207
 30
0.0
 11
11.75
 21
0.0000000000000026
 31
0.0
210
0.0
220
0.0
230
1.0
 40
0.1086109035996688
 41
4.712388980384689
 42
6.283185307179586
  0
LINE
  5
2BC
330
2
100
AcDbEntity
  8
AM_VIS
100
AcDbLine
 10
-129.3494748733129
 20
63.50899880053351
 30
0.0
 11
-129.3494748733129
 21
73.44984218336207
 31
0.0
  0
LINE
  5
2BD
330
2
100
AcDbEntity
  8
AM_VIS
100
AcDbLine
 10
-199.3494748733129
 20
73.44984218336205
 30
0.0
 11
-199.3494748733129
 21
78.38039510457999
 31
0.0
  0
LINE
  5
2BE
330
2
100
AcDbEntity
  8
AM_VIS
100
AcDbLine
 10
-129.3494748733129
 20
78.50024920074665
 30
0.0
 11
-129.3494748733129
 21
73.44984218336205
 31
0.0
  0
LINE
  5
2BF
330
2
100
AcDbEntity
  8
AM_VIS
100
AcDbLine
 10
-149.349474873313
 20
90.88631076629718
 30
0.0
 11
-149.349474873313
 21
94.18039510458005
 31
0.0
  0
SPLINE
  5
2C0
330
2
100
AcDbEntity
  8
AM_VIS
100
AcDbSpline
210
0.0
220
0.0
230
1.0
 70
    12
 71
     2
 72
     6
 73
     3
 74
     0
 42
0.0000000001
 43
0.0000000001
 40
0.0
 40
0.0
 40
0.0
 40
4.489346956745006
 40
4.489346956745006
 40
4.489346956745006
 10
-119.9104034550221
 20
103.350493700572
 30
0.0
 41
1.0
 10
-119.3044944166141
 20
103.5383337923696
 30
0.0
 41
1.01528023573722
 10
-119.139474873313
 20
103.7075237156442
 30
0.0
 41
1.0
  0
LINE
  5
2C1
330
2
100
AcDbEntity
  8
AM_VIS
100
AcDbLine
 10
-119.9104034550221
 20
102.5075311816125
 30
0.0
 11
-119.9104034550221
 21
103.350493700572
 31
0.0
  0
SPLINE
  5
2C2
330
2
100
AcDbEntity
  8
AM_VIS
100
AcDbSpline
210
0.0
220
0.0
230
1.0
 70
    12
 71
     2
 72
     6
 73
     3
 74
     0
 42
0.0000000001
 43
0.0000000001
 40
0.0
 40
0.0
 40
0.0
 40
4.489200933507459
 40
4.489200933507459
 40
4.489200933507459
 10
-119.139474873313
 20
98.51540560951505
 30
0.0
 41
1.0
 10
-119.3045091556025
 20
100.4072001106275
 30
0.0
 41
1.015279190562461
 10
-119.9104034550221
 20
102.5075311816125
 30
0.0
 41
1.0
  0
LINE
  5
2C3
330
2
100
AcDbEntity
  8
AM_VIS
100
AcDbLine
 10
-119.139474873313
 20
98.51540560951512
 30
0.0
 11
-119.139474873313
 21
103.7075237156442
 31
0.0
  0
SPLINE
  5
2C4
330
2
100
AcDbEntity
  8
AM_VIS
100
AcDbSpline
210
0.0
220
0.0
230
1.0
 70
    12
 71
     2
 72
     6
 73
     3
 74
     0
 42
0.0000000001
 43
0.0000000001
 40
0.0
 40
0.0
 40
0.0
 40
4.489200933507414
 40
4.489200933507414
 40
4.489200933507414
 10
-119.9104034550221
 20
91.53440577801234
 30
0.0
 41
1.0
 10
-119.3045091556025
 20
93.63473684899739
 30
0.0
 41
1.015279190563105
 10
-119.139474873313
 20
95.52653135010983
 30
0.0
 41
1.0
  0
LINE
  5
2C5
330
2
100
AcDbEntity
  8
AM_VIS
100
AcDbLine
 10
-119.9104034550221
 20
90.05610748343016
 30
0.0
 11
-119.9104034550221
 21
91.53440577801234
 31
0.0
  0
SPLINE
  5
2C6
330
2
100
AcDbEntity
  8
AM_VIS
100
AcDbSpline
210
0.0
220
0.0
230
1.0
 70
    12
 71
     2
 72
     6
 73
     3
 74
     0
 42
0.0000000001
 43
0.0000000001
 40
0.0
 40
0.0
 40
0.0
 40
4.489259339835058
 40
4.489259339835058
 40
4.489259339835058
 10
-119.139474873313
 20
86.42095138183256
 30
0.0
 41
1.0
 10
-119.3045032603636
 20
88.14358465062383
 30
0.0
 41
1.015279608606588
 10
-119.9104034550221
 20
90.0561074834302
 30
0.0
 41
1.0
  0
LINE
  5
2C7
330
2
100
AcDbEntity
  8
AM_VIS
100
AcDbLine
 10
-119.139474873313
 20
86.42095138183275
 30
0.0
 11
-119.139474873313
 21
95.52653135010979
 31
0.0
  0
SPLINE
  5
2C8
330
2
100
AcDbEntity
  8
AM_VIS
100
AcDbSpline
210
0.0
220
0.0
230
1.0
 70
    12
 71
     2
 72
     6
 73
     3
 74
     0
 42
0.0000000001
 43
0.0000000001
 40
0.0
 40
0.0
 40
0.0
 40
4.489259339835054
 40
4.489259339835054
 40
4.489259339835054
 10
-119.9104034550221
 20
80.0643513694588
 30
0.0
 41
1.0
 10
-119.3045032603636
 20
81.97687420226509
 30
0.0
 41
1.015279608606679
 10
-119.139474873313
 20
83.69950747105642
 30
0.0
 41
1.0
  0
LINE
  5
2C9
330
2
100
AcDbEntity
  8
AM_VIS
100
AcDbLine
 10
-119.9104034550221
 20
79.42898191270145
 30
0.0
 11
-119.9104034550221
 21
80.0643513694588
 31
0.0
  0
SPLINE
  5
2CA
330
2
100
AcDbEntity
  8
AM_VIS
100
AcDbSpline
210
0.0
220
0.0
230
1.0
 70
    12
 71
     2
 72
     6
 73
     3
 74
     0
 42
0.0000000001
 43
0.0000000001
 40
0.0
 40
0.0
 40
0.0
 40
4.489288544457886
 40
4.489288544457886
 40
4.489288544457886
 10
-119.139474873313
 20
79.78600715322861
 30
0.0
 41
1.0
 10
-119.3045003125684
 20
79.61681949252263
 30
0.0
 41
1.015279817641361
 10
-119.9104034550221
 20
79.42898191270143
 30
0.0
 41
1.0
  0
LINE
  5
2CB
330
2
100
AcDbEntity
  8
AM_VIS
100
AcDbLine
 10
-119.139474873313
 20
79.78600715322861
 30
0.0
 11
-119.139474873313
 21
83.69950747105626
 31
0.0
  0
SPLINE
  5
2CC
330
2
100
AcDbEntity
  8
AM_VIS
100
AcDbSpline
210
0.0
220
0.0
230
1.0
 70
    12
 71
     2
 72
     6
 73
     3
 74
     0
 42
0.0000000001
 43
0.0000000001
 40
0.0
 40
0.0
 40
0.0
 40
4.489346956745006
 40
4.489346956745006
 40
4.489346956745006
 10
-119.139474873313
 20
103.9747876476992
 30
0.0
 41
1.0
 10
-119.3044944166141
 20
104.1439775709738
 30
0.0
 41
1.01528023573722
 10
-119.9104034550221
 20
104.3318176627714
 30
0.0
 41
1.0
  0
LINE
  5
2CD
330
2
100
AcDbEntity
  8
AM_VIS
100
AcDbLine
 10
-123.3104034550221
 20
103.350493700572
 30
0.0
 11
-119.9104034550221
 21
103.350493700572
 31
0.0
  0
LINE
  5
2CE
330
2
100
AcDbEntity
  8
AM_VIS
100
AcDbLine
 10
-123.3104034550221
 20
102.5075311816125
 30
0.0
 11
-123.3104034550221
 21
103.350493700572
 31
0.0
  0
LINE
  5
2CF
330
2
100
AcDbEntity
  8
AM_VIS
100
AcDbLine
 10
-119.9104034550221
 20
102.5075311816125
 30
0.0
 11
-123.3104034550221
 21
102.5075311816125
 31
0.0
  0
LINE
  5
2D0
330
2
100
AcDbEntity
  8
AM_VIS
100
AcDbLine
 10
-123.3104034550221
 20
91.53440577801234
 30
0.0
 11
-119.9104034550221
 21
91.53440577801234
 31
0.0
  0
LINE
  5
2D1
330
2
100
AcDbEntity
  8
AM_VIS
100
AcDbLine
 10
-123.3104034550221
 20
90.05610748343016
 30
0.0
 11
-123.3104034550221
 21
91.53440577801234
 31
0.0
  0
LINE
  5
2D2
330
2
100
AcDbEntity
  8
AM_VIS
100
AcDbLine
 10
-119.9104034550221
 20
90.05610748343016
 30
0.0
 11
-123.3104034550221
 21
90.05610748343016
 31
0.0
  0
LINE
  5
2D3
330
2
100
AcDbEntity
  8
AM_VIS
100
AcDbLine
 10
-123.3104034550221
 20
80.0643513694588
 30
0.0
 11
-119.9104034550221
 21
80.0643513694588
 31
0.0
  0
LINE
  5
2D4
330
2
100
AcDbEntity
  8
AM_VIS
100
AcDbLine
 10
-123.3104034550221
 20
79.42898191270145
 30
0.0
 11
-123.3104034550221
 21
80.0643513694588
 31
0.0
  0
LINE
  5
2D5
330
2
100
AcDbEntity
  8
AM_VIS
100
AcDbLine
 10
-119.9104034550221
 20
79.42898191270143
 30
0.0
 11
-123.3104034550221
 21
79.42898191270143
 31
0.0
  0
SPLINE
  5
2D6
330
2
100
AcDbEntity
  8
AM_VIS
100
AcDbSpline
210
0.0
220
0.0
230
1.0
 70
    12
 71
     2
 72
     6
 73
     3
 74
     0
 42
0.0000000001
 43
0.0000000001
 40
0.0
 40
0.0
 40
0.0
 40
5.590835352818166
 40
5.590835352818166
 40
5.590835352818166
 10
-124.139474873313
 20
103.7965290979766
 30
0.0
 41
1.0
 10
-124.0703558457997
 20
103.5860893391856
 30
0.0
 41
1.02435951945957
 10
-123.3104034550221
 20
103.350493700572
 30
0.0
 41
1.0
  0
SPLINE
  5
2D7
330
2
100
AcDbEntity
  8
AM_VIS
100
AcDbSpline
210
0.0
220
0.0
230
1.0
 70
    12
 71
     2
 72
     6
 73
     3
 74
     0
 42
0.0000000001
 43
0.0000000001
 40
0.0
 40
0.0
 40
0.0
 40
5.59028604994716
 40
5.59028604994716
 40
5.59028604994716
 10
-123.3104034550221
 20
102.5075311816125
 30
0.0
 41
1.0
 10
-124.0702867284884
 20
99.87339771788496
 30
0.0
 41
1.024354465647418
 10
-124.139474873313
 20
97.5205255934593
 30
0.0
 41
1.0
  0
SPLINE
  5
2D8
330
2
100
AcDbEntity
  8
AM_VIS
100
AcDbSpline
210
0.0
220
0.0
230
1.0
 70
    12
 71
     2
 72
     6
 73
     3
 74
     0
 42
0.0000000001
 43
0.0000000001
 40
0.0
 40
0.0
 40
0.0
 40
5.590286049947125
 40
5.590286049947125
 40
5.590286049947125
 10
-124.139474873313
 20
96.52141136616558
 30
0.0
 41
1.0
 10
-124.0702867284884
 20
94.16853924173997
 30
0.0
 41
1.02435446564768
 10
-123.3104034550221
 20
91.53440577801234
 30
0.0
 41
1.0
  0
SPLINE
  5
2D9
330
2
100
AcDbEntity
  8
AM_VIS
100
AcDbSpline
210
0.0
220
0.0
230
1.0
 70
    12
 71
     2
 72
     6
 73
     3
 74
     0
 42
0.0000000001
 43
0.0000000001
 40
0.0
 40
0.0
 40
0.0
 40
5.590505691017254
 40
5.590505691017254
 40
5.590505691017254
 10
-123.3104034550221
 20
90.05610748343025
 30
0.0
 41
1.0
 10
-124.0703143645359
 20
87.65745011682765
 30
0.0
 41
1.024356486367964
 10
-124.139474873313
 20
85.51491097382555
 30
0.0
 41
1.0
  0
SPLINE
  5
2DA
330
2
100
AcDbEntity
  8
AM_VIS
100
AcDbSpline
210
0.0
220
0.0
230
1.0
 70
    12
 71
     2
 72
     6
 73
     3
 74
     0
 42
0.0000000001
 43
0.0000000001
 40
0.0
 40
0.0
 40
0.0
 40
5.590505691017281
 40
5.590505691017281
 40
5.590505691017281
 10
-124.139474873313
 20
84.60554787906346
 30
0.0
 41
1.0
 10
-124.0703143645359
 20
82.46300873606136
 30
0.0
 41
1.024356486368125
 10
-123.3104034550221
 20
80.06435136945873
 30
0.0
 41
1.0
  0
SPLINE
  5
2DB
330
2
100
AcDbEntity
  8
AM_VIS
100
AcDbSpline
210
0.0
220
0.0
230
1.0
 70
    12
 71
     2
 72
     6
 73
     3
 74
     0
 42
0.0000000001
 43
0.0000000001
 40
0.0
 40
0.0
 40
0.0
 40
5.149708548744665
 40
5.149708548744665
 40
5.149708548744665
 10
-123.3104034550221
 20
79.42898191270143
 30
0.0
 41
1.0
 10
-124.0117114575583
 20
79.64639619672739
 30
0.0
 41
1.022436529580402
 10
-124.1240815751803
 20
79.84102694970111
 30
0.0
 41
1.0035389387512
  0
LINE
  5
2DC
330
2
100
AcDbEntity
  8
AM_VIS
100
AcDbLine
 10
-119.9104034550221
 20
104.3318176627713
 30
0.0
 11
-123.3104034550221
 21
104.3318176627713
 31
0.0
  0
SPLINE
  5
2DD
330
2
100
AcDbEntity
  8
AM_VIS
100
AcDbSpline
210
0.0
220
0.0
230
1.0
 70
    12
 71
     2
 72
     6
 73
     3
 74
     0
 42
0.0000000001
 43
0.0000000001
 40
0.0
 40
0.0
 40
0.0
 40
5.590835352818166
 40
5.590835352818166
 40
5.590835352818166
 10
-123.3104034550221
 20
104.3318176627713
 30
0.0
 41
1.0
 10
-124.0703558457997
 20
104.0962220241578
 30
0.0
 41
1.02435951945957
 10
-124.139474873313
 20
103.8857822653668
 30
0.0
 41
1.0
  0
LINE
  5
2DE
330
2
100
AcDbEntity
  8
AM_VIS
100
AcDbLine
 10
-119.139474873313
 20
103.9747876476992
 30
0.0
 11
-119.139474873313
 21
103.7075237156442
 31
0.0
  0
LINE
  5
2DF
330
2
100
AcDbEntity
  8
AM_VIS
100
AcDbLine
 10
-119.139474873313
 20
98.51540560951512
 30
0.0
 11
-119.139474873313
 21
95.52653135010983
 31
0.0
  0
LINE
  5
2E0
330
2
100
AcDbEntity
  8
AM_VIS
100
AcDbLine
 10
-119.139474873313
 20
86.42095138183274
 30
0.0
 11
-119.139474873313
 21
83.69950747105624
 31
0.0
  0
LINE
  5
2E1
330
2
100
AcDbEntity
  8
AM_VIS
100
AcDbLine
 10
-131.6244748733147
 20
85.88039510458003
 30
0.0
 11
-131.299474873313
 21
85.88039510458003
 31
0.0
  0
LINE
  5
2E2
330
2
100
AcDbEntity
  8
AM_VIS
100
AcDbLine
 10
-124.139474873313
 20
79.86768892416302
 30
0.0
 11
-124.1240815751803
 21
79.8410269497011
 31
0.0
  0
LINE
  5
2E3
330
2
100
AcDbEntity
  8
AM_VIS
100
AcDbLine
 10
-124.139474873313
 20
103.893101284997
 30
0.0
 11
-124.1240750934222
 21
103.9197744861933
 31
0.0
  0
SPLINE
  5
2E4
330
2
100
AcDbEntity
  8
AM_VIS
100
AcDbSpline
210
0.0
220
0.0
230
1.0
 70
    12
 71
     2
 72
     6
 73
     3
 74
     0
 42
0.0000000001
 43
0.0000000001
 40
0.0
 40
0.0
 40
0.0
 40
4.489346956745006
 40
4.489346956745006
 40
4.489346956745006
 10
-204.8685462916038
 20
79.42897254638868
 30
0.0
 41
1.0
 10
-205.4744553300118
 20
79.61681263818627
 30
0.0
 41
1.01528023573722
 10
-205.639474873313
 20
79.7860025614608
 30
0.0
 41
1.0
  0
LINE
  5
2E5
330
2
100
AcDbEntity
  8
AM_VIS
100
AcDbLine
 10
-204.8685462916039
 20
80.06433953331645
 30
0.0
 11
-204.8685462916039
 21
79.42897254638868
 31
0.0
  0
SPLINE
  5
2E6
330
2
100
AcDbEntity
  8
AM_VIS
100
AcDbSpline
210
0.0
220
0.0
230
1.0
 70
    12
 71
     2
 72
     6
 73
     3
 74
     0
 42
0.0000000001
 43
0.0000000001
 40
0.0
 40
0.0
 40
0.0
 40
4.489200933507459
 40
4.489200933507459
 40
4.489200933507459
 10
-205.639474873313
 20
83.69944702609728
 30
0.0
 41
1.0
 10
-205.4744405910235
 20
81.97683679212548
 30
0.0
 41
1.015279190562461
 10
-204.8685462916039
 20
80.06433953331645
 30
0.0
 41
1.0
  0
LINE
  5
2E7
330
2
100
AcDbEntity
  8
AM_VIS
100
AcDbLine
 10
-205.639474873313
 20
83.69944702609725
 30
0.0
 11
-205.639474873313
 21
79.78600256146079
 31
0.0
  0
SPLINE
  5
2E8
330
2
100
AcDbEntity
  8
AM_VIS
100
AcDbSpline
210
0.0
220
0.0
230
1.0
 70
    12
 71
     2
 72
     6
 73
     3
 74
     0
 42
0.0000000001
 43
0.0000000001
 40
0.0
 40
0.0
 40
0.0
 40
4.489200933507414
 40
4.489200933507414
 40
4.489200933507414
 10
-204.8685462916039
 20
90.05613203920521
 30
0.0
 41
1.0
 10
-205.4744405910235
 20
88.14363478039613
 30
0.0
 41
1.015279190563105
 10
-205.639474873313
 20
86.42102454642444
 30
0.0
 41
1.0
  0
LINE
  5
2E9
330
2
100
AcDbEntity
  8
AM_VIS
100
AcDbLine
 10
-204.8685462916039
 20
91.53443055466516
 30
0.0
 11
-204.8685462916039
 21
90.05613203920519
 31
0.0
  0
SPLINE
  5
2EA
330
2
100
AcDbEntity
  8
AM_VIS
100
AcDbSpline
210
0.0
220
0.0
230
1.0
 70
    12
 71
     2
 72
     6
 73
     3
 74
     0
 42
0.0000000001
 43
0.0000000001
 40
0.0
 40
0.0
 40
0.0
 40
4.489259339835058
 40
4.489259339835058
 40
4.489259339835058
 10
-205.639474873313
 20
95.52660950964087
 30
0.0
 41
1.0
 10
-205.4744464862624
 20
93.63478971136942
 30
0.0
 41
1.015279608606588
 10
-204.8685462916039
 20
91.53443055466514
 30
0.0
 41
1.0
  0
LINE
  5
2EB
330
2
100
AcDbEntity
  8
AM_VIS
100
AcDbLine
 10
-205.639474873313
 20
95.52660950964067
 30
0.0
 11
-205.639474873313
 21
86.42102454642445
 31
0.0
  0
SPLINE
  5
2EC
330
2
100
AcDbEntity
  8
AM_VIS
100
AcDbSpline
210
0.0
220
0.0
230
1.0
 70
    12
 71
     2
 72
     6
 73
     3
 74
     0
 42
0.0000000001
 43
0.0000000001
 40
0.0
 40
0.0
 40
0.0
 40
4.489259339835054
 40
4.489259339835054
 40
4.489259339835054
 10
-204.8685462916039
 20
102.5075159921559
 30
0.0
 41
1.0
 10
-205.4744464862624
 20
100.4071568354516
 30
0.0
 41
1.015279608606679
 10
-205.639474873313
 20
98.51533703718022
 30
0.0
 41
1.0
  0
LINE
  5
2ED
330
2
100
AcDbEntity
  8
AM_VIS
100
AcDbLine
 10
-204.8685462916039
 20
103.3504807600401
 30
0.0
 11
-204.8685462916039
 21
102.5075159921559
 31
0.0
  0
SPLINE
  5
2EE
330
2
100
AcDbEntity
  8
AM_VIS
100
AcDbSpline
210
0.0
220
0.0
230
1.0
 70
    12
 71
     2
 72
     6
 73
     3
 74
     0
 42
0.0000000001
 43
0.0000000001
 40
0.0
 40
0.0
 40
0.0
 40
4.489288544457886
 40
4.489288544457886
 40
4.489288544457886
 10
-205.639474873313
 20
103.7075060005673
 30
0.0
 41
1.0
 10
-205.4744494340576
 20
103.5383183398613
 30
0.0
 41
1.015279817641361
 10
-204.8685462916039
 20
103.3504807600401
 30
0.0
 41
1.0
  0
LINE
  5
2EF
330
2
100
AcDbEntity
  8
AM_VIS
100
AcDbLine
 10
-205.639474873313
 20
103.7075060005673
 30
0.0
 11
-205.639474873313
 21
98.51533703718036
 31
0.0
  0
SPLINE
  5
2F0
330
2
100
AcDbEntity
  8
AM_VIS
100
AcDbSpline
210
0.0
220
0.0
230
1.0
 70
    12
 71
     2
 72
     6
 73
     3
 74
     0
 42
0.0000000001
 43
0.0000000001
 40
0.0
 40
0.0
 40
0.0
 40
4.489288544457886
 40
4.489288544457886
 40
4.489288544457886
 10
-204.8685462916039
 20
104.3318082964586
 30
0.0
 41
1.0
 10
-205.4744494340576
 20
104.1439707166373
 30
0.0
 41
1.015279817641361
 10
-205.639474873313
 20
103.9747830559314
 30
0.0
 41
1.0
  0
LINE
  5
2F1
330
2
100
AcDbEntity
  8
AM_VIS
100
AcDbLine
 10
-201.4685462916038
 20
79.42897254638871
 30
0.0
 11
-204.8685462916038
 21
79.42897254638871
 31
0.0
  0
LINE
  5
2F2
330
2
100
AcDbEntity
  8
AM_VIS
100
AcDbLine
 10
-201.4685462916038
 20
80.06433953331645
 30
0.0
 11
-201.4685462916038
 21
79.42897254638868
 31
0.0
  0
LINE
  5
2F3
330
2
100
AcDbEntity
  8
AM_VIS
100
AcDbLine
 10
-204.8685462916038
 20
80.06433953331649
 30
0.0
 11
-201.4685462916038
 21
80.06433953331649
 31
0.0
  0
LINE
  5
2F4
330
2
100
AcDbEntity
  8
AM_VIS
100
AcDbLine
 10
-201.4685462916038
 20
90.05613203920521
 30
0.0
 11
-204.8685462916038
 21
90.05613203920521
 31
0.0
  0
LINE
  5
2F5
330
2
100
AcDbEntity
  8
AM_VIS
100
AcDbLine
 10
-201.4685462916038
 20
91.53443055466516
 30
0.0
 11
-201.4685462916038
 21
90.05613203920519
 31
0.0
  0
LINE
  5
2F6
330
2
100
AcDbEntity
  8
AM_VIS
100
AcDbLine
 10
-204.8685462916038
 20
91.53443055466516
 30
0.0
 11
-201.4685462916038
 21
91.53443055466516
 31
0.0
  0
LINE
  5
2F7
330
2
100
AcDbEntity
  8
AM_VIS
100
AcDbLine
 10
-201.4685462916038
 20
102.5075159921559
 30
0.0
 11
-204.8685462916038
 21
102.5075159921559
 31
0.0
  0
LINE
  5
2F8
330
2
100
AcDbEntity
  8
AM_VIS
100
AcDbLine
 10
-201.4685462916038
 20
103.3504807600401
 30
0.0
 11
-201.4685462916038
 21
102.5075159921559
 31
0.0
  0
LINE
  5
2F9
330
2
100
AcDbEntity
  8
AM_VIS
100
AcDbLine
 10
-204.8685462916038
 20
103.3504807600401
 30
0.0
 11
-201.4685462916038
 21
103.3504807600401
 31
0.0
  0
LINE
  5
2FA
330
2
100
AcDbEntity
  8
AM_VIS
100
AcDbLine
 10
-201.4685462916038
 20
104.3318082964586
 30
0.0
 11
-204.8685462916038
 21
104.3318082964586
 31
0.0
  0
SPLINE
  5
2FB
330
2
100
AcDbEntity
  8
AM_VIS
100
AcDbSpline
210
0.0
220
0.0
230
1.0
 70
    12
 71
     2
 72
     6
 73
     3
 74
     0
 42
0.0000000001
 43
0.0000000001
 40
0.4411620408338241
 40
0.4411620408338241
 40
0.4411620408338241
 40
5.590835352818166
 40
5.590835352818166
 40
5.590835352818166
 10
-200.6548746532038
 20
79.84101572296667
 30
0.0
 41
1.003540977139602
 10
-200.7672443187536
 20
79.64638575300487
 30
0.0
 41
1.022437356734263
 10
-201.4685462916038
 20
79.42897254638871
 30
0.0
 41
1.0
  0
SPLINE
  5
2FC
330
2
100
AcDbEntity
  8
AM_VIS
100
AcDbSpline
210
0.0
220
0.0
230
1.0
 70
    12
 71
     2
 72
     6
 73
     3
 74
     0
 42
0.0000000001
 43
0.0000000001
 40
0.0
 40
0.0
 40
0.0
 40
5.59028604994716
 40
5.59028604994716
 40
5.59028604994716
 10
-201.4685462916038
 20
80.06433953331649
 30
0.0
 41
1.0
 10
-200.7086630181376
 20
82.46290093076018
 30
0.0
 41
1.024354465647418
 10
-200.639474873313
 20
84.60535435177343
 30
0.0
 41
1.0
  0
SPLINE
  5
2FD
330
2
100
AcDbEntity
  8
AM_VIS
100
AcDbSpline
210
0.0
220
0.0
230
1.0
 70
    12
 71
     2
 72
     6
 73
     3
 74
     0
 42
0.0000000001
 43
0.0000000001
 40
0.0
 40
0.0
 40
0.0
 40
5.590286049947125
 40
5.590286049947125
 40
5.590286049947125
 10
-200.639474873313
 20
85.51511722074829
 30
0.0
 41
1.0
 10
-200.7086630181376
 20
87.65757064176151
 30
0.0
 41
1.02435446564768
 10
-201.4685462916038
 20
90.05613203920521
 30
0.0
 41
1.0
  0
SPLINE
  5
2FE
330
2
100
AcDbEntity
  8
AM_VIS
100
AcDbSpline
210
0.0
220
0.0
230
1.0
 70
    12
 71
     2
 72
     6
 73
     3
 74
     0
 42
0.0000000001
 43
0.0000000001
 40
0.0
 40
0.0
 40
0.0
 40
5.590505691017254
 40
5.590505691017254
 40
5.590505691017254
 10
-201.4685462916038
 20
91.53443055466508
 30
0.0
 41
1.0
 10
-200.7086353820901
 20
94.16866941305688
 30
0.0
 41
1.024356486367964
 10
-200.639474873313
 20
96.52163567856206
 30
0.0
 41
1.0
  0
SPLINE
  5
2FF
330
2
100
AcDbEntity
  8
AM_VIS
100
AcDbSpline
210
0.0
220
0.0
230
1.0
 70
    12
 71
     2
 72
     6
 73
     3
 74
     0
 42
0.0000000001
 43
0.0000000001
 40
0.0
 40
0.0
 40
0.0
 40
5.590505691017281
 40
5.590505691017281
 40
5.590505691017281
 10
-200.639474873313
 20
97.52031086825894
 30
0.0
 41
1.0
 10
-200.7086353820901
 20
99.87327713376414
 30
0.0
 41
1.024356486368125
 10
-201.4685462916038
 20
102.5075159921559
 30
0.0
 41
1.0
  0
SPLINE
  5
300
330
2
100
AcDbEntity
  8
AM_VIS
100
AcDbSpline
210
0.0
220
0.0
230
1.0
 70
    12
 71
     2
 72
     6
 73
     3
 74
     0
 42
0.0000000001
 43
0.0000000001
 40
0.0
 40
0.0
 40
0.0
 40
5.59061555148098
 40
5.59061555148098
 40
5.59061555148098
 10
-201.4685462916038
 20
103.3504807600401
 30
0.0
 41
1.0
 10
-200.7086215586419
 20
103.5860669662905
 30
0.0
 41
1.024357497129432
 10
-200.639474873313
 20
103.7964982998651
 30
0.0
 41
1.0
  0
SPLINE
  5
301
330
2
100
AcDbEntity
  8
AM_VIS
100
AcDbSpline
210
0.0
220
0.0
230
1.0
 70
    12
 71
     2
 72
     6
 73
     3
 74
     0
 42
0.0000000001
 43
0.0000000001
 40
0.0
 40
0.0
 40
0.0
 40
5.59061555148098
 40
5.59061555148098
 40
5.59061555148098
 10
-200.639474873313
 20
103.8857907566336
 30
0.0
 41
1.0
 10
-200.7086215586419
 20
104.0962220902082
 30
0.0
 41
1.024357497129432
 10
-201.4685462916038
 20
104.3318082964586
 30
0.0
 41
1.0
  0
LINE
  5
302
330
2
100
AcDbEntity
  8
AM_VIS
100
AcDbLine
 10
-205.639474873313
 20
83.69944702609727
 30
0.0
 11
-205.639474873313
 21
86.42102454642445
 31
0.0
  0
LINE
  5
303
330
2
100
AcDbEntity
  8
AM_VIS
100
AcDbLine
 10
-205.639474873313
 20
95.52660950964067
 30
0.0
 11
-205.639474873313
 21
98.51533703718038
 31
0.0
  0
LINE
  5
304
330
2
100
AcDbEntity
  8
AM_VIS
100
AcDbLine
 10
-205.639474873313
 20
103.7075060005673
 30
0.0
 11
-205.639474873313
 21
103.9747830559314
 31
0.0
  0
LINE
  5
305
330
2
100
AcDbEntity
  8
AM_VIS
100
AcDbLine
 10
-192.6994748733129
 20
85.88039510458003
 30
0.0
 11
-192.799474873313
 21
85.88039510458003
 31
0.0
  0
LINE
  5
306
330
2
100
AcDbEntity
  8
AM_VIS
100
AcDbLine
 10
-200.639474873313
 20
79.86768892416299
 30
0.0
 11
-200.6548746532038
 21
79.84101572296667
 31
0.0
  0
LINE
  5
307
330
2
100
AcDbEntity
  8
AM_VIS
100
AcDbLine
 10
-200.639474873313
 20
103.893101284997
 30
0.0
 11
-200.6548681714456
 21
103.9197632594589
 31
0.0
  0
SPLINE
  5
308
330
2
100
AcDbEntity
  8
AM_VIS
100
AcDbSpline
210
0.0
220
0.0
230
1.0
 70
    12
 71
     2
 72
     6
 73
     3
 74
     0
 42
0.0000000001
 43
0.0000000001
 40
1.758602658732453
 40
1.758602658732453
 40
1.758602658732453
 40
9.96426167380382
 40
9.96426167380382
 40
9.96426167380382
 10
-144.655837849375
 20
264.6406226595302
 30
0.0
 41
1.087572144626077
 10
-144.1530608652227
 20
265.0183322297716
 30
0.0
 41
1.255820219371631
 10
-144.6558373805356
 20
265.3960417119594
 30
0.0
 41
1.087572280497931
  0
LINE
  5
309
330
2
100
AcDbEntity
  8
AM_VIS
100
AcDbLine
 10
-145.624474873313
 20
265.3960417119594
 30
0.0
 11
-144.6558373805356
 21
265.3960417119594
 31
0.0
  0
LINE
  5
30A
330
2
100
AcDbEntity
  8
AM_VIS
100
AcDbLine
 10
-145.624474873313
 20
264.6406226595302
 30
0.0
 11
-144.655837849375
 21
264.6406226595302
 31
0.0
  0
SPLINE
  5
30B
330
2
100
AcDbEntity
  8
AM_VIS
100
AcDbSpline
210
0.0
220
0.0
230
1.0
 70
    12
 71
     2
 72
     6
 73
     3
 74
     0
 42
0.0000000001
 43
0.0000000001
 40
6.633954809021112
 40
6.633954809021112
 40
6.633954809021112
 40
9.964264987121397
 40
9.964264987121397
 40
9.964264987121397
 10
-144.395289536795
 20
252.0181639032333
 30
0.0
 41
1.168713763271501
 10
-144.4341355729605
 20
251.8731885225909
 30
0.0
 41
1.155856517001498
 10
-144.655837849375
 20
251.706635410206
 30
0.0
 41
1.08757214462607
  0
LINE
  5
30C
330
2
100
AcDbEntity
  8
AM_VIS
100
AcDbLine
 10
-145.624474873313
 20
251.706635410206
 30
0.0
 11
-144.655837849375
 21
251.706635410206
 31
0.0
  0
SPLINE
  5
30D
330
2
100
AcDbEntity
  8
AM_VIS
100
AcDbSpline
210
0.0
220
0.0
230
1.0
 70
    12
 71
     2
 72
     6
 73
     3
 74
     0
 42
0.0000000001
 43
0.0000000001
 40
1.758603858690498
 40
1.758603858690498
 40
1.758603858690498
 40
9.964262000169098
 40
9.964262000169098
 40
9.964262000169098
 10
-144.655837849375
 20
251.706635410206
 30
0.0
 41
1.087572135151323
 10
-144.1530613047597
 20
254.7512772819842
 30
0.0
 41
1.255820017571921
 10
-144.6558380837947
 20
257.7959195086535
 30
0.0
 41
1.08757206721543
  0
LINE
  5
30E
330
2
100
AcDbEntity
  8
AM_VIS
100
AcDbLine
 10
-145.624474873313
 20
257.7959195086535
 30
0.0
 11
-144.6558380837947
 21
257.7959195086535
 31
0.0
  0
SPLINE
  5
30F
330
2
100
AcDbEntity
  8
AM_VIS
100
AcDbSpline
210
0.0
220
0.0
230
1.0
 70
    12
 71
     2
 72
     6
 73
     3
 74
     0
 42
0.0000000001
 43
0.0000000001
 40
1.758602202031911
 40
1.758602202031911
 40
1.758602202031911
 40
9.964260343510504
 40
9.964260343510504
 40
9.964260343510504
 10
-144.6558380837947
 20
257.7959195086535
 30
0.0
 41
1.08757206721543
 10
-144.1530613047596
 20
261.2182712835507
 30
0.0
 41
1.255820017571921
 10
-144.655837849375
 20
264.6406226595302
 30
0.0
 41
1.087572135151323
  0
LINE
  5
310
330
2
100
AcDbEntity
  8
AM_VIS
100
AcDbLine
 10
-143.9844765781806
 20
263.5513387371898
 30
0.0
 11
-143.9844765781806
 21
263.5259492176992
 31
0.0
  0
LINE
  5
311
330
2
100
AcDbEntity
  8
AM_VIS
100
AcDbLine
 10
-143.9844765781806
 20
263.5259492176992
 30
0.0
 11
-143.9844765781806
 21
253.5513387371899
 31
0.0
  0
LINE
  5
312
330
2
100
AcDbEntity
  8
AM_VIS
100
AcDbLine
 10
-143.9844765781806
 20
253.5513387371899
 30
0.0
 11
-144.395289536795
 21
252.0181639032333
 31
0.0
  0
LINE
  5
313
330
2
100
AcDbEntity
  8
AM_VIS
100
AcDbLine
 10
-143.9844765781806
 20
263.5513387371899
 30
0.0
 11
-144.3952895367949
 21
265.0845135711465
 31
0.0
  0
SPLINE
  5
314
330
2
100
AcDbEntity
  8
AM_VIS
100
AcDbSpline
210
0.0
220
0.0
230
1.0
 70
    12
 71
     2
 72
     6
 73
     3
 74
     0
 42
0.0000000001
 43
0.0000000001
 40
7.154515281176279
 40
7.154515281176279
 40
7.154515281176279
 40
7.435527342932229
 40
7.435527342932229
 40
7.435527342932229
 10
-156.874474873313
 20
219.4152493707726
 30
0.0
 41
1.078858230290153
 10
-157.0001428836208
 20
219.4308395088035
 30
0.0
 41
1.078527448372645
 10
-157.124474873313
 20
219.4456501399329
 30
0.0
 41
1.078049024991068
  0
ELLIPSE
  5
315
330
2
100
AcDbEntity
  8
AM_VIS
100
AcDbEllipse
 10
-161.8744748733129
 20
243.6400736629982
 30
0.0
 11
6.5
 21
-0.0000000000000015
 31
0.0
210
0.0
220
0.0
230
1.0
 40
0.1086109036000947
 41
5.531837124711652
 42
5.590025399602809
  0
ELLIPSE
  5
316
330
2
100
AcDbEntity
  8
AM_VIS
100
AcDbEllipse
 10
-161.8744748733129
 20
243.6400736629982
 30
0.0
 11
6.5
 21
-0.0000000000000015
 31
0.0
210
0.0
220
0.0
230
1.0
 40
0.1086109036000947
 41
0.6931599075767688
 42
0.7513481824679258
  0
LINE
  5
317
330
2
100
AcDbEntity
  8
AM_VIS
100
AcDbLine
 10
-156.874474873313
 20
242.5539646269973
 30
0.0
 11
-157.124474873313
 21
242.5539646269973
 31
0.0
  0
LINE
  5
318
330
2
100
AcDbEntity
  8
AM_VIS
100
AcDbLine
 10
-156.874474873313
 20
219.6900248464927
 30
0.0
 11
-157.124474873313
 21
219.6900248464927
 31
0.0
  0
ELLIPSE
  5
319
330
2
100
AcDbEntity
  8
AM_VIS
100
AcDbEllipse
 10
-161.874474873313
 20
275.8086995135578
 30
0.0
 11
10.0
 21
0.0
 31
0.0
210
0.0
220
0.0
230
1.0
 40
0.0375932192026205
 41
3.141592653589796
 42
6.283185307179586
  0
LINE
  5
31A
330
2
100
AcDbEntity
  8
AM_VIS
100
AcDbLine
 10
-171.874474873313
 20
275.90943024082
 30
0.0
 11
-178.124474873313
 21
275.5024717053262
 31
0.0
  0
LINE
  5
31B
330
2
100
AcDbEntity
  8
AM_VIS
100
AcDbLine
 10
-145.624474873313
 20
275.5024717053262
 30
0.0
 11
-151.874474873313
 21
275.90943024082
 31
0.0
  0
LINE
  5
31C
330
2
100
AcDbEntity
  8
AM_VIS
100
AcDbLine
 10
-151.874474873313
 20
263.5571022941817
 30
0.0
 11
-151.874474873313
 21
274.9628520814987
 31
0.0
  0
LINE
  5
31D
330
2
100
AcDbEntity
  8
AM_VIS
100
AcDbLine
 10
-151.874474873313
 20
275.3350249516047
 30
0.0
 11
-151.874474873313
 21
274.9628520814987
 31
0.0
  0
LINE
  5
31E
330
2
100
AcDbEntity
  8
AM_VIS
100
AcDbLine
 10
-151.874474873313
 20
263.5571022941817
 30
0.0
 11
-151.874474873313
 21
223.1803951045799
 31
0.0
  0
LINE
  5
31F
330
2
100
AcDbEntity
  8
AM_VIS
100
AcDbLine
 10
-156.874474873313
 20
244.4992659229487
 30
0.0
 11
-157.124474873313
 21
244.4992659229487
 31
0.0
  0
LINE
  5
320
330
2
100
AcDbEntity
  8
AM_VIS
100
AcDbLine
 10
-171.874474873313
 20
275.3350249516047
 30
0.0
 11
-151.874474873313
 21
275.3350249516047
 31
0.0
  0
LINE
  5
321
330
2
100
AcDbEntity
  8
AM_VIS
100
AcDbLine
 10
-171.874474873313
 20
274.9628520814987
 30
0.0
 11
-171.874474873313
 21
263.5571022941817
 31
0.0
  0
LINE
  5
322
330
2
100
AcDbEntity
  8
AM_VIS
100
AcDbLine
 10
-171.874474873313
 20
223.1803951045799
 30
0.0
 11
-171.874474873313
 21
263.5571022941817
 31
0.0
  0
LINE
  5
323
330
2
100
AcDbEntity
  8
AM_VIS
100
AcDbLine
 10
-171.874474873313
 20
274.9628520814988
 30
0.0
 11
-171.874474873313
 21
275.3350249516048
 31
0.0
  0
LINE
  5
324
330
2
100
AcDbEntity
  8
AM_VIS
100
AcDbLine
 10
-178.124474873313
 20
275.5024717053262
 30
0.0
 11
-178.124474873313
 21
274.9628520814987
 31
0.0
  0
LINE
  5
325
330
2
100
AcDbEntity
  8
AM_VIS
100
AcDbLine
 10
-145.624474873313
 20
274.9628520814987
 30
0.0
 11
-145.624474873313
 21
275.5024717053262
 31
0.0
  0
LINE
  5
326
330
2
100
AcDbEntity
  8
AM_VIS
100
AcDbLine
 10
-145.624474873313
 20
274.9628520814987
 30
0.0
 11
-145.624474873313
 21
263.5571022941817
 31
0.0
  0
LINE
  5
327
330
2
100
AcDbEntity
  8
AM_VIS
100
AcDbLine
 10
-145.624474873313
 20
214.1803951045799
 30
0.0
 11
-145.624474873313
 21
263.5571022941817
 31
0.0
  0
LINE
  5
328
330
2
100
AcDbEntity
  8
AM_VIS
100
AcDbLine
 10
-178.124474873313
 20
263.5571022941817
 30
0.0
 11
-178.124474873313
 21
274.9628520814987
 31
0.0
  0
LINE
  5
329
330
2
100
AcDbEntity
  8
AM_VIS
100
AcDbLine
 10
-178.124474873313
 20
263.5571022941817
 30
0.0
 11
-178.124474873313
 21
214.1803951045799
 31
0.0
  0
ARC
  5
32A
330
2
100
AcDbEntity
  8
AM_VIS
100
AcDbCircle
 10
-161.874474873313
 20
281.8044582641513
 30
0.0
 40
10.0
100
AcDbArc
 50
0.0
 51
180.0
  0
LINE
  5
32B
330
2
100
AcDbEntity
  8
AM_VIS
100
AcDbLine
 10
-151.874474873313
 20
281.8044582641513
 30
0.0
 11
-151.874474873313
 21
275.8086995135577
 31
0.0
  0
LINE
  5
32C
330
2
100
AcDbEntity
  8
AM_VIS
100
AcDbLine
 10
-171.874474873313
 20
281.8044582641513
 30
0.0
 11
-171.874474873313
 21
275.8086995135577
 31
0.0
  0
LINE
  5
32D
330
2
100
AcDbEntity
  8
AM_VIS
100
AcDbLine
 10
-141.1844765781808
 20
262.4513387371897
 30
0.0
 11
-141.1844765781808
 21
258.1588114832459
 31
0.0
  0
LINE
  5
32E
330
2
100
AcDbEntity
  8
AM_VIS
100
AcDbLine
 10
-141.1844765781808
 20
258.1588114832459
 30
0.0
 11
-141.1844765781808
 21
254.6513387371898
 31
0.0
  0
LINE
  5
32F
330
2
100
AcDbEntity
  8
AM_VIS
100
AcDbLine
 10
-179.1844765781808
 20
253.5513387371898
 30
0.0
 11
-179.1844765781808
 21
258.048098668031
 31
0.0
  0
LINE
  5
330
330
2
100
AcDbEntity
  8
AM_VIS
100
AcDbLine
 10
-179.1844765781808
 20
258.048098668031
 30
0.0
 11
-179.1844765781808
 21
263.5513387371898
 31
0.0
  0
LINE
  5
331
330
2
100
AcDbEntity
  8
AM_VIS
100
AcDbLine
 10
-143.9844765781806
 20
262.4513387371897
 30
0.0
 11
-141.1844765781808
 21
262.4513387371897
 31
0.0
  0
LINE
  5
332
330
2
100
AcDbEntity
  8
AM_VIS
100
AcDbLine
 10
-143.9844765781806
 20
254.6513387371898
 30
0.0
 11
-141.1844765781808
 21
254.6513387371898
 31
0.0
  0
LINE
  5
333
330
2
100
AcDbEntity
  8
AM_VIS
100
AcDbLine
 10
-178.124474873313
 20
253.5513387371897
 30
0.0
 11
-179.1844765781808
 21
253.5513387371897
 31
0.0
  0
LINE
  5
334
330
2
100
AcDbEntity
  8
AM_VIS
100
AcDbLine
 10
-178.124474873313
 20
263.5513387371897
 30
0.0
 11
-179.1844765781808
 21
263.5513387371897
 31
0.0
  0
LINE
  5
335
330
2
100
AcDbEntity
  8
AM_VIS
100
AcDbLine
 10
-199.139474873313
 20
82.30512104725249
 30
0.0
 11
-199.139474873313
 21
78.38039510457997
 31
0.0
  0
LINE
  5
336
330
2
100
AcDbEntity
  8
AM_VIS
100
AcDbLine
 10
-200.639474873313
 20
78.38039510457997
 30
0.0
 11
-200.639474873313
 21
105.3803951045799
 31
0.0
  0
LINE
  5
337
330
2
100
AcDbEntity
  8
AM_VIS
100
AcDbLine
 10
-200.639474873313
 20
105.38039510458
 30
0.0
 11
-199.139474873313
 21
105.38039510458
 31
0.0
  0
LINE
  5
338
330
2
100
AcDbEntity
  8
AM_VIS
100
AcDbLine
 10
-200.639474873313
 20
78.38039510458
 30
0.0
 11
-199.139474873313
 21
78.38039510458
 31
0.0
  0
LINE
  5
339
330
2
100
AcDbEntity
  8
AM_VIS
100
AcDbLine
 10
-124.139474873313
 20
105.3803951045799
 30
0.0
 11
-124.139474873313
 21
78.38039510457997
 31
0.0
  0
LINE
  5
33A
330
2
100
AcDbEntity
  8
AM_VIS
100
AcDbLine
 10
-125.639474873313
 20
78.38039510457997
 30
0.0
 11
-125.639474873313
 21
82.30512104725253
 31
0.0
  0
LINE
  5
33B
330
2
100
AcDbEntity
  8
AM_VIS
100
AcDbLine
 10
-125.639474873313
 20
105.38039510458
 30
0.0
 11
-124.139474873313
 21
105.38039510458
 31
0.0
  0
LINE
  5
33C
330
2
100
AcDbEntity
  8
AM_VIS
100
AcDbLine
 10
-125.639474873313
 20
78.38039510458
 30
0.0
 11
-124.139474873313
 21
78.38039510458
 31
0.0
  0
ELLIPSE
  5
33D
330
2
100
AcDbEntity
  8
AM_VIS
100
AcDbEllipse
 10
-185.1244748733144
 20
62.51491446224196
 30
0.0
 11
11.75
 21
-0.0000000000000027
 31
0.0
210
0.0
220
0.0
230
1.0
 40
0.1086109036000947
 41
3.141592653589794
 42
4.712388980384689
  0
LINE
  5
33E
330
2
100
AcDbEntity
  8
AM_VIS
100
AcDbLine
 10
-196.8744748733144
 20
62.51491446224196
 30
0.0
 11
-196.8744748733144
 21
32.69238431375768
 31
0.0
  0
ELLIPSE
  5
33F
330
2
100
AcDbEntity
  8
AM_VIS
100
AcDbEllipse
 10
-185.1244748733144
 20
32.69238431375768
 30
0.0
 11
11.75
 21
-0.0000000000000027
 31
0.0
210
0.0
220
0.0
230
1.0
 40
0.1086109036000947
 41
3.141592653589794
 42
4.712388980384689
  0
LINE
  5
340
330
2
100
AcDbEntity
  8
AM_VIS
100
AcDbLine
 10
-138.6244748733144
 20
31.41620619645655
 30
0.0
 11
-185.1244748733144
 21
31.41620619645656
 31
0.0
  0
LINE
  5
341
330
2
100
AcDbEntity
  8
AM_VIS
100
AcDbLine
 10
-138.6244748733144
 20
61.23873634494083
 30
0.0
 11
-185.1244748733144
 21
61.23873634494085
 31
0.0
  0
ELLIPSE
  5
342
330
2
100
AcDbEntity
  8
AM_VIS
100
AcDbEllipse
 10
-138.6244748733144
 20
32.69238431375766
 30
0.0
 11
11.75
 21
-0.0000000000000027
 31
0.0
210
0.0
220
0.0
230
1.0
 40
0.1086109036000947
 41
4.712388980384689
 42
6.283185307179586
  0
ELLIPSE
  5
343
330
2
100
AcDbEntity
  8
AM_VIS
100
AcDbEllipse
 10
-138.6244748733144
 20
67.56532147964637
 30
0.0
 11
11.75
 21
-0.0000000000000027
 31
0.0
210
0.0
220
0.0
230
1.0
 40
0.1086109036000947
 41
0.0
 42
0.6610277197250682
  0
ELLIPSE
  5
344
330
2
100
AcDbEntity
  8
AM_VIS
100
AcDbEllipse
 10
-138.6244748733144
 20
62.51491446224195
 30
0.0
 11
11.75
 21
-0.0000000000000027
 31
0.0
210
0.0
220
0.0
230
1.0
 40
0.1086109036000947
 41
4.712388980384689
 42
6.283185307179586
  0
LINE
  5
345
330
2
100
AcDbEntity
  8
AM_VIS
100
AcDbLine
 10
-126.8744748733144
 20
32.69238431375766
 30
0.0
 11
-126.8744748733144
 21
62.51491446224195
 31
0.0
  0
LINE
  5
346
330
2
100
AcDbEntity
  8
AM_VIS
100
AcDbLine
 10
-196.8744748733144
 20
62.51491446224196
 30
0.0
 11
-196.8744748733144
 21
62.7255167870788
 31
0.0
  0
LINE
  5
347
330
2
100
AcDbEntity
  8
AM_VIS
100
AcDbLine
 10
-126.8744748733144
 20
67.56532147964636
 30
0.0
 11
-126.8744748733144
 21
62.51491446224195
 31
0.0
  0
SPLINE
  5
348
330
2
100
AcDbEntity
  8
AM_VIS
100
AcDbSpline
210
0.0
220
0.0
230
1.0
 70
     8
 71
     1
 72
    10
 73
     8
 74
     0
 42
0.0000000001
 43
0.0000000001
 40
5.586124431487426
 40
5.586124431487426
 40
5.594997211167616
 40
5.612560961610517
 40
5.630124712053418
 40
5.647688462496319
 40
5.665252212939219
 40
5.68281596338212
 40
5.6838093399205
 40
5.6838093399205
 10
-149.3499025317011
 20
91.99706405846423
 30
0.0
 10
-149.2542145095919
 20
91.98464907673905
 30
0.0
 10
-149.0682345271518
 20
91.95963960101154
 30
0.0
 10
-148.8857147678514
 20
91.9341937929188
 30
0.0
 10
-148.706675892685
 20
91.90830801359906
 30
0.0
 10
-148.5311339456472
 20
91.88197719686057
 30
0.0
 10
-148.3590998850423
 20
91.85519458945936
 30
0.0
 10
-148.3495686262575
 20
91.85365376218442
 30
0.0
  0
ELLIPSE
  5
349
330
2
100
AcDbEntity
  8
AM_VIS
100
AcDbEllipse
 10
-161.8744748733142
 20
-142.723508730163
 30
0.0
 11
20.0
 21
-0.0000000000000047
 31
0.0
210
0.0
220
0.0
230
1.0
 40
0.1086109036000947
 41
3.141592653589794
 42
6.283185307179586
  0
LINE
  5
34A
330
2
100
AcDbEntity
  8
AM_VIS
100
AcDbLine
 10
-141.8744748733142
 20
-142.5485530030351
 30
0.0
 11
-141.8744748733142
 21
-142.723508730163
 31
0.0
  0
LINE
  5
34B
330
2
100
AcDbEntity
  8
AM_VIS
100
AcDbLine
 10
-181.8744748733142
 20
-142.5485530030351
 30
0.0
 11
-181.8744748733142
 21
-142.723508730163
 31
0.0
  0
LINE
  5
34C
330
2
100
AcDbEntity
  8
AM_VIS
100
AcDbLine
 10
-196.8744748733141
 20
-111.4769974631497
 30
0.0
 11
-196.8744748733141
 21
-141.272374885734
 31
0.0
  0
ELLIPSE
  5
34D
330
2
100
AcDbEntity
  8
AM_VIS
100
AcDbEllipse
 10
-185.1244748733141
 20
-141.272374885734
 30
0.0
 11
11.75
 21
-0.0000000000000027
 31
0.0
210
0.0
220
0.0
230
1.0
 40
0.1086109036000947
 41
3.141592653589794
 42
4.712388980384689
  0
LINE
  5
34E
330
2
100
AcDbEntity
  8
AM_VIS
100
AcDbLine
 10
-138.6244748733141
 20
-142.5485530030351
 30
0.0
 11
-185.1244748733141
 21
-142.5485530030351
 31
0.0
  0
LINE
  5
34F
330
2
100
AcDbEntity
  8
AM_VIS
100
AcDbLine
 10
-138.6244748733141
 20
-112.7260228545508
 30
0.0
 11
-185.1244748733141
 21
-112.7260228545508
 31
0.0
  0
ELLIPSE
  5
350
330
2
100
AcDbEntity
  8
AM_VIS
100
AcDbEllipse
 10
-138.6244748733141
 20
-141.272374885734
 30
0.0
 11
11.75
 21
-0.0000000000000027
 31
0.0
210
0.0
220
0.0
230
1.0
 40
0.1086109036000947
 41
4.712388980384689
 42
6.283185307179586
  0
LINE
  5
351
330
2
100
AcDbEntity
  8
AM_VIS
100
AcDbLine
 10
-126.8744748733141
 20
-141.272374885734
 30
0.0
 11
-126.8744748733141
 21
-111.4769974631497
 31
0.0
  0
LINE
  5
352
330
2
100
AcDbEntity
  8
AM_VIS
100
AcDbLine
 10
-196.8744748733146
 20
32.69238431375769
 30
0.0
 11
-196.8744748733146
 21
32.66523158785764
 31
0.0
  0
ELLIPSE
  5
353
330
2
100
AcDbEntity
  8
AM_VIS
100
AcDbEllipse
 10
-185.3744748733146
 20
32.66523158785764
 30
0.0
 11
11.5
 21
-0.0000000000000027
 31
0.0
210
0.0
220
0.0
230
1.0
 40
0.1086109036000948
 41
3.141592653589794
 42
4.712388980384689
  0
LINE
  5
354
330
2
100
AcDbEntity
  8
AM_VIS
100
AcDbLine
 10
-185.3744748733146
 20
31.41620619645655
 30
0.0
 11
-178.3744748733146
 21
31.41620619645655
 31
0.0
  0
LINE
  5
355
330
2
100
AcDbEntity
  8
AM_VIS
100
AcDbLine
 10
-165.3744748733146
 20
31.41620619645654
 30
0.0
 11
-158.3744748733146
 21
31.41620619645654
 31
0.0
  0
LINE
  5
356
330
2
100
AcDbEntity
  8
AM_VIS
100
AcDbLine
 10
-145.3744748733145
 20
31.41620619645653
 30
0.0
 11
-138.3744748733146
 21
31.41620619645653
 31
0.0
  0
ELLIPSE
  5
357
330
2
100
AcDbEntity
  8
AM_VIS
100
AcDbEllipse
 10
-138.3744748733146
 20
32.66523158785762
 30
0.0
 11
11.5
 21
-0.0000000000000027
 31
0.0
210
0.0
220
0.0
230
1.0
 40
0.1086109036000948
 41
4.712388980384689
 42
6.283185307179586
  0
LINE
  5
358
330
2
100
AcDbEntity
  8
AM_VIS
100
AcDbLine
 10
-126.8744748733146
 20
32.66523158785762
 30
0.0
 11
-126.8744748733146
 21
32.69238431375767
 31
0.0
  0
ELLIPSE
  5
359
330
2
100
AcDbEntity
  8
AM_VIS
100
AcDbEllipse
 10
-175.3744748733146
 20
-112.3458846919504
 30
0.0
 11
1.5
 21
-0.0000000000000004
 31
0.0
210
0.0
220
0.0
230
1.0
 40
0.1086109036000948
 41
1.570796326794896
 42
3.141592653589791
  0
LINE
  5
35A
330
2
100
AcDbEntity
  8
AM_VIS
100
AcDbLine
 10
-176.8744748733146
 20
-112.5631064991506
 30
0.0
 11
-176.8744748733146
 21
31.41620619645661
 31
0.0
  0
ELLIPSE
  5
35B
330
2
100
AcDbEntity
  8
AM_VIS
100
AcDbEllipse
 10
-178.3744748733146
 20
-112.5631064991507
 30
0.0
 11
1.5
 21
-0.0000000000000004
 31
0.0
210
0.0
220
0.0
230
1.0
 40
0.1086109036000948
 41
4.712388980384689
 42
6.283185307179584
  0
LINE
  5
35C
330
2
100
AcDbEntity
  8
AM_VIS
100
AcDbLine
 10
-185.3744748733146
 20
-112.7260228545508
 30
0.0
 11
-178.3744748733146
 21
-112.7260228545508
 31
0.0
  0
ELLIPSE
  5
35D
330
2
100
AcDbEntity
  8
AM_VIS
100
AcDbEllipse
 10
-168.3744748733146
 20
-112.3458846919504
 30
0.0
 11
1.5
 21
-0.0000000000000004
 31
0.0
210
0.0
220
0.0
230
1.0
 40
0.1086109036000947
 41
-0.0000000000000022
 42
1.570796326794896
  0
LINE
  5
35E
330
2
100
AcDbEntity
  8
AM_VIS
100
AcDbLine
 10
-175.3744748733146
 20
-112.1829683365503
 30
0.0
 11
-168.3744748733146
 21
-112.1829683365503
 31
0.0
  0
ELLIPSE
  5
35F
330
2
100
AcDbEntity
  8
AM_VIS
100
AcDbEllipse
 10
-165.3744748733146
 20
-112.5631064991507
 30
0.0
 11
1.5
 21
-0.0000000000000004
 31
0.0
210
0.0
220
0.0
230
1.0
 40
0.1086109036000947
 41
3.141592653589791
 42
4.712388980384689
  0
LINE
  5
360
330
2
100
AcDbEntity
  8
AM_VIS
100
AcDbLine
 10
-166.8744748733146
 20
31.41620619645655
 30
0.0
 11
-166.8744748733146
 21
-112.5631064991506
 31
0.0
  0
ELLIPSE
  5
361
330
2
100
AcDbEntity
  8
AM_VIS
100
AcDbEllipse
 10
-158.3744748733146
 20
-112.5631064991507
 30
0.0
 11
1.5
 21
-0.0000000000000004
 31
0.0
210
0.0
220
0.0
230
1.0
 40
0.1086109036000948
 41
4.712388980384689
 42
6.283185307179584
  0
LINE
  5
362
330
2
100
AcDbEntity
  8
AM_VIS
100
AcDbLine
 10
-156.8744748733146
 20
-112.5631064991506
 30
0.0
 11
-156.8744748733146
 21
31.41620619645661
 31
0.0
  0
ELLIPSE
  5
363
330
2
100
AcDbEntity
  8
AM_VIS
100
AcDbEllipse
 10
-155.3744748733146
 20
-112.3458846919504
 30
0.0
 11
1.5
 21
-0.0000000000000004
 31
0.0
210
0.0
220
0.0
230
1.0
 40
0.1086109036000948
 41
1.570796326794896
 42
3.141592653589791
  0
ELLIPSE
  5
364
330
2
100
AcDbEntity
  8
AM_VIS
100
AcDbEllipse
 10
-148.3744748733146
 20
-112.3458846919504
 30
0.0
 11
1.5
 21
-0.0000000000000004
 31
0.0
210
0.0
220
0.0
230
1.0
 40
0.1086109036000947
 41
-0.0000000000000022
 42
1.570796326794896
  0
LINE
  5
365
330
2
100
AcDbEntity
  8
AM_VIS
100
AcDbLine
 10
-155.3744748733146
 20
-112.1829683365503
 30
0.0
 11
-148.3744748733146
 21
-112.1829683365503
 31
0.0
  0
ELLIPSE
  5
366
330
2
100
AcDbEntity
  8
AM_VIS
100
AcDbEllipse
 10
-145.3744748733146
 20
-112.5631064991507
 30
0.0
 11
1.5
 21
-0.0000000000000004
 31
0.0
210
0.0
220
0.0
230
1.0
 40
0.1086109036000947
 41
3.141592653589791
 42
4.712388980384689
  0
LINE
  5
367
330
2
100
AcDbEntity
  8
AM_VIS
100
AcDbLine
 10
-146.8744748733145
 20
31.41620619645654
 30
0.0
 11
-146.8744748733145
 21
-112.5631064991507
 31
0.0
  0
ELLIPSE
  5
368
330
2
100
AcDbEntity
  8
AM_VIS
100
AcDbEllipse
 10
-138.3744748733146
 20
-111.4769974631497
 30
0.0
 11
11.5
 21
-0.0000000000000027
 31
0.0
210
0.0
220
0.0
230
1.0
 40
0.1086109036000948
 41
4.712388980384689
 42
6.283185307179586
  0
LINE
  5
369
330
2
100
AcDbEntity
  8
AM_VIS
100
AcDbLine
 10
-126.8744748733146
 20
-111.4769974631497
 30
0.0
 11
-126.8744748733146
 21
32.66523158785762
 31
0.0
  0
LINE
  5
36A
330
2
100
AcDbEntity
  8
AM_VIS
100
AcDbLine
 10
-145.3744748733146
 20
-112.7260228545508
 30
0.0
 11
-138.3744748733146
 21
-112.7260228545508
 31
0.0
  0
ELLIPSE
  5
36B
330
2
100
AcDbEntity
  8
AM_VIS
100
AcDbEllipse
 10
-185.3744748733146
 20
-111.4769974631497
 30
0.0
 11
11.5
 21
-0.0000000000000027
 31
0.0
210
0.0
220
0.0
230
1.0
 40
0.1086109036000948
 41
3.141592653589794
 42
4.712388980384689
  0
LINE
  5
36C
330
2
100
AcDbEntity
  8
AM_VIS
100
AcDbLine
 10
-196.8744748733146
 20
32.66523158785764
 30
0.0
 11
-196.8744748733146
 21
-111.4769974631497
 31
0.0
  0
LINE
  5
36D
330
2
100
AcDbEntity
  8
AM_VIS
100
AcDbLine
 10
-165.3744748733146
 20
-112.7260228545508
 30
0.0
 11
-158.3744748733146
 21
-112.7260228545508
 31
0.0
  0
LINE
  5
36E
330
2
100
AcDbEntity
  8
AM_VIS
100
AcDbLine
 10
-131.6244748733147
 20
93.22509639748531
 30
0.0
 11
-131.6244748733147
 21
84.88039510458003
 31
0.0
  0
LINE
  5
36F
330
2
100
AcDbEntity
  8
AM_VIS
100
AcDbLine
 10
-131.6244748733147
 20
84.88039510458005
 30
0.0
 11
-131.8744748733146
 21
84.6303951045802
 31
0.0
  0
LINE
  5
370
330
2
100
AcDbEntity
  8
AM_VIS
100
AcDbLine
 10
-191.8744748733146
 20
62.32028297528254
 30
0.0
 11
-191.8744748733146
 21
62.10762357374162
 31
0.0
  0
ELLIPSE
  5
371
330
2
100
AcDbEntity
  8
AM_VIS
100
AcDbEllipse
 10
-188.8744748733146
 20
62.10762357374162
 30
0.0
 11
3.0
 21
-0.0000000000000007
 31
0.0
210
0.0
220
0.0
230
1.0
 40
0.1086109036000947
 41
3.141592653589794
 42
4.712388980384689
  0
LINE
  5
372
330
2
100
AcDbEntity
  8
AM_VIS
100
AcDbLine
 10
-134.8744748733146
 20
61.78179086294132
 30
0.0
 11
-188.8744748733146
 21
61.78179086294133
 31
0.0
  0
ELLIPSE
  5
373
330
2
100
AcDbEntity
  8
AM_VIS
100
AcDbEllipse
 10
-134.8744748733146
 20
62.10762357374161
 30
0.0
 11
3.0
 21
-0.0000000000000007
 31
0.0
210
0.0
220
0.0
230
1.0
 40
0.1086109036000948
 41
4.712388980384689
 42
6.283185307179586
  0
LINE
  5
374
330
2
100
AcDbEntity
  8
AM_VIS
100
AcDbLine
 10
-131.8744748733146
 20
62.10762357374161
 30
0.0
 11
-131.8744748733146
 21
62.71858392898825
 31
0.0
  0
LINE
  5
375
330
2
100
AcDbEntity
  8
AM_VIS
100
AcDbLine
 10
-177.8744748733146
 20
74.53400174135103
 30
0.0
 11
-177.8744748733146
 21
75.55718828353668
 31
0.0
  0
LINE
  5
376
330
2
100
AcDbEntity
  8
AM_VIS
100
AcDbLine
 10
-177.8744748733146
 20
75.55718828353666
 30
0.0
 11
-177.8744748733146
 21
90.46845335777879
 31
0.0
  0
LINE
  5
377
330
2
100
AcDbEntity
  8
AM_VIS
100
AcDbLine
 10
-191.8744748733145
 20
76.55127262182438
 30
0.0
 11
-191.8744748733145
 21
90.46845335777879
 31
0.0
  0
LINE
  5
378
330
2
100
AcDbEntity
  8
AM_VIS
100
AcDbLine
 10
-131.8744748733146
 20
74.53400174135103
 30
0.0
 11
-131.8744748733146
 21
75.55718828353665
 31
0.0
  0
LINE
  5
379
330
2
100
AcDbEntity
  8
AM_VIS
100
AcDbLine
 10
-177.8744748733146
 20
94.18039510458001
 30
0.0
 11
-177.8744748733146
 21
90.46845335777879
 31
0.0
  0
LINE
  5
37A
330
2
100
AcDbEntity
  8
AM_VIS
100
AcDbLine
 10
-145.8744748733145
 20
90.46845335777879
 30
0.0
 11
-145.8744748733145
 21
76.55127262182438
 31
0.0
  0
LINE
  5
37B
330
2
100
AcDbEntity
  8
AM_VIS
100
AcDbLine
 10
-145.8744748733145
 20
90.46845335777879
 30
0.0
 11
-145.8744748733145
 21
94.18039510458005
 31
0.0
  0
LINE
  5
37C
330
2
100
AcDbEntity
  8
AM_VIS
100
AcDbLine
 10
-131.8744748733146
 20
90.46845335777879
 30
0.0
 11
-131.8744748733146
 21
75.55718828353665
 31
0.0
  0
LINE
  5
37D
330
2
100
AcDbEntity
  8
AM_VIS
100
AcDbLine
 10
-131.8744748733146
 20
90.46845335777879
 30
0.0
 11
-131.8744748733146
 21
93.52983686415337
 31
0.0
  0
LINE
  5
37E
330
2
100
AcDbEntity
  8
AM_VIS
100
AcDbLine
 10
-191.8744748733145
 20
93.8493646666196
 30
0.0
 11
-191.8744748733145
 21
90.46845335777879
 31
0.0
  0
LINE
  5
37F
330
2
100
AcDbEntity
  8
AM_VIS
100
AcDbLine
 10
-157.124474873313
 20
216.7303951045799
 30
0.0
 11
-156.874474873313
 21
216.7303951045799
 31
0.0
  0
LINE
  5
380
330
2
100
AcDbEntity
  8
AM_VIS
100
AcDbLine
 10
-166.874474873313
 20
273.9706277054104
 30
0.0
 11
-156.874474873313
 21
273.9706277054104
 31
0.0
  0
LINE
  5
381
330
2
100
AcDbEntity
  8
AM_VIS
100
AcDbLine
 10
-166.874474873313
 20
253.9706277054104
 30
0.0
 11
-156.874474873313
 21
253.9706277054104
 31
0.0
  0
LINE
  5
382
330
2
100
AcDbEntity
  8
AM_VIS
100
AcDbLine
 10
89.69412787961193
 20
388.4886355130721
 30
0.0
 11
86.1822831483912
 21
388.4886355130721
 31
0.0
  0
LINE
  5
383
330
2
100
AcDbEntity
  8
AM_VIS
100
AcDbLine
 10
30.19412787961188
 20
388.4886355130721
 30
0.0
 11
30.19412787961188
 21
383.4886355130721
 31
0.0
  0
LINE
  5
384
330
2
100
AcDbEntity
  8
AM_VIS
100
AcDbLine
 10
30.19412787961188
 20
388.4886355130721
 30
0.0
 11
37.67467531813553
 21
388.4886355130721
 31
0.0
  0
LINE
  5
385
330
2
100
AcDbEntity
  8
AM_VIS
100
AcDbLine
 10
73.65465809885439
 20
388.4886355130721
 30
0.0
 11
86.1822831483912
 21
388.4886355130721
 31
0.0
  0
LINE
  5
386
330
2
100
AcDbEntity
  8
AM_VIS
100
AcDbLine
 10
89.69412787961193
 20
388.4886355130721
 30
0.0
 11
89.69412787961193
 21
384.2386355130721
 31
0.0
  0
ELLIPSE
  5
387
330
2
100
AcDbEntity
  8
AM_VIS
100
AcDbEllipse
 10
98.86080646291611
 20
356.3436355130721
 30
0.0
 11
-0.0000000000000015
 21
-14.34
 31
0.0
210
0.0
220
0.0
230
1.0
 40
0.9063077870366498
 41
4.712388980384689
 42
6.283185307179586
  0
ELLIPSE
  5
388
330
2
100
AcDbEntity
  8
AM_VIS
100
AcDbEllipse
 10
88.12630261470236
 20
356.3436355130721
 30
0.0
 11
-0.0000000000000015
 21
-14.34
 31
0.0
210
0.0
220
0.0
230
1.0
 40
0.9063077870366498
 41
4.712388980384689
 42
6.283185307179586
  0
LINE
  5
389
330
2
100
AcDbEntity
  8
AM_VIS
100
AcDbLine
 10
88.12630261470232
 20
342.0036355130722
 30
0.0
 11
98.8608064629161
 21
342.0036355130722
 31
0.0
  0
LINE
  5
38A
330
2
100
AcDbEntity
  8
AM_VIS
100
AcDbLine
 10
85.86435279681055
 20
401.1636355130721
 30
0.0
 11
85.86435279681055
 21
388.4886355130721
 31
0.0
  0
LINE
  5
38B
330
2
100
AcDbEntity
  8
AM_VIS
100
AcDbLine
 10
85.86435279681055
 20
368.2386355130722
 30
0.0
 11
85.86435279681055
 21
356.3436355130722
 31
0.0
  0
LINE
  5
38C
330
2
100
AcDbEntity
  8
AM_VIS
100
AcDbLine
 10
75.12984894859679
 20
401.1636355130721
 30
0.0
 11
75.12984894859679
 21
388.4886355130721
 31
0.0
  0
LINE
  5
38D
330
2
100
AcDbEntity
  8
AM_VIS
100
AcDbLine
 10
75.12984894859679
 20
368.2386355130721
 30
0.0
 11
75.12984894859679
 21
356.3436355130721
 31
0.0
  0
LINE
  5
38E
330
2
100
AcDbEntity
  8
AM_VIS
100
AcDbLine
 10
98.8608064629161
 20
342.0036355130722
 30
0.0
 11
120.233167045653
 21
342.0036355130722
 31
0.0
  0
LINE
  5
38F
330
2
100
AcDbEntity
  8
AM_VIS
100
AcDbLine
 10
124.3824337458681
 20
347.6636355130721
 30
0.0
 11
98.86080646291611
 21
347.6636355130721
 31
0.0
  0
ELLIPSE
  5
390
330
2
100
AcDbEntity
  8
AM_VIS
100
AcDbEllipse
 10
98.86080646291611
 20
355.6636355130721
 30
0.0
 11
-0.0000000000000008
 21
-7.999999999999999
 31
0.0
210
0.0
220
0.0
230
1.0
 40
0.90630778703665
 41
4.712388980384689
 42
6.283185307179586
  0
LINE
  5
391
330
2
100
AcDbEntity
  8
AM_VIS
100
AcDbLine
 10
91.61034416662293
 20
355.6636355130721
 30
0.0
 11
91.61034416662293
 21
365.7386355130721
 31
0.0
  0
LINE
  5
392
330
2
100
AcDbEntity
  8
AM_VIS
100
AcDbLine
 10
91.61034416662293
 20
371.2386355130721
 30
0.0
 11
91.61034416662293
 21
372.2386355130722
 31
0.0
  0
LINE
  5
393
330
2
100
AcDbEntity
  8
AM_VIS
100
AcDbLine
 10
91.61034416662293
 20
384.2386355130721
 30
0.0
 11
91.61034416662293
 21
385.238635513072
 31
0.0
  0
LINE
  5
394
330
2
100
AcDbEntity
  8
AM_VIS
100
AcDbLine
 10
91.61034416662293
 20
390.7386355130721
 30
0.0
 11
91.61034416662293
 21
401.1636355130721
 31
0.0
  0
ELLIPSE
  5
395
330
2
100
AcDbEntity
  8
AM_VIS
100
AcDbEllipse
 10
98.86080646291611
 20
401.1636355130721
 30
0.0
 11
-0.0000000000000008
 21
-7.999999999999998
 31
0.0
210
0.0
220
0.0
230
1.0
 40
0.90630778703665
 41
3.141592653589793
 42
4.712388980384689
  0
LINE
  5
396
330
2
100
AcDbEntity
  8
AM_VIS
100
AcDbLine
 10
98.86080646291611
 20
409.1636355130721
 30
0.0
 11
124.3824337458681
 21
409.1636355130721
 31
0.0
  0
LINE
  5
397
330
2
100
AcDbEntity
  8
AM_VIS
100
AcDbLine
 10
98.86080646291611
 20
415.5036355130722
 30
0.0
 11
120.233167045653
 21
415.5036355130722
 31
0.0
  0
ELLIPSE
  5
398
330
2
100
AcDbEntity
  8
AM_VIS
100
AcDbEllipse
 10
98.86080646291611
 20
401.1636355130721
 30
0.0
 11
-0.0000000000000015
 21
-14.34
 31
0.0
210
0.0
220
0.0
230
1.0
 40
0.9063077870366498
 41
3.141592653589791
 42
4.712388980384689
  0
LINE
  5
399
330
2
100
AcDbEntity
  8
AM_VIS
100
AcDbLine
 10
98.86080646291611
 20
415.5036355130722
 30
0.0
 11
88.12630261470236
 21
415.5036355130722
 31
0.0
  0
ELLIPSE
  5
39A
330
2
100
AcDbEntity
  8
AM_VIS
100
AcDbEllipse
 10
88.12630261470236
 20
401.1636355130721
 30
0.0
 11
-0.0000000000000015
 21
-14.34
 31
0.0
210
0.0
220
0.0
230
1.0
 40
0.9063077870366498
 41
3.141592653589791
 42
4.712388980384689
  0
LINE
  5
39B
330
2
100
AcDbEntity
  8
AM_VIS
100
AcDbLine
 10
131.7151818217612
 20
409.1636355130721
 30
0.0
 11
124.3824337458681
 21
409.1636355130721
 31
0.0
  0
LINE
  5
39C
330
2
100
AcDbEntity
  8
AM_VIS
100
AcDbLine
 10
124.3824337458681
 20
347.6636355130721
 30
0.0
 11
131.7151818217612
 21
347.6636355130721
 31
0.0
  0
LINE
  5
39D
330
2
100
AcDbEntity
  8
AM_VIS
100
AcDbLine
 10
131.7151818217612
 20
415.5036355130722
 30
0.0
 11
131.7151818217612
 21
409.1636355130722
 31
0.0
  0
LINE
  5
39E
330
2
100
AcDbEntity
  8
AM_VIS
100
AcDbLine
 10
131.7151818217612
 20
347.6636355130721
 30
0.0
 11
131.7151818217612
 21
342.0036355130721
 31
0.0
  0
LINE
  5
39F
330
2
100
AcDbEntity
  8
AM_VIS
100
AcDbLine
 10
89.69412787961193
 20
368.2386355130721
 30
0.0
 11
86.1822831483912
 21
368.2386355130721
 31
0.0
  0
LINE
  5
3A0
330
2
100
AcDbEntity
  8
AM_VIS
100
AcDbLine
 10
30.19412787961188
 20
373.2386355130721
 30
0.0
 11
30.19412787961188
 21
368.2386355130721
 31
0.0
  0
LINE
  5
3A1
330
2
100
AcDbEntity
  8
AM_VIS
100
AcDbLine
 10
30.19412787961188
 20
368.2386355130721
 30
0.0
 11
37.67467531813551
 21
368.2386355130721
 31
0.0
  0
LINE
  5
3A2
330
2
100
AcDbEntity
  8
AM_VIS
100
AcDbLine
 10
30.19412787961188
 20
373.2386355130721
 30
0.0
 11
38.47467531813511
 21
373.2386355130721
 31
0.0
  0
LINE
  5
3A3
330
2
100
AcDbEntity
  8
AM_VIS
100
AcDbLine
 10
74.05245569910673
 20
368.2386355130721
 30
0.0
 11
86.1822831483912
 21
368.2386355130721
 31
0.0
  0
LINE
  5
3A4
330
2
100
AcDbEntity
  8
AM_VIS
100
AcDbLine
 10
89.69412787961193
 20
372.2386355130721
 30
0.0
 11
89.69412787961193
 21
368.2386355130721
 31
0.0
  0
LINE
  5
3A5
330
2
100
AcDbEntity
  8
AM_VIS
100
AcDbLine
 10
30.19412787961188
 20
348.7386355130722
 30
0.0
 11
30.19412787961188
 21
368.2386355130721
 31
0.0
  0
LINE
  5
3A6
330
2
100
AcDbEntity
  8
AM_VIS
100
AcDbLine
 10
30.19412787961188
 20
373.2386355130721
 30
0.0
 11
30.19412787961188
 21
373.4886355130722
 31
0.0
  0
LINE
  5
3A7
330
2
100
AcDbEntity
  8
AM_VIS
100
AcDbLine
 10
30.19412787961188
 20
388.4886355130721
 30
0.0
 11
30.19412787961188
 21
408.7386355130721
 31
0.0
  0
LINE
  5
3A8
330
2
100
AcDbEntity
  8
AM_VIS
100
AcDbLine
 10
25.19412787961188
 20
348.7386355130722
 30
0.0
 11
25.19412787961188
 21
373.4886355130722
 31
0.0
  0
LINE
  5
3A9
330
2
100
AcDbEntity
  8
AM_VIS
100
AcDbLine
 10
25.19412787961188
 20
383.4886355130722
 30
0.0
 11
25.19412787961188
 21
408.7386355130721
 31
0.0
  0
LINE
  5
3AA
330
2
100
AcDbEntity
  8
AM_VIS
100
AcDbLine
 10
30.19412787961186
 20
413.7386355130721
 30
0.0
 11
30.19412787961186
 21
408.7386355130721
 31
0.0
  0
LINE
  5
3AB
330
2
100
AcDbEntity
  8
AM_VIS
100
AcDbLine
 10
25.19412787961186
 20
413.7386355130721
 30
0.0
 11
30.19412787961186
 21
413.7386355130721
 31
0.0
  0
LINE
  5
3AC
330
2
100
AcDbEntity
  8
AM_VIS
100
AcDbLine
 10
25.19412787961186
 20
413.7386355130721
 30
0.0
 11
25.19412787961186
 21
408.7386355130721
 31
0.0
  0
LINE
  5
3AD
330
2
100
AcDbEntity
  8
AM_VIS
100
AcDbLine
 10
25.19412787961188
 20
343.7386355130722
 30
0.0
 11
30.19412787961188
 21
343.7386355130722
 31
0.0
  0
LINE
  5
3AE
330
2
100
AcDbEntity
  8
AM_VIS
100
AcDbLine
 10
30.19412787961188
 20
348.7386355130722
 30
0.0
 11
30.19412787961188
 21
343.7386355130722
 31
0.0
  0
LINE
  5
3AF
330
2
100
AcDbEntity
  8
AM_VIS
100
AcDbLine
 10
25.19412787961188
 20
348.7386355130722
 30
0.0
 11
25.19412787961188
 21
343.7386355130722
 31
0.0
  0
LINE
  5
3B0
330
2
100
AcDbEntity
  8
AM_VIS
100
AcDbLine
 10
58.15415184538605
 20
373.2386355130721
 30
0.0
 11
38.47467531813511
 21
373.2386355130721
 31
0.0
  0
LINE
  5
3B1
330
2
100
AcDbEntity
  8
AM_VIS
100
AcDbLine
 10
38.47467531813517
 20
373.2386355130721
 30
0.0
 11
38.47467531813517
 21
368.2386355130721
 31
0.0
  0
LINE
  5
3B2
330
2
100
AcDbEntity
  8
AM_VIS
100
AcDbLine
 10
38.47467531812601
 20
383.2386355130722
 30
0.0
 11
58.15415184538605
 21
383.2386355130722
 31
0.0
  0
LINE
  5
3B3
330
2
100
AcDbEntity
  8
AM_VIS
100
AcDbLine
 10
38.47467531812603
 20
383.2386355130722
 30
0.0
 11
38.47467531812603
 21
388.2386355130721
 31
0.0
  0
LINE
  5
3B4
330
2
100
AcDbEntity
  8
AM_VIS
100
AcDbLine
 10
-15.20587212041071
 20
383.4886355130722
 30
0.0
 11
-15.20587212041071
 21
373.4886355130722
 31
0.0
  0
LINE
  5
3B5
330
2
100
AcDbEntity
  8
AM_VIS
100
AcDbLine
 10
-15.20587212041071
 20
373.4886355130722
 30
0.0
 11
38.67467531812634
 21
373.4886355130722
 31
0.0
  0
LINE
  5
3B6
330
2
100
AcDbEntity
  8
AM_VIS
100
AcDbLine
 10
38.47467531812601
 20
383.4886355130722
 30
0.0
 11
-15.20587212041071
 21
383.4886355130722
 31
0.0
  0
ELLIPSE
  5
3B7
330
2
100
AcDbEntity
  8
AM_VIS
100
AcDbEllipse
 10
121.8390653153526
 20
380.7136355130722
 30
0.0
 11
-0.0000000000000002
 21
-10.0
 31
0.0
210
0.0
220
0.0
230
1.0
 40
0.994084338282856
 41
5.723646499697418
 42
5.995150224502214
  0
ELLIPSE
  5
3B8
330
2
100
AcDbEntity
  8
AM_VIS
100
AcDbEllipse
 10
116.1912983281699
 20
380.7136355130722
 30
0.0
 11
-0.0000000000000002
 21
-10.0
 31
0.0
210
0.0
220
0.0
230
1.0
 40
0.994084338282856
 41
6.150202858658555
 42
7.853981633974482
  0
ELLIPSE
  5
3B9
330
2
100
AcDbEntity
  8
AM_VIS
100
AcDbEllipse
 10
116.1912983281699
 20
380.7136355130722
 30
0.0
 11
-0.0000000000000002
 21
-10.0
 31
0.0
210
0.0
220
0.0
230
1.0
 40
0.994084338282856
 41
1.570796326794896
 42
3.274575102110817
  0
ELLIPSE
  5
3BA
330
2
100
AcDbEntity
  8
AM_VIS
100
AcDbEllipse
 10
116.1912983281699
 20
380.7136355130722
 30
0.0
 11
-0.0000000000000004
 21
-15.0
 31
0.0
210
0.0
220
0.0
230
1.0
 40
0.994084338282856
 41
6.194675893887074
 42
7.853981633974482
  0
ELLIPSE
  5
3BB
330
2
100
AcDbEntity
  8
AM_VIS
100
AcDbEllipse
 10
116.1912983281699
 20
380.7136355130722
 30
0.0
 11
-0.0000000000000004
 21
-15.0
 31
0.0
210
0.0
220
0.0
230
1.0
 40
0.994084338282856
 41
3.961439130531603
 42
3.980423013757091
  0
ELLIPSE
  5
3BC
330
2
100
AcDbEntity
  8
AM_VIS
100
AcDbEllipse
 10
116.1912983281699
 20
380.7136355130722
 30
0.0
 11
-0.0000000000000004
 21
-15.0
 31
0.0
210
0.0
220
0.0
230
1.0
 40
0.994084338282856
 41
1.570796326794896
 42
3.803209125475491
  0
ELLIPSE
  5
3BD
330
2
100
AcDbEntity
  8
AM_VIS
100
AcDbEllipse
 10
135.4469995463994
 20
394.713635513072
 30
0.0
 11
-1.997039978709918
 21
1.997039978709918
 31
0.0
210
0.0
220
0.0
230
1.0
 40
0.0544665546559558
 41
4.657976190323722
 42
6.228772517118619
  0
ELLIPSE
  5
3BE
330
2
100
AcDbEntity
  8
AM_VIS
100
AcDbEllipse
 10
105.6244693979138
 20
394.713635513072
 30
0.0
 11
1.997039978709917
 21
1.997039978709917
 31
0.0
210
0.0
220
0.0
230
1.0
 40
0.054466554655956
 41
4.766801770445647
 42
4.854596837485051
  0
ELLIPSE
  5
3BF
330
2
100
AcDbEntity
  8
AM_VIS
100
AcDbEllipse
 10
105.6244693979138
 20
411.063635513072
 30
0.0
 11
1.997039978709917
 21
-1.997039978709917
 31
0.0
210
0.0
220
0.0
230
1.0
 40
0.0544665546559558
 41
6.228772517118623
 42
6.546332946410381
  0
ELLIPSE
  5
3C0
330
2
100
AcDbEntity
  8
AM_VIS
100
AcDbEllipse
 10
135.4469995463994
 20
411.063635513072
 30
0.0
 11
-1.997039978709918
 21
-1.997039978709918
 31
0.0
210
0.0
220
0.0
230
1.0
 40
0.054466554655956
 41
0.054412790060965
 42
1.625209116855861
  0
LINE
  5
3C1
330
2
100
AcDbEntity
  8
AM_VIS
100
AcDbLine
 10
106.0151818217613
 20
409.063635513072
 30
0.0
 11
131.9382782194384
 21
409.063635513072
 31
0.0
  0
LINE
  5
3C2
330
2
100
AcDbEntity
  8
AM_VIS
100
AcDbLine
 10
133.4588308698338
 20
409.063635513072
 30
0.0
 11
131.9382782194384
 21
409.063635513072
 31
0.0
  0
LINE
  5
3C3
330
2
100
AcDbEntity
  8
AM_VIS
100
AcDbLine
 10
133.4588308698337
 20
396.713635513072
 30
0.0
 11
131.9382782194383
 21
396.713635513072
 31
0.0
  0
LINE
  5
3C4
330
2
100
AcDbEntity
  8
AM_VIS
100
AcDbLine
 10
106.0151818217612
 20
396.713635513072
 30
0.0
 11
131.9382782194383
 21
396.713635513072
 31
0.0
  0
ELLIPSE
  5
3C5
330
2
100
AcDbEntity
  8
AM_VIS
100
AcDbEllipse
 10
105.6244693979138
 20
350.3636355130721
 30
0.0
 11
1.997039978709919
 21
1.997039978709917
 31
0.0
210
0.0
220
0.0
230
1.0
 40
0.054466554655956
 41
4.766801770445652
 42
4.85459683748505
  0
ELLIPSE
  5
3C6
330
2
100
AcDbEntity
  8
AM_VIS
100
AcDbEllipse
 10
135.4469995463994
 20
366.7136355130721
 30
0.0
 11
-1.997039978709917
 21
-1.997039978709917
 31
0.0
210
0.0
220
0.0
230
1.0
 40
0.054466554655956
 41
0.0544127900609506
 42
1.625209116855847
  0
LINE
  5
3C7
330
2
100
AcDbEntity
  8
AM_VIS
100
AcDbLine
 10
131.9382782194384
 20
364.7136355130721
 30
0.0
 11
109.3051757944818
 21
364.7136355130721
 31
0.0
  0
LINE
  5
3C8
330
2
100
AcDbEntity
  8
AM_VIS
100
AcDbLine
 10
131.9382782194383
 20
364.7136355130721
 30
0.0
 11
133.4588308698337
 21
364.7136355130721
 31
0.0
  0
ELLIPSE
  5
3C9
330
2
100
AcDbEntity
  8
AM_VIS
100
AcDbEllipse
 10
135.4469995463994
 20
350.3636355130721
 30
0.0
 11
-1.997039978709917
 21
1.997039978709917
 31
0.0
210
0.0
220
0.0
230
1.0
 40
0.0544665546559558
 41
4.657976190323729
 42
6.228772517118627
  0
LINE
  5
3CA
330
2
100
AcDbEntity
  8
AM_VIS
100
AcDbLine
 10
131.9382782194383
 20
352.3636355130721
 30
0.0
 11
133.4588308698337
 21
352.3636355130721
 31
0.0
  0
LINE
  5
3CB
330
2
100
AcDbEntity
  8
AM_VIS
100
AcDbLine
 10
131.9382782194384
 20
352.3636355130721
 30
0.0
 11
106.0151818217612
 21
352.3636355130721
 31
0.0
  0
ELLIPSE
  5
3CC
330
2
100
AcDbEntity
  8
AM_VIS
100
AcDbEllipse
 10
98.72660445027626
 20
357.463635513072
 30
0.0
 11
-0.0000000000000001
 21
-3.0
 31
0.0
210
0.0
220
0.0
230
1.0
 40
0.994084338282856
 41
4.712388980384689
 42
6.100068258541685
  0
ELLIPSE
  5
3CD
330
2
100
AcDbEntity
  8
AM_VIS
100
AcDbEllipse
 10
98.72660445027626
 20
357.463635513072
 30
0.0
 11
-0.0000000000000001
 21
-3.0
 31
0.0
210
0.0
220
0.0
230
1.0
 40
0.994084338282856
 41
4.5987184230824
 42
4.712388980384689
  0
ELLIPSE
  5
3CE
330
2
100
AcDbEntity
  8
AM_VIS
100
AcDbEllipse
 10
97.64049541427958
 20
357.463635513072
 30
0.0
 11
-0.0000000000000001
 21
-3.0
 31
0.0
210
0.0
220
0.0
230
1.0
 40
0.994084338282856
 41
3.419370261931922
 42
7.853981633974482
  0
ELLIPSE
  5
3CF
330
2
100
AcDbEntity
  8
AM_VIS
100
AcDbEllipse
 10
97.64049541427958
 20
357.463635513072
 30
0.0
 11
-0.0000000000000001
 21
-3.0
 31
0.0
210
0.0
220
0.0
230
1.0
 40
0.994084338282856
 41
1.570796326794896
 42
1.599134020910941
  0
ELLIPSE
  5
3D0
330
2
100
AcDbEntity
  8
AM_VIS
100
AcDbEllipse
 10
98.72660445027626
 20
403.9636355130721
 30
0.0
 11
-0.0000000000000001
 21
-3.0
 31
0.0
210
0.0
220
0.0
230
1.0
 40
0.994084338282856
 41
4.712388980384689
 42
6.100068258541676
  0
ELLIPSE
  5
3D1
330
2
100
AcDbEntity
  8
AM_VIS
100
AcDbEllipse
 10
98.72660445027626
 20
403.9636355130721
 30
0.0
 11
-0.0000000000000001
 21
-3.0
 31
0.0
210
0.0
220
0.0
230
1.0
 40
0.994084338282856
 41
4.598718423082409
 42
4.712388980384689
  0
ELLIPSE
  5
3D2
330
2
100
AcDbEntity
  8
AM_VIS
100
AcDbEllipse
 10
97.64049541427958
 20
403.9636355130721
 30
0.0
 11
-0.0000000000000001
 21
-3.0
 31
0.0
210
0.0
220
0.0
230
1.0
 40
0.994084338282856
 41
1.570796326794896
 42
7.853981633974482
  0
ELLIPSE
  5
3D3
330
2
100
AcDbEntity
  8
AM_VIS
100
AcDbEllipse
 10
144.951526180429
 20
403.9636355130721
 30
0.0
 11
-0.0000000000000001
 21
-3.0
 31
0.0
210
0.0
220
0.0
230
1.0
 40
0.994084338282856
 41
4.712388980384689
 42
6.100068258541686
  0
ELLIPSE
  5
3D4
330
2
100
AcDbEntity
  8
AM_VIS
100
AcDbEllipse
 10
144.951526180429
 20
403.9636355130721
 30
0.0
 11
-0.0000000000000001
 21
-3.0
 31
0.0
210
0.0
220
0.0
230
1.0
 40
0.994084338282856
 41
4.59871842308239
 42
4.712388980384689
  0
ELLIPSE
  5
3D5
330
2
100
AcDbEntity
  8
AM_VIS
100
AcDbEllipse
 10
143.8654171444323
 20
403.9636355130721
 30
0.0
 11
-0.0000000000000001
 21
-3.0
 31
0.0
210
0.0
220
0.0
230
1.0
 40
0.994084338282856
 41
1.570796326794896
 42
7.853981633974482
  0
ELLIPSE
  5
3D6
330
2
100
AcDbEntity
  8
AM_VIS
100
AcDbEllipse
 10
144.951526180429
 20
357.463635513072
 30
0.0
 11
-0.0000000000000001
 21
-3.0
 31
0.0
210
0.0
220
0.0
230
1.0
 40
0.994084338282856
 41
4.712388980384689
 42
6.100068258541694
  0
ELLIPSE
  5
3D7
330
2
100
AcDbEntity
  8
AM_VIS
100
AcDbEllipse
 10
144.951526180429
 20
357.463635513072
 30
0.0
 11
-0.0000000000000001
 21
-3.0
 31
0.0
210
0.0
220
0.0
230
1.0
 40
0.994084338282856
 41
4.59871842308239
 42
4.712388980384689
  0
ELLIPSE
  5
3D8
330
2
100
AcDbEntity
  8
AM_VIS
100
AcDbEllipse
 10
143.8654171444323
 20
357.463635513072
 30
0.0
 11
-0.0000000000000001
 21
-3.0
 31
0.0
210
0.0
220
0.0
230
1.0
 40
0.994084338282856
 41
1.570796326794896
 42
7.853981633974482
  0
ELLIPSE
  5
3D9
330
2
100
AcDbEntity
  8
AM_VIS
100
AcDbEllipse
 10
97.64049541427958
 20
403.9636355130721
 30
0.0
 11
-0.0000000000000003
 21
-11.75
 31
0.0
210
0.0
220
0.0
230
1.0
 40
0.994084338282856
 41
3.141592653589793
 42
3.330938011997421
  0
ELLIPSE
  5
3DA
330
2
100
AcDbEntity
  8
AM_VIS
100
AcDbEllipse
 10
144.951526180429
 20
403.9636355130721
 30
0.0
 11
-0.0000000000000003
 21
-11.75
 31
0.0
210
0.0
220
0.0
230
1.0
 40
0.994084338282856
 41
1.570796326794896
 42
3.141592653589793
  0
LINE
  5
3DB
330
2
100
AcDbEntity
  8
AM_VIS
100
AcDbLine
 10
156.6320171552526
 20
403.9636355130721
 30
0.0
 11
156.6320171552526
 21
357.4636355130721
 31
0.0
  0
ELLIPSE
  5
3DC
330
2
100
AcDbEntity
  8
AM_VIS
100
AcDbEllipse
 10
144.951526180429
 20
357.463635513072
 30
0.0
 11
-0.0000000000000003
 21
-11.75
 31
0.0
210
0.0
220
0.0
230
1.0
 40
0.994084338282856
 41
0.0
 42
1.570796326794896
  0
ELLIPSE
  5
3DD
330
2
100
AcDbEntity
  8
AM_VIS
100
AcDbEllipse
 10
143.8654171444323
 20
403.9636355130721
 30
0.0
 11
-0.0000000000000003
 21
-11.75
 31
0.0
210
0.0
220
0.0
230
1.0
 40
0.994084338282856
 41
1.570796326794896
 42
3.141592653589793
  0
LINE
  5
3DE
330
2
100
AcDbEntity
  8
AM_VIS
100
AcDbLine
 10
144.951526180429
 20
415.7136355130721
 30
0.0
 11
143.8654171444323
 21
415.7136355130721
 31
0.0
  0
LINE
  5
3DF
330
2
100
AcDbEntity
  8
AM_VIS
100
AcDbLine
 10
155.5459081192559
 20
403.9636355130721
 30
0.0
 11
155.5459081192559
 21
357.4636355130721
 31
0.0
  0
ELLIPSE
  5
3E0
330
2
100
AcDbEntity
  8
AM_VIS
100
AcDbEllipse
 10
143.8654171444323
 20
357.463635513072
 30
0.0
 11
-0.0000000000000003
 21
-11.75
 31
0.0
210
0.0
220
0.0
230
1.0
 40
0.994084338282856
 41
0.0
 42
1.570796326794896
  0
LINE
  5
3E1
330
2
100
AcDbEntity
  8
AM_VIS
100
AcDbLine
 10
143.8654171444323
 20
345.7136355130721
 30
0.0
 11
144.951526180429
 21
345.7136355130721
 31
0.0
  0
LINE
  5
3E2
330
2
100
AcDbEntity
  8
AM_VIS
100
AcDbLine
 10
97.6404954142796
 20
415.7136355130721
 30
0.0
 11
105.5151818217614
 21
415.7136355130721
 31
0.0
  0
LINE
  5
3E3
330
2
100
AcDbEntity
  8
AM_VIS
100
AcDbLine
 10
132.5151818217614
 20
415.7136355130721
 30
0.0
 11
143.8654171444323
 21
415.7136355130721
 31
0.0
  0
LINE
  5
3E4
330
2
100
AcDbEntity
  8
AM_VIS
100
AcDbLine
 10
143.8654171444323
 20
345.713635513072
 30
0.0
 11
131.7151818217613
 21
345.713635513072
 31
0.0
  0
LINE
  5
3E5
330
2
100
AcDbEntity
  8
AM_VIS
100
AcDbLine
 10
119.1237927253609
 20
365.7136355130721
 30
0.0
 11
116.1912983281699
 21
365.7136355130721
 31
0.0
  0
LINE
  5
3E6
330
2
100
AcDbEntity
  8
AM_VIS
100
AcDbLine
 10
117.6032400749656
 20
395.7136355130722
 30
0.0
 11
116.1912983281699
 21
395.7136355130722
 31
0.0
  0
LINE
  5
3E7
330
2
100
AcDbEntity
  8
AM_VIS
100
AcDbLine
 10
106.0151818217613
 20
396.713635513072
 30
0.0
 11
106.0151818217613
 21
409.063635513072
 31
0.0
  0
LINE
  5
3E8
330
2
100
AcDbEntity
  8
AM_VIS
100
AcDbLine
 10
106.0151818217613
 20
364.3486372179398
 30
0.0
 11
106.0151818217613
 21
364.2923662725245
 31
0.0
  0
LINE
  5
3E9
330
2
100
AcDbEntity
  8
AM_VIS
100
AcDbLine
 10
106.0151818217613
 20
360.4049081633549
 30
0.0
 11
106.0151818217613
 21
352.3636355130721
 31
0.0
  0
SPLINE
  5
3EA
330
2
100
AcDbEntity
  8
AM_VIS
100
AcDbSpline
210
0.0
220
0.0
230
1.0
 70
    12
 71
     2
 72
     6
 73
     3
 74
     0
 42
0.0000000001
 43
0.0000000001
 40
0.0
 40
0.0
 40
0.0
 40
4.489346956745006
 40
4.489346956745006
 40
4.489346956745006
 10
111.9934747723165
 20
336.2745640947813
 30
0.0
 41
1.0
 10
114.3103597437701
 20
335.6686550563733
 30
0.0
 41
1.01528023573722
 10
116.3972070552515
 20
335.5036355130721
 30
0.0
 41
1.0
  0
LINE
  5
3EB
330
2
100
AcDbEntity
  8
AM_VIS
100
AcDbLine
 10
110.773124403238
 20
336.2745640947813
 30
0.0
 11
111.9934747723165
 21
336.2745640947813
 31
0.0
  0
SPLINE
  5
3EC
330
2
100
AcDbEntity
  8
AM_VIS
100
AcDbSpline
210
0.0
220
0.0
230
1.0
 70
    12
 71
     2
 72
     6
 73
     3
 74
     0
 42
0.0000000001
 43
0.0000000001
 40
0.0
 40
0.0
 40
0.0
 40
4.489200933507459
 40
4.489200933507459
 40
4.489200933507459
 10
108.8805185979469
 20
335.5036355130721
 30
0.0
 41
1.0
 10
109.7773894980629
 20
335.6686697953616
 30
0.0
 41
1.015279190562461
 10
110.773124403238
 20
336.2745640947812
 30
0.0
 41
1.0
  0
LINE
  5
3ED
330
2
100
AcDbEntity
  8
AM_VIS
100
AcDbLine
 10
108.8805185979469
 20
335.5036355130721
 30
0.0
 11
116.3972070552515
 21
335.5036355130721
 31
0.0
  0
SPLINE
  5
3EE
330
2
100
AcDbEntity
  8
AM_VIS
100
AcDbSpline
210
0.0
220
0.0
230
1.0
 70
    12
 71
     2
 72
     6
 73
     3
 74
     0
 42
0.0000000001
 43
0.0000000001
 40
0.0
 40
0.0
 40
0.0
 40
4.489200933507414
 40
4.489200933507414
 40
4.489200933507414
 10
105.5709331229346
 20
336.2745640947813
 30
0.0
 41
1.0
 10
106.5666680281098
 20
335.6686697953616
 30
0.0
 41
1.015279190563105
 10
107.4635389282258
 20
335.5036355130721
 30
0.0
 41
1.0
  0
LINE
  5
3EF
330
2
100
AcDbEntity
  8
AM_VIS
100
AcDbLine
 10
106.9017692942884
 20
335.5036355130721
 30
0.0
 11
107.4635389282257
 21
335.5036355130721
 31
0.0
  0
SPLINE
  5
3F0
330
2
100
AcDbEntity
  8
AM_VIS
100
AcDbSpline
210
0.0
220
0.0
230
1.0
 70
    12
 71
     2
 72
     6
 73
     3
 74
     0
 42
0.0000000001
 43
0.0000000001
 40
0.0
 40
0.0
 40
0.0
 40
0.3668901942460634
 40
0.3668901942460634
 40
0.3668901942460634
 10
132.459431795759
 20
336.2745640947813
 30
0.0
 41
1.0
 10
132.3769126058525
 20
336.2243523945652
 30
0.0
 41
1.001248762567205
 10
132.2954270290854
 20
336.1773066748836
 30
0.0
 41
1.00229341450275
  0
LINE
  5
3F1
330
2
100
AcDbEntity
  8
AM_VIS
100
AcDbLine
 10
132.3395769812167
 20
336.2745640947813
 30
0.0
 11
132.459431795759
 21
336.2745640947813
 31
0.0
  0
SPLINE
  5
3F2
330
2
100
AcDbEntity
  8
AM_VIS
100
AcDbSpline
210
0.0
220
0.0
230
1.0
 70
    12
 71
     2
 72
     6
 73
     3
 74
     0
 42
0.0000000001
 43
0.0000000001
 40
0.0
 40
0.0
 40
0.0
 40
4.489259339835413
 40
4.489259339835413
 40
4.489259339835413
 10
129.8285641464034
 20
335.5036355130721
 30
0.0
 41
1.0
 10
131.0184867045325
 20
335.6686639001227
 30
0.0
 41
1.015279608607052
 10
132.3395769812167
 20
336.2745640947813
 30
0.0
 41
1.0
  0
LINE
  5
3F3
330
2
100
AcDbEntity
  8
AM_VIS
100
AcDbLine
 10
129.8285641464035
 20
335.5036355130721
 30
0.0
 11
131.128594349234
 21
335.5036355130721
 31
0.0
  0
SPLINE
  5
3F4
330
2
100
AcDbEntity
  8
AM_VIS
100
AcDbSpline
210
0.0
220
0.0
230
1.0
 70
    12
 71
     2
 72
     6
 73
     3
 74
     0
 42
0.0000000001
 43
0.0000000001
 40
0.0
 40
0.0
 40
0.0
 40
4.489259339835388
 40
4.489259339835388
 40
4.489259339835388
 10
125.4376924009431
 20
336.2745640947813
 30
0.0
 41
1.0
 10
126.7587826776273
 20
335.6686639001227
 30
0.0
 41
1.01527960860693
 10
127.9487052357564
 20
335.5036355130721
 30
0.0
 41
1.0
  0
LINE
  5
3F5
330
2
100
AcDbEntity
  8
AM_VIS
100
AcDbLine
 10
124.0974655571861
 20
336.2745640947813
 30
0.0
 11
125.4376924009431
 21
336.2745640947813
 31
0.0
  0
SPLINE
  5
3F6
330
2
100
AcDbEntity
  8
AM_VIS
100
AcDbSpline
210
0.0
220
0.0
230
1.0
 70
    12
 71
     2
 72
     6
 73
     3
 74
     0
 42
0.0000000001
 43
0.0000000001
 40
0.0
 40
0.0
 40
0.0
 40
4.489346956745006
 40
4.489346956745006
 40
4.489346956745006
 10
119.6937332742511
 20
335.5036355130721
 30
0.0
 41
1.0
 10
121.7805805857326
 20
335.6686550563733
 30
0.0
 41
1.01528023573722
 10
124.0974655571862
 20
336.2745640947813
 30
0.0
 41
1.0
  0
LINE
  5
3F7
330
2
100
AcDbEntity
  8
AM_VIS
100
AcDbLine
 10
119.693733274251
 20
335.5036355130721
 30
0.0
 11
127.9487052357562
 21
335.5036355130721
 31
0.0
  0
LINE
  5
3F8
330
2
100
AcDbEntity
  8
AM_VIS
100
AcDbLine
 10
111.9934747723166
 20
339.6745640947813
 30
0.0
 11
111.9934747723166
 21
336.2745640947813
 31
0.0
  0
LINE
  5
3F9
330
2
100
AcDbEntity
  8
AM_VIS
100
AcDbLine
 10
110.773124403238
 20
339.6745640947813
 30
0.0
 11
111.9934747723165
 21
339.6745640947813
 31
0.0
  0
LINE
  5
3FA
330
2
100
AcDbEntity
  8
AM_VIS
100
AcDbLine
 10
110.773124403238
 20
336.2745640947813
 30
0.0
 11
110.773124403238
 21
339.6745640947813
 31
0.0
  0
LINE
  5
3FB
330
2
100
AcDbEntity
  8
AM_VIS
100
AcDbLine
 10
105.5709331229346
 20
339.6745640947813
 30
0.0
 11
105.5709331229346
 21
336.2745640947813
 31
0.0
  0
LINE
  5
3FC
330
2
100
AcDbEntity
  8
AM_VIS
100
AcDbLine
 10
132.459431795759
 20
339.6745640947813
 30
0.0
 11
132.459431795759
 21
336.2745640947813
 31
0.0
  0
LINE
  5
3FD
330
2
100
AcDbEntity
  8
AM_VIS
100
AcDbLine
 10
132.3395769812167
 20
339.6745640947813
 30
0.0
 11
132.459431795759
 21
339.6745640947813
 31
0.0
  0
LINE
  5
3FE
330
2
100
AcDbEntity
  8
AM_VIS
100
AcDbLine
 10
132.3395769812166
 20
336.2745640947813
 30
0.0
 11
132.3395769812166
 21
339.6745640947813
 31
0.0
  0
SPLINE
  5
3FF
330
2
100
AcDbEntity
  8
AM_VIS
100
AcDbSpline
210
0.0
220
0.0
230
1.0
 70
    12
 71
     2
 72
     6
 73
     3
 74
     0
 42
0.0000000001
 43
0.0000000001
 40
0.0
 40
0.0
 40
0.0
 40
5.590835352818166
 40
5.590835352818166
 40
5.590835352818166
 10
117.4950303725802
 20
340.5036355130722
 30
0.0
 41
1.0
 10
114.899393254469
 20
340.4345164855589
 30
0.0
 41
1.02435951945957
 10
111.9934747723165
 20
339.6745640947813
 30
0.0
 41
1.0
  0
SPLINE
  5
400
330
2
100
AcDbEntity
  8
AM_VIS
100
AcDbSpline
210
0.0
220
0.0
230
1.0
 70
    12
 71
     2
 72
     6
 73
     3
 74
     0
 42
0.0000000001
 43
0.0000000001
 40
0.0
 40
0.0
 40
0.0
 40
5.59028604994716
 40
5.59028604994716
 40
5.59028604994716
 10
110.773124403238
 20
339.6745640947813
 30
0.0
 41
1.0
 10
109.5243219306387
 20
340.4344473682475
 30
0.0
 41
1.024354465647418
 10
108.4088611663481
 20
340.5036355130721
 30
0.0
 41
1.0
  0
SPLINE
  5
401
330
2
100
AcDbEntity
  8
AM_VIS
100
AcDbSpline
210
0.0
220
0.0
230
1.0
 70
    12
 71
     2
 72
     6
 73
     3
 74
     0
 42
0.0000000001
 43
0.0000000001
 40
0.0
 40
0.0
 40
0.0
 40
5.590286049947125
 40
5.590286049947125
 40
5.590286049947125
 10
107.9351963598246
 20
340.5036355130722
 30
0.0
 41
1.0
 10
106.8197355955341
 20
340.4344473682476
 30
0.0
 41
1.02435446564768
 10
105.5709331229346
 20
339.6745640947813
 30
0.0
 41
1.0
  0
SPLINE
  5
402
330
2
100
AcDbEntity
  8
AM_VIS
100
AcDbSpline
210
0.0
220
0.0
230
1.0
 70
    12
 71
     2
 72
     6
 73
     3
 74
     0
 42
0.0000000001
 43
0.0000000001
 40
5.229543918782605
 40
5.229543918782605
 40
5.229543918782605
 40
5.590725438793505
 40
5.590725438793505
 40
5.590725438793505
 10
132.2954270290854
 20
339.7718215146789
 30
0.0
 41
1.00294397209394
 10
132.3769126058525
 20
339.7247757949974
 30
0.0
 41
1.001573649627224
 10
132.459431795759
 20
339.6745640947813
 30
0.0
 41
1.0
  0
SPLINE
  5
403
330
2
100
AcDbEntity
  8
AM_VIS
100
AcDbSpline
210
0.0
220
0.0
230
1.0
 70
    12
 71
     2
 72
     6
 73
     3
 74
     0
 42
0.0000000001
 43
0.0000000001
 40
0.0
 40
0.0
 40
0.0
 40
5.590505691017647
 40
5.590505691017647
 40
5.590505691017647
 10
132.3395769812167
 20
339.6745640947813
 30
0.0
 41
1.0
 10
130.6826854295136
 20
340.4344750042951
 30
0.0
 41
1.024356486367967
 10
129.2027095669081
 20
340.5036355130721
 30
0.0
 41
1.0
  0
LINE
  5
404
330
2
100
AcDbEntity
  8
AM_VIS
100
AcDbLine
 10
125.4376924009431
 20
339.6745640947813
 30
0.0
 11
125.4376924009431
 21
336.2745640947813
 31
0.0
  0
LINE
  5
405
330
2
100
AcDbEntity
  8
AM_VIS
100
AcDbLine
 10
124.0974655571861
 20
339.6745640947813
 30
0.0
 11
125.4376924009431
 21
339.6745640947813
 31
0.0
  0
LINE
  5
406
330
2
100
AcDbEntity
  8
AM_VIS
100
AcDbLine
 10
124.0974655571861
 20
336.2745640947813
 30
0.0
 11
124.0974655571861
 21
339.6745640947813
 31
0.0
  0
SPLINE
  5
407
330
2
100
AcDbEntity
  8
AM_VIS
100
AcDbSpline
210
0.0
220
0.0
230
1.0
 70
    12
 71
     2
 72
     6
 73
     3
 74
     0
 42
0.0000000001
 43
0.0000000001
 40
0.0
 40
0.0
 40
0.0
 40
5.590505691017647
 40
5.590505691017647
 40
5.590505691017647
 10
128.5745598152517
 20
340.5036355130721
 30
0.0
 41
1.0
 10
127.0945839526461
 20
340.4344750042951
 30
0.0
 41
1.024356486368036
 10
125.4376924009431
 20
339.6745640947813
 30
0.0
 41
1.0
  0
SPLINE
  5
408
330
2
100
AcDbEntity
  8
AM_VIS
100
AcDbSpline
210
0.0
220
0.0
230
1.0
 70
    12
 71
     2
 72
     6
 73
     3
 74
     0
 42
0.0000000001
 43
0.0000000001
 40
0.0
 40
0.0
 40
0.0
 40
5.590835352818166
 40
5.590835352818166
 40
5.590835352818166
 10
124.0974655571861
 20
339.6745640947813
 30
0.0
 41
1.0
 10
121.1915470750336
 20
340.4345164855589
 30
0.0
 41
1.02435951945957
 10
118.5959099569225
 20
340.5036355130722
 30
0.0
 41
1.0
  0
LINE
  5
409
330
2
100
AcDbEntity
  8
AM_VIS
100
AcDbLine
 10
119.6937332742511
 20
335.5036355130721
 30
0.0
 11
116.3972070552515
 21
335.5036355130721
 31
0.0
  0
LINE
  5
40A
330
2
100
AcDbEntity
  8
AM_VIS
100
AcDbLine
 10
108.8805185979469
 20
335.5036355130721
 30
0.0
 11
107.4635389282258
 21
335.5036355130721
 31
0.0
  0
LINE
  5
40B
330
2
100
AcDbEntity
  8
AM_VIS
100
AcDbLine
 10
129.8285641464035
 20
335.5036355130721
 30
0.0
 11
127.9487052357562
 21
335.5036355130721
 31
0.0
  0
LINE
  5
40C
330
2
100
AcDbEntity
  8
AM_VIS
100
AcDbLine
 10
125.0151818217612
 20
347.9886355130739
 30
0.0
 11
125.0151818217612
 21
347.6636355130721
 31
0.0
  0
LINE
  5
40D
330
2
100
AcDbEntity
  8
AM_VIS
100
AcDbLine
 10
113.0151818217612
 20
347.9886355130739
 30
0.0
 11
113.0151818217612
 21
347.6636355130722
 31
0.0
  0
LINE
  5
40E
330
2
100
AcDbEntity
  8
AM_VIS
100
AcDbLine
 10
106.9017692942884
 20
335.5036355130721
 30
0.0
 11
105.7349613821175
 21
336.1772923752566
 31
0.0
  0
LINE
  5
40F
330
2
100
AcDbEntity
  8
AM_VIS
100
AcDbLine
 10
131.128594349234
 20
335.5036355130721
 30
0.0
 11
132.2954270290853
 21
336.1773066748836
 31
0.0
  0
LINE
  5
410
330
2
100
AcDbEntity
  8
AM_VIS
100
AcDbLine
 10
107.0024756413442
 20
340.5036355130722
 30
0.0
 11
105.7349613821176
 21
339.7718358143059
 31
0.0
  0
LINE
  5
411
330
2
100
AcDbEntity
  8
AM_VIS
100
AcDbLine
 10
131.0278880021783
 20
340.5036355130722
 30
0.0
 11
132.2954270290854
 21
339.7718215146789
 31
0.0
  0
SPLINE
  5
412
330
2
100
AcDbEntity
  8
AM_VIS
100
AcDbSpline
210
0.0
220
0.0
230
1.0
 70
    12
 71
     2
 72
     6
 73
     3
 74
     0
 42
0.0000000001
 43
0.0000000001
 40
0.0
 40
0.0
 40
0.0
 40
4.489259339835058
 40
4.489259339835058
 40
4.489259339835058
 10
107.4635635986264
 20
422.0036355130721
 30
0.0
 41
1.0
 10
106.5666807055134
 20
421.8386071260216
 30
0.0
 41
1.015279608606588
 10
105.5709324853274
 20
421.232706931363
 30
0.0
 41
1.0
  0
LINE
  5
413
330
2
100
AcDbEntity
  8
AM_VIS
100
AcDbLine
 10
107.4635635986263
 20
422.0036355130721
 30
0.0
 11
106.9017692942885
 21
422.0036355130721
 31
0.0
  0
SPLINE
  5
414
330
2
100
AcDbEntity
  8
AM_VIS
100
AcDbSpline
210
0.0
220
0.0
230
1.0
 70
    12
 71
     2
 72
     6
 73
     3
 74
     0
 42
0.0000000001
 43
0.0000000001
 40
0.0
 40
0.0
 40
0.0
 40
4.489259339835054
 40
4.489259339835054
 40
4.489259339835054
 10
110.7731048183083
 20
421.232706931363
 30
0.0
 41
1.0
 10
109.7773565981223
 20
421.8386071260216
 30
0.0
 41
1.015279608606679
 10
108.8804737050093
 20
422.0036355130721
 30
0.0
 41
1.0
  0
LINE
  5
415
330
2
100
AcDbEntity
  8
AM_VIS
100
AcDbLine
 10
111.9934536337432
 20
421.232706931363
 30
0.0
 11
110.7731048183083
 21
421.232706931363
 31
0.0
  0
SPLINE
  5
416
330
2
100
AcDbEntity
  8
AM_VIS
100
AcDbSpline
210
0.0
220
0.0
230
1.0
 70
    12
 71
     2
 72
     6
 73
     3
 74
     0
 42
0.0000000001
 43
0.0000000001
 40
0.0
 40
0.0
 40
0.0
 40
4.489288544457886
 40
4.489288544457886
 40
4.489288544457886
 10
116.3971270257814
 20
422.0036355130721
 30
0.0
 41
1.0
 10
114.3103076216072
 20
421.8386100738167
 30
0.0
 41
1.015279817641361
 10
111.9934536337431
 20
421.232706931363
 30
0.0
 41
1.0
  0
LINE
  5
417
330
2
100
AcDbEntity
  8
AM_VIS
100
AcDbLine
 10
116.3971270257814
 20
422.0036355130721
 30
0.0
 11
108.8804737050094
 21
422.0036355130721
 31
0.0
  0
SPLINE
  5
418
330
2
100
AcDbEntity
  8
AM_VIS
100
AcDbSpline
210
0.0
220
0.0
230
1.0
 70
    12
 71
     2
 72
     6
 73
     3
 74
     0
 42
0.0000000001
 43
0.0000000001
 40
0.0
 40
0.0
 40
0.0
 40
4.489288544457886
 40
4.489288544457886
 40
4.489288544457886
 10
124.0974885042739
 20
421.232706931363
 30
0.0
 41
1.0
 10
121.7806345164099
 20
421.8386100738167
 30
0.0
 41
1.015279817641361
 10
119.6938151122356
 20
422.0036355130721
 30
0.0
 41
1.0
  0
LINE
  5
419
330
2
100
AcDbEntity
  8
AM_VIS
100
AcDbLine
 10
125.437714177015
 20
421.232706931363
 30
0.0
 11
124.0974885042739
 21
421.232706931363
 31
0.0
  0
SPLINE
  5
41A
330
2
100
AcDbEntity
  8
AM_VIS
100
AcDbSpline
210
0.0
220
0.0
230
1.0
 70
    12
 71
     2
 72
     6
 73
     3
 74
     0
 42
0.0000000001
 43
0.0000000001
 40
0.0
 40
0.0
 40
0.0
 40
4.489317750108253
 40
4.489317750108253
 40
4.489317750108253
 10
127.9487605910043
 20
422.0036355130721
 30
0.0
 41
1.0
 10
126.7588221203246
 20
421.8386130217346
 30
0.0
 41
1.015280026684792
 10
125.437714177015
 20
421.232706931363
 30
0.0
 41
1.0
  0
LINE
  5
41B
330
2
100
AcDbEntity
  8
AM_VIS
100
AcDbLine
 10
127.9487605910042
 20
422.0036355130721
 30
0.0
 11
119.6938151122356
 21
422.0036355130721
 31
0.0
  0
SPLINE
  5
41C
330
2
100
AcDbEntity
  8
AM_VIS
100
AcDbSpline
210
0.0
220
0.0
230
1.0
 70
    12
 71
     2
 72
     6
 73
     3
 74
     0
 42
0.0000000001
 43
0.0000000001
 40
0.0
 40
0.0
 40
0.0
 40
4.489317750108252
 40
4.489317750108252
 40
4.489317750108252
 10
132.3395736191687
 20
421.232706931363
 30
0.0
 41
1.0
 10
131.0184656758591
 20
421.8386130217345
 30
0.0
 41
1.015280026685218
 10
129.8285272051794
 20
422.0036355130721
 30
0.0
 41
1.0
  0
LINE
  5
41D
330
2
100
AcDbEntity
  8
AM_VIS
100
AcDbLine
 10
132.4594311581951
 20
421.232706931363
 30
0.0
 11
132.3395736191687
 21
421.232706931363
 31
0.0
  0
SPLINE
  5
41E
330
2
100
AcDbEntity
  8
AM_VIS
100
AcDbSpline
210
0.0
220
0.0
230
1.0
 70
    12
 71
     2
 72
     6
 73
     3
 74
     0
 42
0.0000000001
 43
0.0000000001
 40
4.122342387755557
 40
4.122342387755557
 40
4.122342387755557
 40
4.489259339835413
 40
4.489259339835413
 40
4.489259339835413
 10
132.2954146452452
 20
421.3299715010742
 30
0.0
 41
1.002293531308129
 10
132.3769060199011
 20
421.28292243398
 30
0.0
 41
1.001248835719809
 10
132.4594311581951
 20
421.232706931363
 30
0.0
 41
1.0
  0
LINE
  5
41F
330
2
100
AcDbEntity
  8
AM_VIS
100
AcDbLine
 10
131.128594349234
 20
422.0036355130721
 30
0.0
 11
129.8285272051795
 21
422.0036355130721
 31
0.0
  0
LINE
  5
420
330
2
100
AcDbEntity
  8
AM_VIS
100
AcDbLine
 10
105.5709324853274
 20
421.232706931363
 30
0.0
 11
105.5709324853274
 21
417.832706931363
 31
0.0
  0
LINE
  5
421
330
2
100
AcDbEntity
  8
AM_VIS
100
AcDbLine
 10
110.7731048183083
 20
417.832706931363
 30
0.0
 11
110.7731048183083
 21
421.232706931363
 31
0.0
  0
LINE
  5
422
330
2
100
AcDbEntity
  8
AM_VIS
100
AcDbLine
 10
111.9934536337432
 20
417.832706931363
 30
0.0
 11
110.7731048183083
 21
417.832706931363
 31
0.0
  0
LINE
  5
423
330
2
100
AcDbEntity
  8
AM_VIS
100
AcDbLine
 10
111.9934536337431
 20
421.232706931363
 30
0.0
 11
111.9934536337431
 21
417.832706931363
 31
0.0
  0
LINE
  5
424
330
2
100
AcDbEntity
  8
AM_VIS
100
AcDbLine
 10
124.0974885042739
 20
417.832706931363
 30
0.0
 11
124.0974885042739
 21
421.232706931363
 31
0.0
  0
LINE
  5
425
330
2
100
AcDbEntity
  8
AM_VIS
100
AcDbLine
 10
125.437714177015
 20
417.832706931363
 30
0.0
 11
124.0974885042739
 21
417.832706931363
 31
0.0
  0
LINE
  5
426
330
2
100
AcDbEntity
  8
AM_VIS
100
AcDbLine
 10
125.437714177015
 20
421.232706931363
 30
0.0
 11
125.437714177015
 21
417.832706931363
 31
0.0
  0
LINE
  5
427
330
2
100
AcDbEntity
  8
AM_VIS
100
AcDbLine
 10
132.3395736191687
 20
417.832706931363
 30
0.0
 11
132.3395736191687
 21
421.232706931363
 31
0.0
  0
LINE
  5
428
330
2
100
AcDbEntity
  8
AM_VIS
100
AcDbLine
 10
132.4594311581951
 20
417.832706931363
 30
0.0
 11
132.3395736191687
 21
417.832706931363
 31
0.0
  0
LINE
  5
429
330
2
100
AcDbEntity
  8
AM_VIS
100
AcDbLine
 10
132.4594311581951
 20
421.232706931363
 30
0.0
 11
132.4594311581951
 21
417.832706931363
 31
0.0
  0
SPLINE
  5
42A
330
2
100
AcDbEntity
  8
AM_VIS
100
AcDbSpline
210
0.0
220
0.0
230
1.0
 70
    12
 71
     2
 72
     6
 73
     3
 74
     0
 42
0.0000000001
 43
0.0000000001
 40
0.0
 40
0.0
 40
0.0
 40
5.590505691017254
 40
5.590505691017254
 40
5.590505691017254
 10
105.5709324853274
 20
417.832706931363
 30
0.0
 41
1.0
 10
106.8197849239285
 20
417.0727960218492
 30
0.0
 41
1.024356486367964
 10
107.9352903190681
 20
417.0036355130721
 30
0.0
 41
1.0
  0
SPLINE
  5
42B
330
2
100
AcDbEntity
  8
AM_VIS
100
AcDbSpline
210
0.0
220
0.0
230
1.0
 70
    12
 71
     2
 72
     6
 73
     3
 74
     0
 42
0.0000000001
 43
0.0000000001
 40
0.0
 40
0.0
 40
0.0
 40
5.590505691017281
 40
5.590505691017281
 40
5.590505691017281
 10
108.4087469845676
 20
417.0036355130721
 30
0.0
 41
1.0
 10
109.5242523797071
 20
417.0727960218492
 30
0.0
 41
1.024356486368125
 10
110.7731048183083
 20
417.832706931363
 30
0.0
 41
1.0
  0
SPLINE
  5
42C
330
2
100
AcDbEntity
  8
AM_VIS
100
AcDbSpline
210
0.0
220
0.0
230
1.0
 70
    12
 71
     2
 72
     6
 73
     3
 74
     0
 42
0.0000000001
 43
0.0000000001
 40
0.0
 40
0.0
 40
0.0
 40
5.59061555148098
 40
5.59061555148098
 40
5.59061555148098
 10
111.9934536337431
 20
417.832706931363
 30
0.0
 41
1.0
 10
114.8992557738499
 20
417.072782198401
 30
0.0
 41
1.024357497129432
 10
117.4947889724141
 20
417.0036355130721
 30
0.0
 41
1.0
  0
SPLINE
  5
42D
330
2
100
AcDbEntity
  8
AM_VIS
100
AcDbSpline
210
0.0
220
0.0
230
1.0
 70
    12
 71
     2
 72
     6
 73
     3
 74
     0
 42
0.0000000001
 43
0.0000000001
 40
0.0
 40
0.0
 40
0.0
 40
5.59061555148098
 40
5.59061555148098
 40
5.59061555148098
 10
118.5961531656029
 20
417.0036355130721
 30
0.0
 41
1.0
 10
121.1916863641671
 20
417.072782198401
 30
0.0
 41
1.024357497129432
 10
124.0974885042739
 20
417.832706931363
 30
0.0
 41
1.0
  0
SPLINE
  5
42E
330
2
100
AcDbEntity
  8
AM_VIS
100
AcDbSpline
210
0.0
220
0.0
230
1.0
 70
    12
 71
     2
 72
     6
 73
     3
 74
     0
 42
0.0000000001
 43
0.0000000001
 40
0.0
 40
0.0
 40
0.0
 40
5.590725438793462
 40
5.590725438793462
 40
5.590725438793462
 10
125.437714177015
 20
417.832706931363
 30
0.0
 41
1.0
 10
127.0946720522874
 20
417.0727683713074
 30
0.0
 41
1.024358508160214
 10
128.5747071567193
 20
417.0036355130721
 30
0.0
 41
1.0
  0
SPLINE
  5
42F
330
2
100
AcDbEntity
  8
AM_VIS
100
AcDbSpline
210
0.0
220
0.0
230
1.0
 70
    12
 71
     2
 72
     6
 73
     3
 74
     0
 42
0.0000000001
 43
0.0000000001
 40
0.0
 40
0.0
 40
0.0
 40
5.590725438793505
 40
5.590725438793505
 40
5.590725438793505
 10
129.2025806394644
 20
417.0036355130721
 30
0.0
 41
1.0
 10
130.6826157438964
 20
417.0727683713074
 30
0.0
 41
1.02435850816068
 10
132.3395736191687
 20
417.832706931363
 30
0.0
 41
1.0
  0
SPLINE
  5
430
330
2
100
AcDbEntity
  8
AM_VIS
100
AcDbSpline
210
0.0
220
0.0
230
1.0
 70
    12
 71
     2
 72
     6
 73
     3
 74
     0
 42
0.0000000001
 43
0.0000000001
 40
0.0
 40
0.0
 40
0.0
 40
0.3612085469698997
 40
0.3612085469698997
 40
0.3612085469698997
 10
132.4594311581951
 20
417.832706931363
 30
0.0
 41
1.0
 10
132.3769060199011
 20
417.7824914287461
 30
0.0
 41
1.001573698612703
 10
132.2954146452452
 20
417.7354423616518
 30
0.0
 41
1.002944040527218
  0
LINE
  5
431
330
2
100
AcDbEntity
  8
AM_VIS
100
AcDbLine
 10
107.4635635986263
 20
422.0036355130721
 30
0.0
 11
108.8804737050093
 21
422.0036355130721
 31
0.0
  0
LINE
  5
432
330
2
100
AcDbEntity
  8
AM_VIS
100
AcDbLine
 10
116.3971270257814
 20
422.0036355130721
 30
0.0
 11
119.6938151122356
 21
422.0036355130721
 31
0.0
  0
LINE
  5
433
330
2
100
AcDbEntity
  8
AM_VIS
100
AcDbLine
 10
127.9487605910042
 20
422.0036355130721
 30
0.0
 11
129.8285272051795
 21
422.0036355130721
 31
0.0
  0
LINE
  5
434
330
2
100
AcDbEntity
  8
AM_VIS
100
AcDbLine
 10
113.0151818217613
 20
409.063635513072
 30
0.0
 11
113.0151818217613
 21
409.1636355130721
 31
0.0
  0
LINE
  5
435
330
2
100
AcDbEntity
  8
AM_VIS
100
AcDbLine
 10
125.0151818217613
 20
409.063635513072
 30
0.0
 11
125.0151818217613
 21
409.1636355130721
 31
0.0
  0
LINE
  5
436
330
2
100
AcDbEntity
  8
AM_VIS
100
AcDbLine
 10
106.9017692942885
 20
422.0036355130721
 30
0.0
 11
105.7349489982774
 21
421.3299715010743
 31
0.0
  0
LINE
  5
437
330
2
100
AcDbEntity
  8
AM_VIS
100
AcDbLine
 10
131.128594349234
 20
422.0036355130721
 30
0.0
 11
132.2954146452451
 21
421.3299715010743
 31
0.0
  0
LINE
  5
438
330
2
100
AcDbEntity
  8
AM_VIS
100
AcDbLine
 10
107.0024756413442
 20
417.0036355130721
 30
0.0
 11
105.7349489982774
 21
417.7354423616518
 31
0.0
  0
LINE
  5
439
330
2
100
AcDbEntity
  8
AM_VIS
100
AcDbLine
 10
131.0278880021783
 20
417.0036355130721
 30
0.0
 11
132.2954146452452
 21
417.7354423616518
 31
0.0
  0
LINE
  5
43A
330
2
100
AcDbEntity
  8
AM_VIS
100
AcDbLine
 10
106.8051757944803
 20
371.4886355130721
 30
0.0
 11
106.7855532946706
 21
371.4886355130721
 31
0.0
  0
LINE
  5
43B
330
2
100
AcDbEntity
  8
AM_VIS
100
AcDbLine
 10
106.7855532946706
 20
371.4886355130721
 30
0.0
 11
94.80517579448038
 21
371.4886355130721
 31
0.0
  0
LINE
  5
43C
330
2
100
AcDbEntity
  8
AM_VIS
100
AcDbLine
 10
106.8051757944803
 20
385.238635513072
 30
0.0
 11
106.8051757944803
 21
384.2386355130722
 31
0.0
  0
LINE
  5
43D
330
2
100
AcDbEntity
  8
AM_VIS
100
AcDbLine
 10
106.8051757944803
 20
372.2386355130721
 30
0.0
 11
106.8051757944803
 21
371.4886355130721
 31
0.0
  0
LINE
  5
43E
330
2
100
AcDbEntity
  8
AM_VIS
100
AcDbLine
 10
94.80517579448038
 20
385.238635513072
 30
0.0
 11
94.80517579448038
 21
384.2386355130721
 31
0.0
  0
LINE
  5
43F
330
2
100
AcDbEntity
  8
AM_VIS
100
AcDbLine
 10
94.80517579448038
 20
372.2386355130721
 30
0.0
 11
94.80517579448038
 21
371.4886355130721
 31
0.0
  0
SPLINE
  5
440
330
2
100
AcDbEntity
  8
AM_VIS
100
AcDbSpline
210
0.0
220
0.0
230
1.0
 70
    12
 71
     2
 72
     6
 73
     3
 74
     0
 42
0.0000000001
 43
0.0000000001
 40
1.758602658732453
 40
1.758602658732453
 40
1.758602658732453
 40
9.96426167380382
 40
9.96426167380382
 40
9.96426167380382
 10
96.41724145368156
 20
361.0199984891341
 30
0.0
 41
1.087572144626077
 10
100.1509623989396
 20
360.5172215049819
 30
0.0
 41
1.255820219371631
 10
103.884682473774
 20
361.0199980202947
 30
0.0
 41
1.087572280497931
  0
LINE
  5
441
330
2
100
AcDbEntity
  8
AM_VIS
100
AcDbLine
 10
103.884682473774
 20
363.6772764155847
 30
0.0
 11
103.884682473774
 21
361.0199980202947
 31
0.0
  0
SPLINE
  5
442
330
2
100
AcDbEntity
  8
AM_VIS
100
AcDbSpline
210
0.0
220
0.0
230
1.0
 70
    12
 71
     2
 72
     6
 73
     3
 74
     0
 42
0.0000000001
 43
0.0000000001
 40
1.758605972049861
 40
1.758605972049861
 40
1.758605972049861
 40
9.964264987121234
 40
9.964264987121234
 40
9.964264987121234
 10
103.884682473774
 20
363.6772764155847
 30
0.0
 41
1.087572280497931
 10
100.1509623989397
 20
364.1800529308976
 30
0.0
 41
1.255820219371631
 10
96.41724145368156
 20
363.6772759467453
 30
0.0
 41
1.087572144626077
  0
LINE
  5
443
330
2
100
AcDbEntity
  8
AM_VIS
100
AcDbLine
 10
96.41724145368156
 20
363.6772759467453
 30
0.0
 11
96.41724145368156
 21
361.0199984891341
 31
0.0
  0
SPLINE
  5
444
330
2
100
AcDbEntity
  8
AM_VIS
100
AcDbSpline
210
0.0
220
0.0
230
1.0
 70
    12
 71
     2
 72
     6
 73
     3
 74
     0
 42
0.0000000001
 43
0.0000000001
 40
1.758604772090482
 40
1.758604772090482
 40
1.758604772090482
 40
9.964264660755395
 40
9.964264660755395
 40
9.964264660755395
 10
103.884682473774
 20
361.0199980202947
 30
0.0
 41
1.087572289972704
 10
106.0786489016175
 20
360.5172210654449
 30
0.0
 41
1.255820421171479
 10
108.2726150737268
 20
361.019997785875
 30
0.0
 41
1.087572357908661
  0
LINE
  5
445
330
2
100
AcDbEntity
  8
AM_VIS
100
AcDbLine
 10
108.2726150737268
 20
363.6772766500044
 30
0.0
 11
108.2726150737268
 21
361.0199977858749
 31
0.0
  0
SPLINE
  5
446
330
2
100
AcDbEntity
  8
AM_VIS
100
AcDbSpline
210
0.0
220
0.0
230
1.0
 70
    12
 71
     2
 72
     6
 73
     3
 74
     0
 42
0.0000000001
 43
0.0000000001
 40
1.758606428749256
 40
1.758606428749256
 40
1.758606428749256
 40
9.964266317414162
 40
9.964266317414162
 40
9.964266317414162
 10
108.2726150737268
 20
363.6772766500044
 30
0.0
 41
1.087572357908662
 10
106.0786489016176
 20
364.1800533704346
 30
0.0
 41
1.255820421171479
 10
103.884682473774
 20
363.6772764155847
 30
0.0
 41
1.087572289972703
  0
SPLINE
  5
447
330
2
100
AcDbEntity
  8
AM_VIS
100
AcDbSpline
210
0.0
220
0.0
230
1.0
 70
    12
 71
     2
 72
     6
 73
     3
 74
     0
 42
0.0000000001
 43
0.0000000001
 40
1.758606428749267
 40
1.758606428749267
 40
1.758606428749267
 40
2.575547941566969
 40
2.575547941566969
 40
2.575547941566969
 10
108.2726150737268
 20
361.019997785875
 30
0.0
 41
1.087572357908663
 10
108.0982898179256
 20
360.963075268674
 30
0.0
 41
1.104322848325703
 10
107.9327436813394
 20
360.9187173150656
 30
0.0
 41
1.117738037516485
  0
SPLINE
  5
448
330
2
100
AcDbEntity
  8
AM_VIS
100
AcDbSpline
210
0.0
220
0.0
230
1.0
 70
    12
 71
     2
 72
     6
 73
     3
 74
     0
 42
0.0000000001
 43
0.0000000001
 40
9.147323147937727
 40
9.147323147937727
 40
9.147323147937727
 40
9.964264660755373
 40
9.964264660755373
 40
9.964264660755373
 10
107.9327436813394
 20
363.7785571208139
 30
0.0
 41
1.117738037516482
 10
108.0982898179256
 20
363.7341991672055
 30
0.0
 41
1.104322848325701
 10
108.2726150737268
 20
363.6772766500044
 30
0.0
 41
1.087572357908662
  0
LINE
  5
449
330
2
100
AcDbEntity
  8
AM_VIS
100
AcDbLine
 10
93.33773303354178
 20
363.6772757123257
 30
0.0
 11
93.33773303354178
 21
361.0199987235539
 31
0.0
  0
SPLINE
  5
44A
330
2
100
AcDbEntity
  8
AM_VIS
100
AcDbSpline
210
0.0
220
0.0
230
1.0
 70
    12
 71
     2
 72
     6
 73
     3
 74
     0
 42
0.0000000001
 43
0.0000000001
 40
1.758602202031911
 40
1.758602202031911
 40
1.758602202031911
 40
9.964260343510504
 40
9.964260343510504
 40
9.964260343510504
 10
93.33773303354178
 20
361.0199987235538
 30
0.0
 41
1.08757206721543
 10
94.87748733335044
 20
360.5172219445188
 30
0.0
 41
1.255820017571921
 10
96.41724145368156
 20
361.0199984891341
 30
0.0
 41
1.087572135151323
  0
SPLINE
  5
44B
330
2
100
AcDbEntity
  8
AM_VIS
100
AcDbSpline
210
0.0
220
0.0
230
1.0
 70
    12
 71
     2
 72
     6
 73
     3
 74
     0
 42
0.0000000001
 43
0.0000000001
 40
1.758603858690499
 40
1.758603858690499
 40
1.758603858690499
 40
9.964262000169108
 40
9.964262000169108
 40
9.964262000169108
 10
96.41724145368156
 20
363.6772759467453
 30
0.0
 41
1.087572135151323
 10
94.87748733335044
 20
364.1800524913607
 30
0.0
 41
1.255820017571922
 10
93.33773303354178
 20
363.6772757123257
 30
0.0
 41
1.08757206721543
  0
LINE
  5
44C
330
2
100
AcDbEntity
  8
AM_VIS
100
AcDbLine
 10
105.8051757944818
 20
360.3486372179397
 30
0.0
 11
100.301935725323
 21
360.3486372179397
 31
0.0
  0
LINE
  5
44D
330
2
100
AcDbEntity
  8
AM_VIS
100
AcDbLine
 10
100.301935725323
 20
360.3486372179397
 30
0.0
 11
95.80517579448189
 21
360.3486372179397
 31
0.0
  0
LINE
  5
44E
330
2
100
AcDbEntity
  8
AM_VIS
100
AcDbLine
 10
95.80517579448189
 20
360.3486372179397
 30
0.0
 11
93.67760458439425
 21
360.9187182055224
 31
0.0
  0
LINE
  5
44F
330
2
100
AcDbEntity
  8
AM_VIS
100
AcDbLine
 10
105.8051757944819
 20
360.3486372179397
 30
0.0
 11
107.9327436813394
 21
360.9187173150656
 31
0.0
  0
LINE
  5
450
330
2
100
AcDbEntity
  8
AM_VIS
100
AcDbLine
 10
105.8051757944819
 20
364.3486372179397
 30
0.0
 11
107.9327436813395
 21
363.7785571208139
 31
0.0
  0
LINE
  5
451
330
2
100
AcDbEntity
  8
AM_VIS
100
AcDbLine
 10
95.80517579448189
 20
364.3486372179397
 30
0.0
 11
93.67760458439425
 21
363.778556230357
 31
0.0
  0
LINE
  5
452
330
2
100
AcDbEntity
  8
AM_VIS
100
AcDbLine
 10
92.30517579448193
 20
392.5486372179399
 30
0.0
 11
109.3051757944819
 21
392.5486372179399
 31
0.0
  0
LINE
  5
453
330
2
100
AcDbEntity
  8
AM_VIS
100
AcDbLine
 10
109.3051757944819
 20
390.9486372179399
 30
0.0
 11
92.30517579448193
 21
390.9486372179399
 31
0.0
  0
LINE
  5
454
330
2
100
AcDbEntity
  8
AM_VIS
100
AcDbLine
 10
92.30517579448198
 20
390.9486372179399
 30
0.0
 11
92.30517579448198
 21
392.5486372179399
 31
0.0
  0
LINE
  5
455
330
2
100
AcDbEntity
  8
AM_VIS
100
AcDbLine
 10
109.3051757944819
 20
390.9486372179399
 30
0.0
 11
109.3051757944819
 21
392.5486372179399
 31
0.0
  0
LINE
  5
456
330
2
100
AcDbEntity
  8
AM_VIS
100
AcDbLine
 10
109.3051757944818
 20
364.3486372179398
 30
0.0
 11
92.3051757944818
 21
364.3486372179398
 31
0.0
  0
LINE
  5
457
330
2
100
AcDbEntity
  8
AM_VIS
100
AcDbLine
 10
92.3051757944818
 20
364.3486372179398
 30
0.0
 11
92.3051757944818
 21
365.7386355130721
 31
0.0
  0
LINE
  5
458
330
2
100
AcDbEntity
  8
AM_VIS
100
AcDbLine
 10
109.3051757944818
 20
364.3486372179398
 30
0.0
 11
109.3051757944818
 21
365.7386355130721
 31
0.0
  0
LINE
  5
459
330
2
100
AcDbEntity
  8
AM_VIS
100
AcDbLine
 10
55.96763191745631
 20
394.9458952953548
 30
0.0
 11
55.96763191745631
 21
398.5313757307896
 31
0.0
  0
SPLINE
  5
45A
330
2
100
AcDbEntity
  8
AM_VIS
100
AcDbSpline
210
0.0
220
0.0
230
1.0
 70
    12
 71
     2
 72
     6
 73
     3
 74
     0
 42
0.0000000001
 43
0.0000000001
 40
3.513110476771644
 40
3.513110476771644
 40
3.513110476771644
 40
10.94354333641812
 40
10.94354333641812
 40
10.94354333641812
 10
53.08088057150821
 20
394.945895115032
 30
0.0
 41
1.27461328245827
 10
54.52425616036052
 20
394.5591439268663
 30
0.0
 41
1.471796511733411
 10
55.96763191745631
 20
394.9458952953548
 30
0.0
 41
1.274613202838728
  0
SPLINE
  5
45B
330
2
100
AcDbEntity
  8
AM_VIS
100
AcDbSpline
210
0.0
220
0.0
230
1.0
 70
    12
 71
     2
 72
     6
 73
     3
 74
     0
 42
0.0000000001
 43
0.0000000001
 40
3.513108976624988
 40
3.513108976624988
 40
3.513108976624988
 40
10.94354183627143
 40
10.94354183627143
 40
10.94354183627143
 10
55.96763191745631
 20
398.5313757307896
 30
0.0
 41
1.27461320283873
 10
54.52425616036052
 20
398.9181270992781
 30
0.0
 41
1.47179651173341
 10
53.0808805715082
 20
398.5313759111123
 30
0.0
 41
1.274613282458269
  0
LINE
  5
45C
330
2
100
AcDbEntity
  8
AM_VIS
100
AcDbLine
 10
53.08088057150817
 20
394.945895115032
 30
0.0
 11
53.08088057150817
 21
398.5313759111124
 31
0.0
  0
SPLINE
  5
45D
330
2
100
AcDbEntity
  8
AM_VIS
100
AcDbSpline
210
0.0
220
0.0
230
1.0
 70
    12
 71
     2
 72
     6
 73
     3
 74
     0
 42
0.0000000001
 43
0.0000000001
 40
7.239048164719878
 40
7.239048164719878
 40
7.239048164719878
 40
10.67298555067821
 40
10.67298555067821
 40
10.67298555067821
 10
50.19412787961193
 20
394.7386355130722
 30
0.0
 41
1.0
 10
51.53387438273606
 20
394.7386355130722
 30
0.0
 41
1.081513766124146
 10
53.0808805715082
 20
394.945895115032
 30
0.0
 41
1.085693285370878
  0
SPLINE
  5
45E
330
2
100
AcDbEntity
  8
AM_VIS
100
AcDbSpline
210
0.0
220
0.0
230
1.0
 70
    12
 71
     2
 72
     6
 73
     3
 74
     0
 42
0.0000000001
 43
0.0000000001
 40
3.80511077876152
 40
3.80511077876152
 40
3.80511077876152
 40
7.239048164719878
 40
7.239048164719878
 40
7.239048164719878
 10
53.0808805715082
 20
398.5313759111123
 30
0.0
 41
1.085693285370907
 10
51.53387438273608
 20
398.7386355130722
 30
0.0
 41
1.081513766124174
 10
50.19412787961193
 20
398.7386355130722
 30
0.0
 41
1.0
  0
SPLINE
  5
45F
330
2
100
AcDbEntity
  8
AM_VIS
100
AcDbSpline
210
0.0
220
0.0
230
1.0
 70
    12
 71
     2
 72
     6
 73
     3
 74
     0
 42
0.0000000001
 43
0.0000000001
 40
7.239048164719878
 40
7.239048164719878
 40
7.239048164719878
 40
10.6729825514895
 40
10.6729825514895
 40
10.6729825514895
 10
50.19412787961193
 20
398.7386355130722
 30
0.0
 41
1.0
 10
48.8543824584249
 20
398.7386355130722
 30
0.0
 41
1.08151369493034
 10
47.30737787961191
 20
398.5313762717581
 30
0.0
 41
1.085693278070094
  0
LINE
  5
460
330
2
100
AcDbEntity
  8
AM_VIS
100
AcDbLine
 10
47.30737787961191
 20
394.9458947543863
 30
0.0
 11
47.30737787961191
 21
398.5313762717581
 31
0.0
  0
SPLINE
  5
461
330
2
100
AcDbEntity
  8
AM_VIS
100
AcDbSpline
210
0.0
220
0.0
230
1.0
 70
    12
 71
     2
 72
     6
 73
     3
 74
     0
 42
0.0000000001
 43
0.0000000001
 40
3.805113777950255
 40
3.805113777950255
 40
3.805113777950255
 40
7.239048164719878
 40
7.239048164719878
 40
7.239048164719878
 10
47.30737787961191
 20
394.9458947543863
 30
0.0
 41
1.085693278070065
 10
48.85438245842493
 20
394.7386355130722
 30
0.0
 41
1.081513694930313
 10
50.19412787961193
 20
394.7386355130722
 30
0.0
 41
1.0
  0
SPLINE
  5
462
330
2
100
AcDbEntity
  8
AM_VIS
100
AcDbSpline
210
0.0
220
0.0
230
1.0
 70
    12
 71
     2
 72
     6
 73
     3
 74
     0
 42
0.0000000001
 43
0.0000000001
 40
0.0
 40
0.0
 40
0.0
 40
3.430020985342803
 40
3.430020985342803
 40
3.430020985342803
 10
45.86570893277257
 20
394.7386355130722
 30
0.0
 41
1.0
 10
46.53478986128925
 20
394.7388803464044
 30
0.0
 41
1.081360322680671
 10
47.30737787961191
 20
394.9458947543863
 30
0.0
 41
1.085583719899271
  0
SPLINE
  5
463
330
2
100
AcDbEntity
  8
AM_VIS
100
AcDbSpline
210
0.0
220
0.0
230
1.0
 70
    12
 71
     2
 72
     6
 73
     3
 74
     0
 42
0.0000000001
 43
0.0000000001
 40
3.80562167210728
 40
3.80562167210728
 40
3.80562167210728
 40
7.235642657451362
 40
7.235642657451362
 40
7.235642657451362
 10
47.30737787961191
 20
398.5313762717581
 30
0.0
 41
1.08558371989931
 10
46.53478986128894
 20
398.73839067974
 30
0.0
 41
1.081360322680724
 10
45.86570893277204
 20
398.7386355130722
 30
0.0
 41
1.0
  0
LINE
  5
464
330
2
100
AcDbEntity
  8
AM_VIS
100
AcDbLine
 10
45.86570893278457
 20
398.7386355130722
 30
0.0
 11
45.86229480751708
 21
398.7386355130722
 31
0.0
  0
SPLINE
  5
465
330
2
100
AcDbEntity
  8
AM_VIS
100
AcDbSpline
210
0.0
220
0.0
230
1.0
 70
    12
 71
     2
 72
     6
 73
     3
 74
     0
 42
0.0000000001
 43
0.0000000001
 40
0.0
 40
0.0
 40
0.0
 40
3.430019485624504
 40
3.430019485624504
 40
3.430019485624504
 10
45.86229480752962
 20
398.7386355130722
 30
0.0
 41
1.0
 10
45.19321414954641
 20
398.738390679839
 30
0.0
 41
1.081360287107379
 10
44.4206265336638
 20
398.531376452081
 30
0.0
 41
1.085583716206181
  0
LINE
  5
466
330
2
100
AcDbEntity
  8
AM_VIS
100
AcDbLine
 10
44.4206265336638
 20
394.9458945740634
 30
0.0
 11
44.4206265336638
 21
398.531376452081
 31
0.0
  0
SPLINE
  5
467
330
2
100
AcDbEntity
  8
AM_VIS
100
AcDbSpline
210
0.0
220
0.0
230
1.0
 70
    12
 71
     2
 72
     6
 73
     3
 74
     0
 42
0.0000000001
 43
0.0000000001
 40
3.805623171827114
 40
3.805623171827114
 40
3.805623171827114
 40
7.235642657450311
 40
7.235642657450311
 40
7.235642657450311
 10
44.4206265336638
 20
394.9458945740634
 30
0.0
 41
1.085583716205988
 10
45.1932141495462
 20
394.7388803463054
 30
0.0
 41
1.081360287107178
 10
45.86229480752908
 20
394.7386355130722
 30
0.0
 41
1.0
  0
LINE
  5
468
330
2
100
AcDbEntity
  8
AM_VIS
100
AcDbLine
 10
45.86229480751708
 20
394.7386355130722
 30
0.0
 11
45.86570893278457
 21
394.7386355130722
 31
0.0
  0
LINE
  5
469
330
2
100
AcDbEntity
  8
AM_VIS
100
AcDbLine
 10
45.19412787961193
 20
394.7386355130722
 30
0.0
 11
45.86229480751708
 21
394.7386355130722
 31
0.0
  0
LINE
  5
46A
330
2
100
AcDbEntity
  8
AM_VIS
100
AcDbLine
 10
45.86570893278454
 20
394.7386355130722
 30
0.0
 11
50.19412787961193
 21
394.7386355130722
 31
0.0
  0
LINE
  5
46B
330
2
100
AcDbEntity
  8
AM_VIS
100
AcDbLine
 10
50.19412787961193
 20
394.7386355130722
 30
0.0
 11
55.19412787961193
 21
394.7386355130722
 31
0.0
  0
LINE
  5
46C
330
2
100
AcDbEntity
  8
AM_VIS
100
AcDbLine
 10
45.19412787961193
 20
398.7386355130722
 30
0.0
 11
45.86229480751708
 21
398.7386355130722
 31
0.0
  0
LINE
  5
46D
330
2
100
AcDbEntity
  8
AM_VIS
100
AcDbLine
 10
50.19412787961193
 20
398.7386355130722
 30
0.0
 11
55.19412787961193
 21
398.7386355130722
 31
0.0
  0
LINE
  5
46E
330
2
100
AcDbEntity
  8
AM_VIS
100
AcDbLine
 10
45.86570893278454
 20
398.7386355130722
 30
0.0
 11
50.19412787961193
 21
398.7386355130722
 31
0.0
  0
LINE
  5
46F
330
2
100
AcDbEntity
  8
AM_VIS
100
AcDbLine
 10
45.19412787961193
 20
394.7386355130722
 30
0.0
 11
44.4206265336638
 21
394.9458945740634
 31
0.0
  0
LINE
  5
470
330
2
100
AcDbEntity
  8
AM_VIS
100
AcDbLine
 10
45.19412787961193
 20
398.7386355130722
 30
0.0
 11
44.4206265336638
 21
398.531376452081
 31
0.0
  0
LINE
  5
471
330
2
100
AcDbEntity
  8
AM_VIS
100
AcDbLine
 10
55.19412787961193
 20
398.7386355130722
 30
0.0
 11
55.96763191745631
 21
398.5313757307896
 31
0.0
  0
LINE
  5
472
330
2
100
AcDbEntity
  8
AM_VIS
100
AcDbLine
 10
55.19412787961193
 20
394.7386355130722
 30
0.0
 11
55.96763191745631
 21
394.9458952953548
 31
0.0
  0
LINE
  5
473
330
2
100
AcDbEntity
  8
AM_VIS
100
AcDbLine
 10
47.19412787961192
 20
402.2386355130721
 30
0.0
 11
53.19412787961192
 21
402.2386355130721
 31
0.0
  0
LINE
  5
474
330
2
100
AcDbEntity
  8
AM_VIS
100
AcDbLine
 10
55.19412787961193
 20
359.2386355130721
 30
0.0
 11
45.19412787961193
 21
359.2386355130721
 31
0.0
  0
LINE
  5
475
330
2
100
AcDbEntity
  8
AM_VIS
100
AcDbLine
 10
47.19412787961192
 20
394.4886355130721
 30
0.0
 11
47.19412787961192
 21
394.7386355130721
 31
0.0
  0
LINE
  5
476
330
2
100
AcDbEntity
  8
AM_VIS
100
AcDbLine
 10
47.19412787961192
 20
398.7386355130722
 30
0.0
 11
47.19412787961192
 21
402.2386355130721
 31
0.0
  0
LINE
  5
477
330
2
100
AcDbEntity
  8
AM_VIS
100
AcDbLine
 10
53.19412787961192
 20
394.4886355130721
 30
0.0
 11
53.19412787961192
 21
394.7386355130721
 31
0.0
  0
LINE
  5
478
330
2
100
AcDbEntity
  8
AM_VIS
100
AcDbLine
 10
53.19412787961192
 20
398.7386355130722
 30
0.0
 11
53.19412787961192
 21
402.2386355130721
 31
0.0
  0
LINE
  5
479
330
2
100
AcDbEntity
  8
AM_VIS
100
AcDbLine
 10
55.19412787961193
 20
361.9886355130721
 30
0.0
 11
55.19412787961193
 21
359.2386355130721
 31
0.0
  0
LINE
  5
47A
330
2
100
AcDbEntity
  8
AM_VIS
100
AcDbLine
 10
45.19412787961193
 20
361.9886355130721
 30
0.0
 11
45.19412787961193
 21
359.2386355130721
 31
0.0
  0
LINE
  5
47B
330
2
100
AcDbEntity
  8
AM_VIS
100
AcDbLine
 10
121.4678522055227
 20
372.2386355130739
 30
0.0
 11
114.8732335140525
 21
372.2386355130739
 31
0.0
  0
LINE
  5
47C
330
2
100
AcDbEntity
  8
AM_VIS
100
AcDbLine
 10
125.2060033269744
 20
384.2386355130739
 30
0.0
 11
114.8732335140525
 21
384.2386355130739
 31
0.0
  0
SPLINE
  5
47D
330
2
100
AcDbEntity
  8
AM_VIS
100
AcDbSpline
210
0.0
220
0.0
230
1.0
 70
    12
 71
     2
 72
     6
 73
     3
 74
     0
 42
0.0000000001
 43
0.0000000001
 40
19.64818542040488
 40
19.64818542040488
 40
19.64818542040488
 40
19.93461891473044
 40
19.93461891473044
 40
19.93461891473044
 10
114.8732335140525
 20
372.6236019727609
 30
0.0
 41
1.255104754744431
 10
114.9828536313334
 20
372.6883220627188
 30
0.0
 41
1.251267976220409
 10
115.0936974300791
 20
372.7538053984694
 30
0.0
 41
1.24726511647967
  0
LINE
  5
47E
330
2
100
AcDbEntity
  8
AM_VIS
100
AcDbLine
 10
115.093697430079
 20
372.7538053984694
 30
0.0
 11
114.8732335140524
 21
372.7538053984694
 31
0.0
  0
SPLINE
  5
47F
330
2
100
AcDbEntity
  8
AM_VIS
100
AcDbSpline
210
0.0
220
0.0
230
1.0
 70
    12
 71
     2
 72
     6
 73
     3
 74
     0
 42
0.0000000001
 43
0.0000000001
 40
6.617810245657905
 40
6.617810245657905
 40
6.617810245657905
 40
13.04984894672373
 40
13.04984894672373
 40
13.04984894672373
 10
115.0936974300791
 20
372.7538053984694
 30
0.0
 41
1.079583196665444
 10
115.1364676701115
 20
375.6931171571364
 30
0.0
 41
1.078466188711203
 10
115.1364676701115
 20
378.2386355130723
 30
0.0
 41
1.0
  0
SPLINE
  5
480
330
2
100
AcDbEntity
  8
AM_VIS
100
AcDbSpline
210
0.0
220
0.0
230
1.0
 70
    12
 71
     2
 72
     6
 73
     3
 74
     0
 42
0.0000000001
 43
0.0000000001
 40
13.04984894672373
 40
13.04984894672373
 40
13.04984894672373
 40
19.48188204589985
 40
19.48188204589985
 40
19.48188204589985
 10
115.1364676701115
 20
378.2386355130723
 30
0.0
 41
1.0
 10
115.1364676701115
 20
380.7841518133276
 30
0.0
 41
1.078466120372227
 10
115.0936975045022
 20
383.7234605130723
 30
0.0
 41
1.079583194719702
  0
LINE
  5
481
330
2
100
AcDbEntity
  8
AM_VIS
100
AcDbLine
 10
115.0936975045022
 20
383.7234605130723
 30
0.0
 11
114.8732335140525
 21
383.7234605130723
 31
0.0
  0
SPLINE
  5
482
330
2
100
AcDbEntity
  8
AM_VIS
100
AcDbSpline
210
0.0
220
0.0
230
1.0
 70
    12
 71
     2
 72
     6
 73
     3
 74
     0
 42
0.0000000001
 43
0.0000000001
 40
6.618686710242966
 40
6.618686710242966
 40
6.618686710242966
 40
6.905586067190888
 40
6.905586067190888
 40
6.905586067190888
 10
115.0936975045022
 20
383.7234605130723
 30
0.0
 41
1.079481733445777
 10
114.9828536675035
 20
383.7889438722091
 30
0.0
 41
1.079429717675398
 10
114.8732335140525
 20
383.853663984294
 30
0.0
 41
1.079223850164968
  0
LINE
  5
483
330
2
100
AcDbEntity
  8
AM_VIS
100
AcDbLine
 10
109.7685210448481
 20
390.738635513072
 30
0.0
 11
106.4604353191993
 21
390.738635513072
 31
0.0
  0
LINE
  5
484
330
2
100
AcDbEntity
  8
AM_VIS
100
AcDbLine
 10
106.4604353191993
 20
390.738635513072
 30
0.0
 11
106.4604353191993
 21
385.238635513072
 31
0.0
  0
LINE
  5
485
330
2
100
AcDbEntity
  8
AM_VIS
100
AcDbLine
 10
106.4604353191993
 20
385.238635513072
 30
0.0
 11
109.768521044848
 21
385.238635513072
 31
0.0
  0
LINE
  5
486
330
2
100
AcDbEntity
  8
AM_VIS
100
AcDbLine
 10
109.768521044848
 20
385.238635513072
 30
0.0
 11
109.7685210448481
 21
390.738635513072
 31
0.0
  0
LINE
  5
487
330
2
100
AcDbEntity
  8
AM_VIS
100
AcDbLine
 10
92.54325458324004
 20
385.2386355130721
 30
0.0
 11
106.4604353191993
 21
385.238635513072
 31
0.0
  0
LINE
  5
488
330
2
100
AcDbEntity
  8
AM_VIS
100
AcDbLine
 10
89.88683427919188
 20
385.2386355130721
 30
0.0
 11
92.54325458324002
 21
385.2386355130721
 31
0.0
  0
LINE
  5
489
330
2
100
AcDbEntity
  8
AM_VIS
100
AcDbLine
 10
109.768521044848
 20
385.238635513072
 30
0.0
 11
112.3751827312503
 21
385.238635513072
 31
0.0
  0
LINE
  5
48A
330
2
100
AcDbEntity
  8
AM_VIS
100
AcDbLine
 10
92.54325458324007
 20
390.7386355130721
 30
0.0
 11
106.4604353191993
 21
390.738635513072
 31
0.0
  0
LINE
  5
48B
330
2
100
AcDbEntity
  8
AM_VIS
100
AcDbLine
 10
92.54325458324002
 20
385.2386355130721
 30
0.0
 11
92.54325458324004
 21
390.7386355130721
 31
0.0
  0
LINE
  5
48C
330
2
100
AcDbEntity
  8
AM_VIS
100
AcDbLine
 10
92.54325458324007
 20
390.7386355130721
 30
0.0
 11
89.88683427919193
 21
390.7386355130721
 31
0.0
  0
LINE
  5
48D
330
2
100
AcDbEntity
  8
AM_VIS
100
AcDbLine
 10
89.88683427919188
 20
390.7386355130721
 30
0.0
 11
89.88683427919184
 21
385.2386355130721
 31
0.0
  0
LINE
  5
48E
330
2
100
AcDbEntity
  8
AM_VIS
100
AcDbLine
 10
89.88683427919182
 20
365.7386355130721
 30
0.0
 11
92.54325458323998
 21
365.7386355130721
 31
0.0
  0
LINE
  5
48F
330
2
100
AcDbEntity
  8
AM_VIS
100
AcDbLine
 10
92.54325458323995
 20
365.7386355130721
 30
0.0
 11
92.54325458323998
 21
371.2386355130721
 31
0.0
  0
LINE
  5
490
330
2
100
AcDbEntity
  8
AM_VIS
100
AcDbLine
 10
92.54325458323998
 20
371.2386355130721
 30
0.0
 11
89.88683427919184
 21
371.2386355130721
 31
0.0
  0
LINE
  5
491
330
2
100
AcDbEntity
  8
AM_VIS
100
AcDbLine
 10
89.88683427919182
 20
371.2386355130721
 30
0.0
 11
89.88683427919179
 21
365.7386355130721
 31
0.0
  0
LINE
  5
492
330
2
100
AcDbEntity
  8
AM_VIS
100
AcDbLine
 10
106.4604353191992
 20
371.2386355130721
 30
0.0
 11
92.54325458323998
 21
371.2386355130721
 31
0.0
  0
LINE
  5
493
330
2
100
AcDbEntity
  8
AM_VIS
100
AcDbLine
 10
109.768521044848
 20
371.2386355130721
 30
0.0
 11
106.4604353191993
 21
371.2386355130721
 31
0.0
  0
LINE
  5
494
330
2
100
AcDbEntity
  8
AM_VIS
100
AcDbLine
 10
112.3751827312503
 20
371.2386355130721
 30
0.0
 11
109.768521044848
 21
371.2386355130721
 31
0.0
  0
LINE
  5
495
330
2
100
AcDbEntity
  8
AM_VIS
100
AcDbLine
 10
106.4604353191993
 20
365.7386355130721
 30
0.0
 11
92.54325458323998
 21
365.7386355130721
 31
0.0
  0
LINE
  5
496
330
2
100
AcDbEntity
  8
AM_VIS
100
AcDbLine
 10
106.4604353191993
 20
371.2386355130721
 30
0.0
 11
106.4604353191992
 21
365.7386355130721
 31
0.0
  0
LINE
  5
497
330
2
100
AcDbEntity
  8
AM_VIS
100
AcDbLine
 10
106.4604353191992
 20
365.7386355130721
 30
0.0
 11
109.768521044848
 21
365.7386355130721
 31
0.0
  0
LINE
  5
498
330
2
100
AcDbEntity
  8
AM_VIS
100
AcDbLine
 10
109.768521044848
 20
365.738635513072
 30
0.0
 11
109.768521044848
 21
371.238635513072
 31
0.0
  0
LINE
  5
499
330
2
100
AcDbEntity
  8
AM_VIS
100
AcDbLine
 10
92.4934959655941
 20
371.2386355130721
 30
0.0
 11
92.4934959655941
 21
372.2386355130722
 31
0.0
  0
LINE
  5
49A
330
2
100
AcDbEntity
  8
AM_VIS
100
AcDbLine
 10
92.49349596559415
 20
384.2386355130721
 30
0.0
 11
92.49349596559415
 21
385.238635513072
 31
0.0
  0
LINE
  5
49B
330
2
100
AcDbEntity
  8
AM_VIS
100
AcDbLine
 10
112.3751827312503
 20
385.238635513072
 30
0.0
 11
112.3751827312503
 21
384.2386355130721
 31
0.0
  0
LINE
  5
49C
330
2
100
AcDbEntity
  8
AM_VIS
100
AcDbLine
 10
112.3751827312503
 20
372.2386355130721
 30
0.0
 11
112.3751827312503
 21
371.238635513072
 31
0.0
  0
LINE
  5
49D
330
2
100
AcDbEntity
  8
AM_VIS
100
AcDbLine
 10
114.8732335140525
 20
390.738635513072
 30
0.0
 11
109.768521044848
 21
390.738635513072
 31
0.0
  0
LINE
  5
49E
330
2
100
AcDbEntity
  8
AM_VIS
100
AcDbLine
 10
114.8732335140524
 20
365.738635513072
 30
0.0
 11
109.768521044848
 21
365.738635513072
 31
0.0
  0
LINE
  5
49F
330
2
100
AcDbEntity
  8
AM_VIS
100
AcDbLine
 10
114.8732335140525
 20
390.738635513072
 30
0.0
 11
114.8732335140524
 21
365.738635513072
 31
0.0
  0
ELLIPSE
  5
4A0
330
2
100
AcDbEntity
  8
AM_VIS
100
AcDbEllipse
 10
71.59087558210635
 20
378.2386355130721
 30
0.0
 11
0.0
 21
-10.0
 31
0.0
210
0.0
220
0.0
230
1.0
 40
0.9186742063546764
 41
0.5235987755983002
 42
2.617993877991494
  0
ELLIPSE
  5
4A1
330
2
100
AcDbEntity
  8
AM_VIS
100
AcDbEllipse
 10
70.74524522163264
 20
378.2386355130721
 30
0.0
 11
0.0
 21
-10.0
 31
0.0
210
0.0
220
0.0
230
1.0
 40
0.999293125098929
 41
0.0
 42
0.5235987755982981
  0
ELLIPSE
  5
4A2
330
2
100
AcDbEntity
  8
AM_VIS
100
AcDbEllipse
 10
70.74524522163264
 20
378.2386355130721
 30
0.0
 11
0.0
 21
-10.0
 31
0.0
210
0.0
220
0.0
230
1.0
 40
0.999293125098929
 41
2.617993877991494
 42
3.141592653589793
  0
LINE
  5
4A3
330
2
100
AcDbEntity
  8
AM_VIS
100
AcDbLine
 10
78.94026923294376
 20
372.2386355130721
 30
0.0
 11
78.97046668756463
 21
372.2386355130721
 31
0.0
  0
LINE
  5
4A4
330
2
100
AcDbEntity
  8
AM_VIS
100
AcDbLine
 10
78.97046668756463
 20
384.2386355130721
 30
0.0
 11
78.94026923294376
 21
384.2386355130721
 31
0.0
  0
LINE
  5
4A5
330
2
100
AcDbEntity
  8
AM_VIS
100
AcDbLine
 10
78.97046668756459
 20
372.2386355130721
 30
0.0
 11
100.4499517272667
 21
372.2386355130721
 31
0.0
  0
LINE
  5
4A6
330
2
100
AcDbEntity
  8
AM_VIS
100
AcDbLine
 10
100.4499517272667
 20
384.2386355130721
 30
0.0
 11
78.97046668756459
 21
384.2386355130721
 31
0.0
  0
LINE
  5
4A7
330
2
100
AcDbEntity
  8
AM_VIS
100
AcDbLine
 10
100.4499517272667
 20
384.2386355130721
 30
0.0
 11
112.9010703576981
 21
384.2386355130721
 31
0.0
  0
ELLIPSE
  5
4A8
330
2
100
AcDbEntity
  8
AM_VIS
100
AcDbEllipse
 10
66.35287640676731
 20
363.5674661274062
 30
0.0
 11
2.999867540040284
 21
1.731361916634556
 31
0.0
210
0.0
220
0.0
230
1.0
 40
0.0162826572138166
 41
4.74059386415343
 42
5.875057877949747
  0
LINE
  5
4A9
330
2
100
AcDbEntity
  8
AM_VIS
100
AcDbLine
 10
69.11754057205328
 20
391.3400337642954
 30
0.0
 11
76.18424661387973
 21
386.8988895509165
 31
0.0
  0
LINE
  5
4AA
330
2
100
AcDbEntity
  8
AM_VIS
100
AcDbLine
 10
76.18424661387971
 20
369.5783814752278
 30
0.0
 11
69.11754057205325
 21
365.1372372618489
 31
0.0
  0
LINE
  5
4AB
330
2
100
AcDbEntity
  8
AM_VIS
100
AcDbLine
 10
112.9010703576981
 20
372.2386355130721
 30
0.0
 11
100.4499517272667
 21
372.2386355130721
 31
0.0
  0
ELLIPSE
  5
4AC
330
2
100
AcDbEntity
  8
AM_VIS
100
AcDbEllipse
 10
66.35287640676731
 20
392.9098048987381
 30
0.0
 11
2.999867540040284
 21
-1.731361916634555
 31
0.0
210
0.0
220
0.0
230
1.0
 40
0.0162826572138166
 41
0.4081274292296764
 42
1.542591443025994
  0
LINE
  5
4AD
330
2
100
AcDbEntity
  8
AM_VIS
100
AcDbLine
 10
62.60517767831976
 20
394.4886355130721
 30
0.0
 11
63.73297425439838
 21
394.4886355130721
 31
0.0
  0
LINE
  5
4AE
330
2
100
AcDbEntity
  8
AM_VIS
100
AcDbLine
 10
75.74171084712725
 20
386.8988895509165
 30
0.0
 11
62.60517767831974
 21
394.4886355130721
 31
0.0
  0
LINE
  5
4AF
330
2
100
AcDbEntity
  8
AM_VIS
100
AcDbLine
 10
63.73297425439836
 20
394.4886355130721
 30
0.0
 11
66.46565606437514
 21
392.9098048987382
 31
0.0
  0
LINE
  5
4B0
330
2
100
AcDbEntity
  8
AM_VIS
100
AcDbLine
 10
62.60517767831974
 20
361.9886355130721
 30
0.0
 11
75.74171084712725
 21
369.5783814752278
 31
0.0
  0
LINE
  5
4B1
330
2
100
AcDbEntity
  8
AM_VIS
100
AcDbLine
 10
63.73297425439836
 20
361.9886355130721
 30
0.0
 11
62.60517767831974
 21
361.9886355130721
 31
0.0
  0
LINE
  5
4B2
330
2
100
AcDbEntity
  8
AM_VIS
100
AcDbLine
 10
66.46565606437516
 20
363.5674661274062
 30
0.0
 11
63.73297425439838
 21
361.9886355130722
 31
0.0
  0
LINE
  5
4B3
330
2
100
AcDbEntity
  8
AM_VIS
100
AcDbLine
 10
37.67467531813551
 20
368.2386355130721
 30
0.0
 11
48.26114990690666
 21
368.2386355130721
 31
0.0
  0
LINE
  5
4B4
330
2
100
AcDbEntity
  8
AM_VIS
100
AcDbLine
 10
58.15415184538608
 20
368.2386355130721
 30
0.0
 11
48.26114990690673
 21
368.2386355130721
 31
0.0
  0
LINE
  5
4B5
330
2
100
AcDbEntity
  8
AM_VIS
100
AcDbLine
 10
58.15415184538605
 20
388.2386355130721
 30
0.0
 11
58.15415184538605
 21
368.2386355130721
 31
0.0
  0
LINE
  5
4B6
330
2
100
AcDbEntity
  8
AM_VIS
100
AcDbLine
 10
48.26114990690666
 20
388.2386355130721
 30
0.0
 11
37.67467531813551
 21
388.2386355130721
 31
0.0
  0
LINE
  5
4B7
330
2
100
AcDbEntity
  8
AM_VIS
100
AcDbLine
 10
48.26114990690669
 20
388.2386355130721
 30
0.0
 11
58.15415184538608
 21
388.2386355130721
 31
0.0
  0
LINE
  5
4B8
330
2
100
AcDbEntity
  8
AM_VIS
100
AcDbLine
 10
62.60517767831974
 20
394.4886355130721
 30
0.0
 11
48.26114990690669
 21
394.4886355130721
 31
0.0
  0
LINE
  5
4B9
330
2
100
AcDbEntity
  8
AM_VIS
100
AcDbLine
 10
48.26114990690669
 20
361.9886355130721
 30
0.0
 11
62.60517767831974
 21
361.9886355130721
 31
0.0
  0
LINE
  5
4BA
330
2
100
AcDbEntity
  8
AM_VIS
100
AcDbLine
 10
48.26114990690666
 20
361.9886355130721
 30
0.0
 11
37.67467531813551
 21
361.9886355130721
 31
0.0
  0
LINE
  5
4BB
330
2
100
AcDbEntity
  8
AM_VIS
100
AcDbLine
 10
37.67467531813551
 20
394.4886355130721
 30
0.0
 11
48.26114990690666
 21
394.4886355130721
 31
0.0
  0
ARC
  5
4BC
330
2
100
AcDbEntity
  8
AM_VIS
100
AcDbCircle
 10
70.51968590641692
 20
378.2386355130721
 30
0.0
 40
10.0
100
AcDbArc
 50
90.0
 51
270.0
  0
LINE
  5
4BD
330
2
100
AcDbEntity
  8
AM_VIS
100
AcDbLine
 10
70.51968590641692
 20
388.2386355130721
 30
0.0
 11
70.74524522163264
 21
388.2386355130721
 31
0.0
  0
LINE
  5
4BE
330
2
100
AcDbEntity
  8
AM_VIS
100
AcDbLine
 10
70.51968590641692
 20
368.2386355130721
 30
0.0
 11
70.74524522163264
 21
368.2386355130721
 31
0.0
  0
LINE
  5
4BF
330
2
100
AcDbEntity
  8
AM_VIS
100
AcDbLine
 10
112.9010703576981
 20
372.2386355130721
 30
0.0
 11
112.9010703576981
 21
384.2386355130721
 31
0.0
  0
LINE
  5
4C0
330
2
100
AcDbEntity
  8
AM_VIS
100
AcDbLine
 10
37.67467531813549
 20
368.2386355130721
 30
0.0
 11
37.67467531813549
 21
361.9886355130721
 31
0.0
  0
LINE
  5
4C1
330
2
100
AcDbEntity
  8
AM_VIS
100
AcDbLine
 10
37.67467531813549
 20
394.4886355130721
 30
0.0
 11
37.67467531813549
 21
388.2386355130721
 31
0.0
  0
LINE
  5
4C2
330
2
100
AcDbEntity
  8
AM_VIS
100
AcDbLine
 10
104.7051757944819
 20
357.5486372179399
 30
0.0
 11
96.9051757944819
 21
357.5486372179399
 31
0.0
  0
LINE
  5
4C3
330
2
100
AcDbEntity
  8
AM_VIS
100
AcDbLine
 10
95.80517579448192
 20
395.5486372179399
 30
0.0
 11
105.8051757944819
 21
395.5486372179399
 31
0.0
  0
LINE
  5
4C4
330
2
100
AcDbEntity
  8
AM_VIS
100
AcDbLine
 10
104.7051757944819
 20
360.3486372179397
 30
0.0
 11
104.7051757944819
 21
357.5486372179399
 31
0.0
  0
LINE
  5
4C5
330
2
100
AcDbEntity
  8
AM_VIS
100
AcDbLine
 10
96.9051757944819
 20
360.3486372179397
 30
0.0
 11
96.9051757944819
 21
357.5486372179399
 31
0.0
  0
LINE
  5
4C6
330
2
100
AcDbEntity
  8
AM_VIS
100
AcDbLine
 10
104.8051757944819
 20
390.9486372179399
 30
0.0
 11
104.8051757944819
 21
390.7386355130721
 31
0.0
  0
LINE
  5
4C7
330
2
100
AcDbEntity
  8
AM_VIS
100
AcDbLine
 10
104.8051757944819
 20
371.4886355130721
 30
0.0
 11
104.8051757944819
 21
371.238635513072
 31
0.0
  0
LINE
  5
4C8
330
2
100
AcDbEntity
  8
AM_VIS
100
AcDbLine
 10
96.80517579448192
 20
390.9486372179399
 30
0.0
 11
96.80517579448192
 21
390.7386355130721
 31
0.0
  0
LINE
  5
4C9
330
2
100
AcDbEntity
  8
AM_VIS
100
AcDbLine
 10
96.80517579448192
 20
371.4886355130721
 30
0.0
 11
96.80517579448192
 21
371.2386355130721
 31
0.0
  0
LINE
  5
4CA
330
2
100
AcDbEntity
  8
AM_VIS
100
AcDbLine
 10
95.80517579448192
 20
392.5486372179399
 30
0.0
 11
95.80517579448192
 21
395.5486372179399
 31
0.0
  0
LINE
  5
4CB
330
2
100
AcDbEntity
  8
AM_VIS
100
AcDbLine
 10
105.8051757944819
 20
392.5486372179399
 30
0.0
 11
105.8051757944819
 21
395.5486372179399
 31
0.0
  0
LINE
  5
4CC
330
2
100
AcDbEntity
  8
AM_VIS
100
AcDbLine
 10
132.5151818217613
 20
415.5036355130722
 30
0.0
 11
132.4710311971894
 21
415.5036355130722
 31
0.0
  0
LINE
  5
4CD
330
2
100
AcDbEntity
  8
AM_VIS
100
AcDbLine
 10
132.4710311971894
 20
415.5036355130722
 30
0.0
 11
120.233167045653
 21
415.5036355130722
 31
0.0
  0
LINE
  5
4CE
330
2
100
AcDbEntity
  8
AM_VIS
100
AcDbLine
 10
105.5151818217613
 20
417.0036355130721
 30
0.0
 11
132.4710311971894
 21
417.0036355130721
 31
0.0
  0
LINE
  5
4CF
330
2
100
AcDbEntity
  8
AM_VIS
100
AcDbLine
 10
132.4710311971894
 20
417.0036355130721
 30
0.0
 11
132.5151818217613
 21
417.0036355130721
 31
0.0
  0
LINE
  5
4D0
330
2
100
AcDbEntity
  8
AM_VIS
100
AcDbLine
 10
132.5151818217613
 20
417.0036355130721
 30
0.0
 11
132.5151818217613
 21
415.5036355130722
 31
0.0
  0
LINE
  5
4D1
330
2
100
AcDbEntity
  8
AM_VIS
100
AcDbLine
 10
105.5151818217613
 20
417.0036355130721
 30
0.0
 11
105.5151818217613
 21
415.5036355130722
 31
0.0
  0
LINE
  5
4D2
330
2
100
AcDbEntity
  8
AM_VIS
100
AcDbLine
 10
132.5151818217612
 20
340.5036355130722
 30
0.0
 11
132.4710311971893
 21
340.5036355130722
 31
0.0
  0
LINE
  5
4D3
330
2
100
AcDbEntity
  8
AM_VIS
100
AcDbLine
 10
132.4710311971893
 20
340.5036355130722
 30
0.0
 11
105.5151818217612
 21
340.5036355130722
 31
0.0
  0
LINE
  5
4D4
330
2
100
AcDbEntity
  8
AM_VIS
100
AcDbLine
 10
120.233167045653
 20
342.0036355130722
 30
0.0
 11
132.4710311971893
 21
342.0036355130722
 31
0.0
  0
LINE
  5
4D5
330
2
100
AcDbEntity
  8
AM_VIS
100
AcDbLine
 10
132.4710311971893
 20
342.0036355130722
 30
0.0
 11
132.5151818217612
 21
342.0036355130722
 31
0.0
  0
LINE
  5
4D6
330
2
100
AcDbEntity
  8
AM_VIS
100
AcDbLine
 10
132.5151818217612
 20
342.0036355130722
 30
0.0
 11
132.5151818217612
 21
340.5036355130722
 31
0.0
  0
LINE
  5
4D7
330
2
100
AcDbEntity
  8
AM_VIS
100
AcDbLine
 10
105.5151818217612
 20
342.0036355130722
 30
0.0
 11
105.5151818217612
 21
340.5036355130722
 31
0.0
  0
ELLIPSE
  5
4D8
330
2
100
AcDbEntity
  8
AM_VIS
100
AcDbEllipse
 10
119.1237927253612
 20
378.2386355130736
 30
0.0
 11
0.0000000000000003
 21
-10.0
 31
0.0
210
0.0
220
0.0
230
1.0
 40
0.9940843382828095
 41
2.637264478887659
 42
3.583412614651642
  0
ELLIPSE
  5
4D9
330
2
100
AcDbEntity
  8
AM_VIS
100
AcDbEllipse
 10
125.2060033269665
 20
378.2386355130737
 30
0.0
 11
0.0000000000000003
 21
-10.0
 31
0.0
210
0.0
220
0.0
230
1.0
 40
0.9940843382828095
 41
5.355890089177949
 42
5.44081014574107
  0
ELLIPSE
  5
4DA
330
2
100
AcDbEntity
  8
AM_VIS
100
AcDbEllipse
 10
125.2060033269665
 20
378.2386355130737
 30
0.0
 11
0.0000000000000003
 21
-10.0
 31
0.0
210
0.0
220
0.0
230
1.0
 40
0.9940843382828095
 41
3.452497524936987
 42
4.068887871591373
  0
ELLIPSE
  5
4DB
330
2
100
AcDbEntity
  8
AM_VIS
100
AcDbEllipse
 10
102.0935424618912
 20
354.9886355130736
 30
0.0
 11
0.0000000000000001
 21
-3.0
 31
0.0
210
0.0
220
0.0
230
1.0
 40
0.9940843382828093
 41
4.712388980384689
 42
4.756770614727974
  0
ELLIPSE
  5
4DC
330
2
100
AcDbEntity
  8
AM_VIS
100
AcDbEllipse
 10
102.0935424618912
 20
354.9886355130736
 30
0.0
 11
0.0000000000000001
 21
-3.0
 31
0.0
210
0.0
220
0.0
230
1.0
 40
0.9940843382828093
 41
3.719516535977677
 42
4.712388980384689
  0
ELLIPSE
  5
4DD
330
2
100
AcDbEntity
  8
AM_VIS
100
AcDbEllipse
 10
98.83521535388837
 20
354.9886355130736
 30
0.0
 11
0.0000000000000001
 21
-3.0
 31
0.0
210
0.0
220
0.0
230
1.0
 40
0.9940843382828093
 41
3.690042195605328
 42
4.330866908082908
  0
ELLIPSE
  5
4DE
330
2
100
AcDbEntity
  8
AM_VIS
100
AcDbEllipse
 10
98.83521535388837
 20
354.9886355130736
 30
0.0
 11
0.0000000000000001
 21
-3.0
 31
0.0
210
0.0
220
0.0
230
1.0
 40
0.9940843382828093
 41
2.499223145999371
 42
2.593143111574224
  0
ELLIPSE
  5
4DF
330
2
100
AcDbEntity
  8
AM_VIS
100
AcDbEllipse
 10
102.0935424618912
 20
401.4886355130736
 30
0.0
 11
0.0000000000000001
 21
-3.0
 31
0.0
210
0.0
220
0.0
230
1.0
 40
0.9940843382828093
 41
4.712388980384689
 42
4.756770614727974
  0
ELLIPSE
  5
4E0
330
2
100
AcDbEntity
  8
AM_VIS
100
AcDbEllipse
 10
102.0935424618912
 20
401.4886355130736
 30
0.0
 11
0.0000000000000001
 21
-3.0
 31
0.0
210
0.0
220
0.0
230
1.0
 40
0.9940843382828093
 41
3.719516535977676
 42
4.712388980384689
  0
ELLIPSE
  5
4E1
330
2
100
AcDbEntity
  8
AM_VIS
100
AcDbEllipse
 10
98.83521535388837
 20
401.4886355130736
 30
0.0
 11
0.0000000000000001
 21
-3.0
 31
0.0
210
0.0
220
0.0
230
1.0
 40
0.9940843382828093
 41
2.499223145999371
 42
4.330866908082908
  0
ELLIPSE
  5
4E2
330
2
100
AcDbEntity
  8
AM_VIS
100
AcDbEllipse
 10
148.3184641920418
 20
401.4886355130736
 30
0.0
 11
0.0000000000000001
 21
-3.0
 31
0.0
210
0.0
220
0.0
230
1.0
 40
0.9940843382828093
 41
4.712388980384689
 42
4.756770614728372
  0
ELLIPSE
  5
4E3
330
2
100
AcDbEntity
  8
AM_VIS
100
AcDbEllipse
 10
148.3184641920418
 20
401.4886355130736
 30
0.0
 11
0.0000000000000001
 21
-3.0
 31
0.0
210
0.0
220
0.0
230
1.0
 40
0.9940843382828093
 41
3.719516535977687
 42
4.712388980384689
  0
ELLIPSE
  5
4E4
330
2
100
AcDbEntity
  8
AM_VIS
100
AcDbEllipse
 10
145.060137084039
 20
401.4886355130736
 30
0.0
 11
0.0000000000000001
 21
-3.0
 31
0.0
210
0.0
220
0.0
230
1.0
 40
0.9940843382828093
 41
2.499223145998466
 42
4.330866908082048
  0
ELLIPSE
  5
4E5
330
2
100
AcDbEntity
  8
AM_VIS
100
AcDbEllipse
 10
148.3184641920418
 20
354.9886355130736
 30
0.0
 11
0.0000000000000001
 21
-3.0
 31
0.0
210
0.0
220
0.0
230
1.0
 40
0.9940843382828093
 41
4.712388980384689
 42
4.756770614728382
  0
ELLIPSE
  5
4E6
330
2
100
AcDbEntity
  8
AM_VIS
100
AcDbEllipse
 10
148.3184641920418
 20
354.9886355130736
 30
0.0
 11
0.0000000000000001
 21
-3.0
 31
0.0
210
0.0
220
0.0
230
1.0
 40
0.9940843382828093
 41
3.719516535977665
 42
4.712388980384689
  0
ELLIPSE
  5
4E7
330
2
100
AcDbEntity
  8
AM_VIS
100
AcDbEllipse
 10
145.060137084039
 20
354.9886355130736
 30
0.0
 11
0.0000000000000001
 21
-3.0
 31
0.0
210
0.0
220
0.0
230
1.0
 40
0.9940843382828093
 41
2.499223145998477
 42
4.330866908082048
  0
ELLIPSE
  5
4E8
330
2
100
AcDbEntity
  8
AM_VIS
100
AcDbEllipse
 10
148.3184641920418
 20
401.4886355130736
 30
0.0
 11
0.0000000000000003
 21
-11.75
 31
0.0
210
0.0
220
0.0
230
1.0
 40
0.9940843382828095
 41
1.570796326794896
 42
2.690000261142254
  0
LINE
  5
4E9
330
2
100
AcDbEntity
  8
AM_VIS
100
AcDbLine
 10
159.9989551668648
 20
401.4886355130736
 30
0.0
 11
159.9989551668648
 21
354.9886355130736
 31
0.0
  0
ELLIPSE
  5
4EA
330
2
100
AcDbEntity
  8
AM_VIS
100
AcDbEllipse
 10
148.3184641920418
 20
354.9886355130736
 30
0.0
 11
0.0000000000000003
 21
-11.75
 31
0.0
210
0.0
220
0.0
230
1.0
 40
0.9940843382828095
 41
0.0
 42
1.570796326794896
  0
ELLIPSE
  5
4EB
330
2
100
AcDbEntity
  8
AM_VIS
100
AcDbEllipse
 10
145.060137084039
 20
401.4886355130736
 30
0.0
 11
0.0000000000000003
 21
-11.75
 31
0.0
210
0.0
220
0.0
230
1.0
 40
0.9940843382828095
 41
1.570796326794896
 42
1.707272947639879
  0
LINE
  5
4EC
330
2
100
AcDbEntity
  8
AM_VIS
100
AcDbLine
 10
156.740628058862
 20
401.4886355130736
 30
0.0
 11
156.740628058862
 21
354.9886355130735
 31
0.0
  0
ELLIPSE
  5
4ED
330
2
100
AcDbEntity
  8
AM_VIS
100
AcDbEllipse
 10
145.060137084039
 20
354.9886355130736
 30
0.0
 11
0.0000000000000003
 21
-11.75
 31
0.0
210
0.0
220
0.0
230
1.0
 40
0.9940843382828095
 41
0.0
 42
1.570796326794896
  0
LINE
  5
4EE
330
2
100
AcDbEntity
  8
AM_VIS
100
AcDbLine
 10
145.060137084039
 20
343.2386355130735
 30
0.0
 11
148.3184641920418
 21
343.2386355130735
 31
0.0
  0
LINE
  5
4EF
330
2
100
AcDbEntity
  8
AM_VIS
100
AcDbLine
 10
145.060137084039
 20
343.2386355130735
 30
0.0
 11
131.7151818217613
 21
343.2386355130735
 31
0.0
  0
ELLIPSE
  5
4F0
330
2
100
AcDbEntity
  8
AM_VIS
100
AcDbEllipse
 10
167.3253723220586
 20
401.4886355130732
 30
0.0
 11
0.0000000000000003
 21
-11.75
 31
0.0
210
0.0
220
0.0
230
1.0
 40
0.9940843382828095
 41
1.570796326794896
 42
3.14159265358979
  0
LINE
  5
4F1
330
2
100
AcDbEntity
  8
AM_VIS
100
AcDbLine
 10
179.0058632968816
 20
401.4886355130732
 30
0.0
 11
179.0058632968816
 21
354.9886355130733
 31
0.0
  0
ELLIPSE
  5
4F2
330
2
100
AcDbEntity
  8
AM_VIS
100
AcDbEllipse
 10
167.3253723220585
 20
354.9886355130733
 30
0.0
 11
0.0000000000000003
 21
-11.75
 31
0.0
210
0.0
220
0.0
230
1.0
 40
0.9940843382828095
 41
0.0
 42
1.570796326794896
  0
LINE
  5
4F3
330
2
100
AcDbEntity
  8
AM_VIS
100
AcDbLine
 10
167.3253723220586
 20
413.2386355130733
 30
0.0
 11
164.3155662986262
 21
413.2386355130733
 31
0.0
  0
LINE
  5
4F4
330
2
100
AcDbEntity
  8
AM_VIS
100
AcDbLine
 10
175.7475361888787
 20
401.4886355130732
 30
0.0
 11
175.7475361888787
 21
354.9886355130733
 31
0.0
  0
LINE
  5
4F5
330
2
100
AcDbEntity
  8
AM_VIS
100
AcDbLine
 10
164.3155662986262
 20
343.2386355130732
 30
0.0
 11
167.3253723220585
 21
343.2386355130732
 31
0.0
  0
LINE
  5
4F6
330
2
100
AcDbEntity
  8
AM_VIS
100
AcDbLine
 10
148.3184641920419
 20
343.2386355130738
 30
0.0
 11
148.5669852766125
 21
343.2386355130738
 31
0.0
  0
ELLIPSE
  5
4F7
330
2
100
AcDbEntity
  8
AM_VIS
100
AcDbEllipse
 10
148.5669852766125
 20
354.7386355130737
 30
0.0
 11
0.0000000000000003
 21
-11.5
 31
0.0
210
0.0
220
0.0
230
1.0
 40
0.9940843382828095
 41
0.0
 42
1.570796326794896
  0
LINE
  5
4F8
330
2
100
AcDbEntity
  8
AM_VIS
100
AcDbLine
 10
159.9989551668648
 20
354.7386355130737
 30
0.0
 11
159.9989551668648
 21
361.7386355130737
 31
0.0
  0
LINE
  5
4F9
330
2
100
AcDbEntity
  8
AM_VIS
100
AcDbLine
 10
159.9989551668648
 20
374.7386355130737
 30
0.0
 11
159.9989551668648
 21
381.7386355130737
 31
0.0
  0
LINE
  5
4FA
330
2
100
AcDbEntity
  8
AM_VIS
100
AcDbLine
 10
159.9989551668648
 20
394.7386355130737
 30
0.0
 11
159.9989551668648
 21
401.7386355130737
 31
0.0
  0
ELLIPSE
  5
4FB
330
2
100
AcDbEntity
  8
AM_VIS
100
AcDbEllipse
 10
148.5669852766125
 20
401.7386355130737
 30
0.0
 11
0.0000000000000003
 21
-11.5
 31
0.0
210
0.0
220
0.0
230
1.0
 40
0.9940843382828095
 41
1.570796326794896
 42
2.718998751488086
  0
ELLIPSE
  5
4FC
330
2
100
AcDbEntity
  8
AM_VIS
100
AcDbEllipse
 10
174.2564096814543
 20
361.7386355130737
 30
0.0
 11
0.0
 21
-1.5
 31
0.0
210
0.0
220
0.0
230
1.0
 40
0.9940843382828093
 41
1.570796326794896
 42
3.141592653589791
  0
LINE
  5
4FD
330
2
100
AcDbEntity
  8
AM_VIS
100
AcDbLine
 10
174.2564096814544
 20
363.2386355130738
 30
0.0
 11
159.9989551668649
 21
363.2386355130737
 31
0.0
  0
ELLIPSE
  5
4FE
330
2
100
AcDbEntity
  8
AM_VIS
100
AcDbEllipse
 10
172.2682410048887
 20
364.7386355130737
 30
0.0
 11
0.0
 21
-1.5
 31
0.0
210
0.0
220
0.0
230
1.0
 40
0.9940843382828093
 41
4.712388980384689
 42
6.283185307179584
  0
ELLIPSE
  5
4FF
330
2
100
AcDbEntity
  8
AM_VIS
100
AcDbEllipse
 10
172.2682410048887
 20
371.7386355130738
 30
0.0
 11
0.0
 21
-1.5
 31
0.0
210
0.0
220
0.0
230
1.0
 40
0.9940843382828093
 41
3.141592653589791
 42
4.712388980384689
  0
LINE
  5
500
330
2
100
AcDbEntity
  8
AM_VIS
100
AcDbLine
 10
170.7771144974645
 20
364.7386355130737
 30
0.0
 11
170.7771144974645
 21
371.7386355130737
 31
0.0
  0
ELLIPSE
  5
501
330
2
100
AcDbEntity
  8
AM_VIS
100
AcDbEllipse
 10
174.2564096814543
 20
374.7386355130738
 30
0.0
 11
0.0
 21
-1.5
 31
0.0
210
0.0
220
0.0
230
1.0
 40
0.9940843382828093
 41
-0.000000000000002
 42
1.570796326794896
  0
LINE
  5
502
330
2
100
AcDbEntity
  8
AM_VIS
100
AcDbLine
 10
159.9989551668648
 20
373.2386355130738
 30
0.0
 11
174.2564096814544
 21
373.2386355130738
 31
0.0
  0
LINE
  5
503
330
2
100
AcDbEntity
  8
AM_VIS
100
AcDbLine
 10
175.7475361888785
 20
374.7386355130738
 30
0.0
 11
175.7475361888785
 21
381.7386355130738
 31
0.0
  0
ELLIPSE
  5
504
330
2
100
AcDbEntity
  8
AM_VIS
100
AcDbEllipse
 10
172.2682410048887
 20
384.7386355130737
 30
0.0
 11
0.0
 21
-1.5
 31
0.0
210
0.0
220
0.0
230
1.0
 40
0.9940843382828093
 41
4.712388980384689
 42
6.283185307179584
  0
LINE
  5
505
330
2
100
AcDbEntity
  8
AM_VIS
100
AcDbLine
 10
174.2564096814544
 20
383.2386355130738
 30
0.0
 11
159.9989551668649
 21
383.2386355130737
 31
0.0
  0
ELLIPSE
  5
506
330
2
100
AcDbEntity
  8
AM_VIS
100
AcDbEllipse
 10
174.2564096814543
 20
381.7386355130738
 30
0.0
 11
0.0
 21
-1.5
 31
0.0
210
0.0
220
0.0
230
1.0
 40
0.9940843382828093
 41
1.570796326794896
 42
3.141592653589791
  0
ELLIPSE
  5
507
330
2
100
AcDbEntity
  8
AM_VIS
100
AcDbEllipse
 10
172.2682410048887
 20
391.7386355130738
 30
0.0
 11
0.0
 21
-1.5
 31
0.0
210
0.0
220
0.0
230
1.0
 40
0.9940843382828093
 41
3.141592653589791
 42
4.712388980384689
  0
LINE
  5
508
330
2
100
AcDbEntity
  8
AM_VIS
100
AcDbLine
 10
170.7771144974645
 20
384.7386355130737
 30
0.0
 11
170.7771144974645
 21
391.7386355130738
 31
0.0
  0
ELLIPSE
  5
509
330
2
100
AcDbEntity
  8
AM_VIS
100
AcDbEllipse
 10
174.2564096814543
 20
394.7386355130737
 30
0.0
 11
0.0
 21
-1.5
 31
0.0
210
0.0
220
0.0
230
1.0
 40
0.9940843382828093
 41
-0.000000000000002
 42
1.570796326794896
  0
LINE
  5
50A
330
2
100
AcDbEntity
  8
AM_VIS
100
AcDbLine
 10
159.9989551668648
 20
393.2386355130738
 30
0.0
 11
174.2564096814544
 21
393.2386355130738
 31
0.0
  0
ELLIPSE
  5
50B
330
2
100
AcDbEntity
  8
AM_VIS
100
AcDbEllipse
 10
164.3155662986262
 20
354.7386355130738
 30
0.0
 11
0.0000000000000003
 21
-11.5
 31
0.0
210
0.0
220
0.0
230
1.0
 40
0.9940843382828095
 41
-0.0000000000000027
 42
1.570796326794896
  0
LINE
  5
50C
330
2
100
AcDbEntity
  8
AM_VIS
100
AcDbLine
 10
148.5669852766125
 20
343.2386355130738
 30
0.0
 11
164.3155662986262
 21
343.2386355130738
 31
0.0
  0
ELLIPSE
  5
50D
330
2
100
AcDbEntity
  8
AM_VIS
100
AcDbEllipse
 10
164.3155662986262
 20
401.7386355130738
 30
0.0
 11
0.0000000000000003
 21
-11.5
 31
0.0
210
0.0
220
0.0
230
1.0
 40
0.9940843382828095
 41
1.570796326794896
 42
3.141592653589795
  0
LINE
  5
50E
330
2
100
AcDbEntity
  8
AM_VIS
100
AcDbLine
 10
164.3155662986262
 20
413.2386355130738
 30
0.0
 11
152.1225115335421
 21
413.2386355130737
 31
0.0
  0
LINE
  5
50F
330
2
100
AcDbEntity
  8
AM_VIS
100
AcDbLine
 10
175.7475361888785
 20
394.7386355130737
 30
0.0
 11
175.7475361888785
 21
401.7386355130738
 31
0.0
  0
LINE
  5
510
330
2
100
AcDbEntity
  8
AM_VIS
100
AcDbLine
 10
175.7475361888785
 20
354.7386355130738
 30
0.0
 11
175.7475361888785
 21
361.7386355130737
 31
0.0
  0
LINE
  5
511
330
2
100
AcDbEntity
  8
AM_VIS
100
AcDbLine
 10
126.0151818217612
 20
347.9886355130739
 30
0.0
 11
125.9737721897409
 21
347.9886355130739
 31
0.0
  0
LINE
  5
512
330
2
100
AcDbEntity
  8
AM_VIS
100
AcDbLine
 10
125.9737721897409
 20
347.9886355130739
 30
0.0
 11
112.0151818217612
 21
347.9886355130739
 31
0.0
  0
LINE
  5
513
330
2
100
AcDbEntity
  8
AM_VIS
100
AcDbLine
 10
112.0151818217612
 20
347.9886355130738
 30
0.0
 11
111.7651818217614
 21
348.2386355130736
 31
0.0
  0
LINE
  5
514
330
2
100
AcDbEntity
  8
AM_VIS
100
AcDbLine
 10
126.0151818217612
 20
347.9886355130738
 30
0.0
 11
126.2651818217611
 21
348.2386355130736
 31
0.0
  0
ELLIPSE
  5
515
330
2
100
AcDbEntity
  8
AM_VIS
100
AcDbEllipse
 10
143.974028048038
 20
401.4886355130737
 30
0.0
 11
0.0000000000000001
 21
-4.1
 31
0.0
210
0.0
220
0.0
230
1.0
 40
0.9940843382828093
 41
2.371676545667858
 42
3.955513782135092
  0
ELLIPSE
  5
516
330
2
100
AcDbEntity
  8
AM_VIS
100
AcDbEllipse
 10
143.974028048038
 20
354.9886355130737
 30
0.0
 11
0.0000000000000001
 21
-4.1
 31
0.0
210
0.0
220
0.0
230
1.0
 40
0.9940843382828093
 41
2.371676545667865
 42
3.955513782135085
  0
ELLIPSE
  5
517
330
2
100
AcDbEntity
  8
AM_VIS
100
AcDbEllipse
 10
97.74910631788742
 20
354.9886355130737
 30
0.0
 11
0.0000000000000001
 21
-4.1
 31
0.0
210
0.0
220
0.0
230
1.0
 40
0.9940843382828093
 41
3.350163181578907
 42
3.955513782135102
  0
ELLIPSE
  5
518
330
2
100
AcDbEntity
  8
AM_VIS
100
AcDbEllipse
 10
97.74910631788742
 20
401.4886355130737
 30
0.0
 11
0.0000000000000001
 21
-4.1
 31
0.0
210
0.0
220
0.0
230
1.0
 40
0.9940843382828093
 41
2.371676545668731
 42
3.955513782135092
  0
LINE
  5
519
330
2
100
AcDbEntity
  8
AM_VIS
100
AcDbLine
 10
133.5674417734391
 20
394.2386355130737
 30
0.0
 11
133.9424167726943
 21
394.2386355130737
 31
0.0
  0
LINE
  5
51A
330
2
100
AcDbEntity
  8
AM_VIS
100
AcDbLine
 10
133.5674417734391
 20
348.2386355130737
 30
0.0
 11
133.9424167726944
 21
348.2386355130737
 31
0.0
  0
LINE
  5
51B
330
2
100
AcDbEntity
  8
AM_VIS
100
AcDbLine
 10
133.4588308698337
 20
362.2386355130737
 30
0.0
 11
131.9382782194377
 21
362.2386355130737
 31
0.0
  0
LINE
  5
51C
330
2
100
AcDbEntity
  8
AM_VIS
100
AcDbLine
 10
133.5674417734391
 20
348.2386355130737
 30
0.0
 11
131.9382782194376
 21
348.2386355130737
 31
0.0
  0
ELLIPSE
  5
51D
330
2
100
AcDbEntity
  8
AM_VIS
100
AcDbEllipse
 10
119.1237927253612
 20
378.2386355130737
 30
0.0
 11
0.0000000000000003
 21
-10.0
 31
0.0
210
0.0
220
0.0
230
1.0
 40
0.9940843382828095
 41
2.637264478887678
 42
3.583412614651642
  0
ELLIPSE
  5
51E
330
2
100
AcDbEntity
  8
AM_VIS
100
AcDbEllipse
 10
121.9476762189636
 20
378.2386355130737
 30
0.0
 11
0.0000000000000003
 21
-10.0
 31
0.0
210
0.0
220
0.0
230
1.0
 40
0.9940843382828095
 41
3.284109005522661
 42
3.93344266204206
  0
LINE
  5
51F
330
2
100
AcDbEntity
  8
AM_VIS
100
AcDbLine
 10
131.9382782194376
 20
394.2386355130737
 30
0.0
 11
133.5674417734391
 21
394.2386355130737
 31
0.0
  0
LINE
  5
520
330
2
100
AcDbEntity
  8
AM_VIS
100
AcDbLine
 10
109.7431938116438
 20
394.2386355130737
 30
0.0
 11
106.0151818217611
 21
394.2386355130737
 31
0.0
  0
LINE
  5
521
330
2
100
AcDbEntity
  8
AM_VIS
100
AcDbLine
 10
131.9382782194376
 20
394.2386355130737
 30
0.0
 11
124.2396620689828
 21
394.2386355130737
 31
0.0
  0
LINE
  5
522
330
2
100
AcDbEntity
  8
AM_VIS
100
AcDbLine
 10
108.2726150737268
 20
362.2386355130737
 30
0.0
 11
131.9382782194376
 21
362.2386355130737
 31
0.0
  0
LINE
  5
523
330
2
100
AcDbEntity
  8
AM_VIS
100
AcDbLine
 10
131.9382782194376
 20
408.2386355130737
 30
0.0
 11
133.4588308698338
 21
408.2386355130737
 31
0.0
  0
LINE
  5
524
330
2
100
AcDbEntity
  8
AM_VIS
100
AcDbLine
 10
106.0151818217611
 20
348.2386355130737
 30
0.0
 11
131.9382782194376
 21
348.2386355130737
 31
0.0
  0
LINE
  5
525
330
2
100
AcDbEntity
  8
AM_VIS
100
AcDbLine
 10
131.9382782194376
 20
408.2386355130737
 30
0.0
 11
106.0151818217611
 21
408.2386355130737
 31
0.0
  0
ELLIPSE
  5
526
330
2
100
AcDbEntity
  8
AM_VIS
100
AcDbEllipse
 10
145.060137084039
 20
401.4886355130737
 30
0.0
 11
0.0000000000000001
 21
-4.1
 31
0.0
210
0.0
220
0.0
230
1.0
 40
0.9940843382828093
 41
3.275230601499627
 42
3.999740151110022
  0
ELLIPSE
  5
527
330
2
100
AcDbEntity
  8
AM_VIS
100
AcDbEllipse
 10
145.060137084039
 20
354.9886355130737
 30
0.0
 11
0.0000000000000001
 21
-4.1
 31
0.0
210
0.0
220
0.0
230
1.0
 40
0.9940843382828093
 41
3.275230601499627
 42
3.999740151110022
  0
ELLIPSE
  5
528
330
2
100
AcDbEntity
  8
AM_VIS
100
AcDbEllipse
 10
98.83521535388837
 20
401.4886355130737
 30
0.0
 11
0.0000000000000001
 21
-4.1
 31
0.0
210
0.0
220
0.0
230
1.0
 40
0.9940843382828093
 41
3.275230601499627
 42
3.999740151110914
  0
ELLIPSE
  5
529
330
2
100
AcDbEntity
  8
AM_VIS
100
AcDbEllipse
 10
98.83521535388837
 20
354.9886355130737
 30
0.0
 11
0.0000000000000001
 21
-4.1
 31
0.0
210
0.0
220
0.0
230
1.0
 40
0.9940843382828093
 41
3.63490134533955
 42
3.999740151110914
  0
LINE
  5
52A
330
2
100
AcDbEntity
  8
AM_VIS
100
AcDbLine
 10
106.0151818217611
 20
348.2386355130737
 30
0.0
 11
106.0151818217611
 21
360.4049081633549
 31
0.0
  0
LINE
  5
52B
330
2
100
AcDbEntity
  8
AM_VIS
100
AcDbLine
 10
106.0151818217611
 20
394.2386355130737
 30
0.0
 11
106.0151818217611
 21
408.2386355130737
 31
0.0
  0
LINE
  5
52C
330
2
100
AcDbEntity
  8
AM_VIS
100
AcDbLine
 10
38.67467531812637
 20
383.2386355130722
 30
0.0
 11
38.67467531812637
 21
373.2386355130722
 31
0.0
  0
ENDSEC
  0
SECTION
  2
OBJECTS
  0
DICTIONARY
  5
8
330
0
100
AcDbDictionary
  3
ACAD_GROUP
350
20
  3
ACAD_LAYOUT
350
C
  3
ACAD_MLINESTYLE
350
21
  3
ACAD_PLOTSETTINGS
350
22
  3
ACAD_PLOTSTYLENAME
350
7
  3
ACDBHEADERROUNDTRIPXREC
350
537
  0
DICTIONARY
  5
3
330
2
100
AcDbDictionary
280
     1
  3
ACAD_LAYOUTSELFREF
360
558
  0
DICTIONARY
  5
559
330
D
100
AcDbDictionary
280
     1
  3
ACAD_LAYOUTSELFREF
360
55A
  0
DICTIONARY
  5
20
102
{ACAD_REACTORS
330
8
102
}
330
8
100
AcDbDictionary
  0
DICTIONARY
  5
C
102
{ACAD_REACTORS
330
8
102
}
330
8
100
AcDbDictionary
  0
DICTIONARY
  5
21
102
{ACAD_REACTORS
330
8
102
}
330
8
100
AcDbDictionary
  3
STANDARD
350
25
  0
DICTIONARY
  5
22
102
{ACAD_REACTORS
330
8
102
}
330
8
100
AcDbDictionary
  0
ACDBDICTIONARYWDFLT
  5
7
102
{ACAD_REACTORS
330
8
102
}
330
8
100
AcDbDictionary
281
     1
  3
Normal
350
6
100
AcDbDictionaryWithDefault
340
6
  0
DICTIONARY
  5
537
102
{ACAD_REACTORS
330
8
102
}
330
8
100
AcDbDictionary
  3
CEPSNTYPE
350
541
  3
DIMSTYLEDATA
350
545
  3
FINGERPRINTGUID
350
542
  3
HYPERLINKBASE
350
53A
  3
INSUNITS
350
540
  3
LAYOUTDICT
350
53C
  3
LWETCUNION
350
53F
  3
PLOTSETDICT
350
53D
  3
PLOTSTYLNAMDICT
350
53E
  3
PSVPSCALE
350
544
  3
PUCSBASE
350
548
  3
PUCSORGBACK
350
54E
  3
PUCSORGBOTTOM
350
54A
  3
PUCSORGFRONT
350
54D
  3
PUCSORGLEFT
350
54B
  3
PUCSORGRIGHT
350
54C
  3
PUCSORGTOP
350
549
  3
PUCSORTHOREF
350
546
  3
PUCSORTHOVIEW
350
547
  3
STYLESHEET
350
53B
  3
TSTACKALIGN
350
538
  3
TSTACKSIZE
350
539
  3
UCSBASE
350
551
  3
UCSORGBACK
350
557
  3
UCSORGBOTTOM
350
553
  3
UCSORGFRONT
350
556
  3
UCSORGLEFT
350
554
  3
UCSORGRIGHT
350
555
  3
UCSORGTOP
350
552
  3
UCSORTHOREF
350
54F
  3
UCSORTHOVIEW
350
550
  3
VERSIONGUID
350
543
  0
XRECORD
  5
558
102
{ACAD_REACTORS
330
3
102
}
330
3
100
AcDbXrecord
340
2
  0
XRECORD
  5
55A
102
{ACAD_REACTORS
330
559
102
}
330
559
100
AcDbXrecord
340
D
  0
MLINESTYLE
  5
25
102
{ACAD_REACTORS
330
21
102
}
330
21
100
AcDbMlineStyle
  2
STANDARD
 70
     0
  3

 62
   256
 51
90.0
 52
90.0
 71
     2
 49
0.5
 62
   256
  6
BYLAYER
 49
-0.5
 62
   256
  6
BYLAYER
  0
ACDBPLACEHOLDER
  5
6
102
{ACAD_REACTORS
330
7
102
}
330
7
100
AcDbPlaceHolder
280
     0
  0
XRECORD
  5
541
102
{ACAD_REACTORS
330
537
102
}
330
537
100
AcDbXrecord
 90
        0
  0
XRECORD
  5
545
102
{ACAD_REACTORS
330
537
102
}
330
537
100
AcDbXrecord
1000
DSTYLE
1002
{
1070
   289
 70
     0
1002
}
  0
XRECORD
  5
542
102
{ACAD_REACTORS
330
537
102
}
330
537
100
AcDbXrecord
  1
{3F406162-A9F0-11D4-8125-0000E84152ED}
  0
XRECORD
  5
53A
102
{ACAD_REACTORS
330
537
102
}
330
537
100
AcDbXrecord
  1

  0
XRECORD
  5
540
102
{ACAD_REACTORS
330
537
102
}
330
537
100
AcDbXrecord
 90
        0
  0
XRECORD
  5
53C
102
{ACAD_REACTORS
330
537
102
}
330
537
100
AcDbXrecord
340
C
  0
XRECORD
  5
53F
102
{ACAD_REACTORS
330
537
102
}
330
537
100
AcDbXrecord
 90
    10781
  0
XRECORD
  5
53D
102
{ACAD_REACTORS
330
537
102
}
330
537
100
AcDbXrecord
340
22
  0
XRECORD
  5
53E
102
{ACAD_REACTORS
330
537
102
}
330
537
100
AcDbXrecord
340
7
  0
XRECORD
  5
544
102
{ACAD_REACTORS
330
537
102
}
330
537
100
AcDbXrecord
 40
0.0
  0
XRECORD
  5
548
102
{ACAD_REACTORS
330
537
102
}
330
537
100
AcDbXrecord
340
0
  0
XRECORD
  5
54E
102
{ACAD_REACTORS
330
537
102
}
330
537
100
AcDbXrecord
 10
0.0
 20
0.0
 30
0.0
  0
XRECORD
  5
54A
102
{ACAD_REACTORS
330
537
102
}
330
537
100
AcDbXrecord
 10
0.0
 20
0.0
 30
0.0
  0
XRECORD
  5
54D
102
{ACAD_REACTORS
330
537
102
}
330
537
100
AcDbXrecord
 10
0.0
 20
0.0
 30
0.0
  0
XRECORD
  5
54B
102
{ACAD_REACTORS
330
537
102
}
330
537
100
AcDbXrecord
 10
0.0
 20
0.0
 30
0.0
  0
XRECORD
  5
54C
102
{ACAD_REACTORS
330
537
102
}
330
537
100
AcDbXrecord
 10
0.0
 20
0.0
 30
0.0
  0
XRECORD
  5
549
102
{ACAD_REACTORS
330
537
102
}
330
537
100
AcDbXrecord
 10
0.0
 20
0.0
 30
0.0
  0
XRECORD
  5
546
102
{ACAD_REACTORS
330
537
102
}
330
537
100
AcDbXrecord
340
0
  0
XRECORD
  5
547
102
{ACAD_REACTORS
330
537
102
}
330
537
100
AcDbXrecord
 70
     0
  0
XRECORD
  5
53B
102
{ACAD_REACTORS
330
537
102
}
330
537
100
AcDbXrecord
  1

  0
XRECORD
  5
538
102
{ACAD_REACTORS
330
537
102
}
330
537
100
AcDbXrecord
 90
        1
  0
XRECORD
  5
539
102
{ACAD_REACTORS
330
537
102
}
330
537
100
AcDbXrecord
 90
       70
  0
XRECORD
  5
551
102
{ACAD_REACTORS
330
537
102
}
330
537
100
AcDbXrecord
340
0
  0
XRECORD
  5
557
102
{ACAD_REACTORS
330
537
102
}
330
537
100
AcDbXrecord
 10
0.0
 20
0.0
 30
0.0
  0
XRECORD
  5
553
102
{ACAD_REACTORS
330
537
102
}
330
537
100
AcDbXrecord
 10
0.0
 20
0.0
 30
0.0
  0
XRECORD
  5
556
102
{ACAD_REACTORS
330
537
102
}
330
537
100
AcDbXrecord
 10
0.0
 20
0.0
 30
0.0
  0
XRECORD
  5
554
102
{ACAD_REACTORS
330
537
102
}
330
537
100
AcDbXrecord
 10
0.0
 20
0.0
 30
0.0
  0
XRECORD
  5
555
102
{ACAD_REACTORS
330
537
102
}
330
537
100
AcDbXrecord
 10
0.0
 20
0.0
 30
0.0
  0
XRECORD
  5
552
102
{ACAD_REACTORS
330
537
102
}
330
537
100
AcDbXrecord
 10
0.0
 20
0.0
 30
0.0
  0
XRECORD
  5
54F
102
{ACAD_REACTORS
330
537
102
}
330
537
100
AcDbXrecord
340
0
  0
XRECORD
  5
550
102
{ACAD_REACTORS
330
537
102
}
330
537
100
AcDbXrecord
 70
     0
  0
XRECORD
  5
543
102
{ACAD_REACTORS
330
537
102
}
330
537
100
AcDbXrecord
  1
{9782C54B-C9D9-11D4-B214-0000E8450865}
  0
ENDSEC
  0
EOF
