  0
SECTION
  2
HEADER
  9
$ACADVER
  1
AC1014
  9
$ACADMAINTVER
 70
     9
  9
$DWGCODEPAGE
  3
ANSI_1252
  9
$INSBASE
 10
0.0
 20
0.0
 30
0.0
  9
$EXTMIN
 10
-178.1021469315254
 20
-153.8315614711672
 30
0.0
  9
$EXTMAX
 10
671.8427070256124
 20
633.6346344501569
 30
0.0
  9
$LIMMIN
 10
0.0
 20
0.0
  9
$LIMMAX
 10
420.0
 20
297.0
  9
$ORTHOMODE
 70
     1
  9
$REGENMODE
 70
     1
  9
$FILLMODE
 70
     1
  9
$QTEXTMODE
 70
     0
  9
$MIRRTEXT
 70
     1
  9
$DRAGMODE
 70
     2
  9
$LTSCALE
 40
8.0
  9
$OSMODE
 70
    37
  9
$ATTMODE
 70
     1
  9
$TEXTSIZE
 40
2.5
  9
$TRACEWID
 40
1.0
  9
$TEXTSTYLE
  7
STANDARD
  9
$CLAYER
  8
DIMS
  9
$CELTYPE
  6
BYLAYER
  9
$CECOLOR
 62
   256
  9
$CELTSCALE
 40
1.0
  9
$DELOBJ
 70
     1
  9
$DISPSILH
 70
     0
  9
$DIMSCALE
 40
1.0
  9
$DIMASZ
 40
2.5
  9
$DIMEXO
 40
1.0
  9
$DIMDLI
 40
3.75
  9
$DIMRND
 40
0.0
  9
$DIMDLE
 40
0.0
  9
$DIMEXE
 40
1.25
  9
$DIMTP
 40
0.0
  9
$DIMTM
 40
0.0
  9
$DIMTXT
 40
2.5
  9
$DIMCEN
 40
2.5
  9
$DIMTSZ
 40
0.0
  9
$DIMTOL
 70
     0
  9
$DIMLIM
 70
     0
  9
$DIMTIH
 70
     0
  9
$DIMTOH
 70
     0
  9
$DIMSE1
 70
     0
  9
$DIMSE2
 70
     0
  9
$DIMTAD
 70
     1
  9
$DIMZIN
 70
     0
  9
$DIMBLK
  1

  9
$DIMASO
 70
     1
  9
$DIMSHO
 70
     1
  9
$DIMPOST
  1

  9
$DIMAPOST
  1

  9
$DIMALT
 70
     0
  9
$DIMALTD
 70
     4
  9
$DIMALTF
 40
0.0394
  9
$DIMLFAC
 40
-1.0
  9
$DIMTOFL
 70
     0
  9
$DIMTVP
 40
0.0
  9
$DIMTIX
 70
     0
  9
$DIMSOXD
 70
     0
  9
$DIMSAH
 70
     0
  9
$DIMBLK1
  1

  9
$DIMBLK2
  1

  9
$DIMSTYLE
  2
DIMSTYLE1
  9
$DIMCLRD
 70
     0
  9
$DIMCLRE
 70
     0
  9
$DIMCLRT
 70
     0
  9
$DIMTFAC
 40
1.0
  9
$DIMGAP
 40
0.625
  9
$DIMJUST
 70
     0
  9
$DIMSD1
 70
     0
  9
$DIMSD2
 70
     0
  9
$DIMTOLJ
 70
     1
  9
$DIMTZIN
 70
     0
  9
$DIMALTZ
 70
     0
  9
$DIMALTTZ
 70
     0
  9
$DIMFIT
 70
     0
  9
$DIMUPT
 70
     0
  9
$DIMUNIT
 70
     2
  9
$DIMDEC
 70
     1
  9
$DIMTDEC
 70
     0
  9
$DIMALTU
 70
     8
  9
$DIMALTTD
 70
     4
  9
$DIMTXSTY
  7
STANDARD
  9
$DIMAUNIT
 70
     0
  9
$LUNITS
 70
     2
  9
$LUPREC
 70
     4
  9
$SKETCHINC
 40
1.0
  9
$FILLETRAD
 40
10.0
  9
$AUNITS
 70
     0
  9
$AUPREC
 70
     0
  9
$MENU
  1
.
  9
$ELEVATION
 40
0.0
  9
$PELEVATION
 40
0.0
  9
$THICKNESS
 40
0.0
  9
$LIMCHECK
 70
     0
  9
$BLIPMODE
 70
     0
  9
$CHAMFERA
 40
10.0
  9
$CHAMFERB
 40
10.0
  9
$CHAMFERC
 40
20.0
  9
$CHAMFERD
 40
0.0
  9
$SKPOLY
 70
     0
  9
$TDCREATE
 40
2451333.604741435
  9
$TDUPDATE
 40
2451883.622824097
  9
$TDINDWG
 40
0.3409109028
  9
$TDUSRTIMER
 40
0.3409109028
  9
$USRTIMER
 70
     1
  9
$ANGBASE
 50
0.0
  9
$ANGDIR
 70
     0
  9
$PDMODE
 70
     0
  9
$PDSIZE
 40
0.0
  9
$PLINEWID
 40
0.0
  9
$COORDS
 70
     1
  9
$SPLFRAME
 70
     0
  9
$SPLINETYPE
 70
     6
  9
$SPLINESEGS
 70
     8
  9
$ATTDIA
 70
     0
  9
$ATTREQ
 70
     1
  9
$HANDLING
 70
-16383
  9
$HANDSEED
  5
556
  9
$SURFTAB1
 70
     6
  9
$SURFTAB2
 70
     6
  9
$SURFTYPE
 70
     6
  9
$SURFU
 70
     6
  9
$SURFV
 70
     6
  9
$UCSNAME
  2

  9
$UCSORG
 10
0.0
 20
0.0
 30
0.0
  9
$UCSXDIR
 10
1.0
 20
0.0
 30
0.0
  9
$UCSYDIR
 10
0.0
 20
1.0
 30
0.0
  9
$PUCSNAME
  2

  9
$PUCSORG
 10
0.0
 20
0.0
 30
0.0
  9
$PUCSXDIR
 10
1.0
 20
0.0
 30
0.0
  9
$PUCSYDIR
 10
0.0
 20
1.0
 30
0.0
  9
$USERI1
 70
     0
  9
$USERI2
 70
     0
  9
$USERI3
 70
     0
  9
$USERI4
 70
     0
  9
$USERI5
 70
     0
  9
$USERR1
 40
0.0
  9
$USERR2
 40
0.0
  9
$USERR3
 40
0.0
  9
$USERR4
 40
0.0
  9
$USERR5
 40
0.0
  9
$WORLDVIEW
 70
     1
  9
$SHADEDGE
 70
     3
  9
$SHADEDIF
 70
    70
  9
$TILEMODE
 70
     1
  9
$MAXACTVP
 70
    48
  9
$PINSBASE
 10
0.0
 20
0.0
 30
0.0
  9
$PLIMCHECK
 70
     0
  9
$PEXTMIN
 10
-244.9493284145952
 20
-182.4100684661683
 30
0.0
  9
$PEXTMAX
 10
738.6898885086822
 20
639.0846344501569
 30
0.0
  9
$PLIMMIN
 10
-17.79376220703125
 20
-5.793749809265136
  9
$PLIMMAX
 10
261.6062316894531
 20
210.1062440872192
  9
$UNITMODE
 70
     0
  9
$VISRETAIN
 70
     1
  9
$PLINEGEN
 70
     0
  9
$PSLTSCALE
 70
     1
  9
$TREEDEPTH
 70
  3020
  9
$PICKSTYLE
 70
     1
  9
$CMLSTYLE
  2
STANDARD
  9
$CMLJUST
 70
     0
  9
$CMLSCALE
 40
20.0
  9
$PROXYGRAPHICS
 70
     1
  9
$MEASUREMENT
 70
     1
  0
ENDSEC
  0
SECTION
  2
CLASSES
  0
CLASS
  1
ACMESTATEMGR
  2
AcMeStateMgr
  3
AcMeServices
 90
        0
280
     0
281
     0
  0
CLASS
  1
ACMESCOPE
  2
AcMeScope
  3
AcMeServices
 90
        0
280
     0
281
     0
  0
CLASS
  1
ACMECOMMANDHISTORY
  2
AcMeCommandHistory
  3
AcMeServices
 90
        0
280
     0
281
     0
  0
CLASS
  1
ACRFINSADJUSTERMGR
  2
AcRfInsAdjusterMgr
  3
AcMeServices
 90
        0
280
     0
281
     0
  0
CLASS
  1
ACMEDRAWINGMAN
  2
AcMeDrawingMan
  3
AcMeServices
 90
        0
280
     0
281
     0
  0
CLASS
  1
AMATTR
  2
AcMeAttribute
  3
AcMeServices
 90
        0
280
     0
281
     0
  0
CLASS
  1
ACMEBOMCOLUMN
  2
AcMeBOMColumn
  3
AcMeServices
 90
        0
280
     0
281
     0
  0
CLASS
  1
ACANBOMCONF
  2
AcMeBOMConf
  3
AcMeServices
 90
        0
280
     0
281
     0
  0
CLASS
  1
ACMEBOMTABLE
  2
AcMeBOMTable
  3
AcMeServices
 90
        0
280
     0
281
     0
  0
CLASS
  1
ACMEBOMENTRY
  2
AcMeBOMEntry
  3
AcMeServices
 90
        0
280
     0
281
     0
  0
CLASS
  1
ACMEVIEW
  2
AcMeView
  3
AcMeServices
 90
        0
280
     0
281
     0
  0
CLASS
  1
ACGREFMASTER
  2
AcGrefMaster
  3
AcAttribServices
 90
        0
280
     0
281
     0
  0
CLASS
  1
AMIMASTER
  2
AmiMaster
  3
AmiServices
 90
        0
280
     0
281
     0
  0
CLASS
  1
ACASGREFMASTER
  2
AcAsGrefMaster
  3
AutoSurfResolverServices
 90
        0
280
     0
281
     0
  0
CLASS
  1
ADAPPL
  2
AcAdAppl
  3
DesignerServices
 90
        0
280
     0
281
     0
  0
CLASS
  1
DEPMGR
  2
AcAdDepMgr
  3
DesignerServices
 90
        0
280
     0
281
     0
  0
CLASS
  1
PARAMMGR
  2
AcAdParamMgr
  3
DesignerServices
 90
        0
280
     0
281
     0
  0
CLASS
  1
PARAMSCOPE
  2
AcAdParamScope
  3
DesignerServices
 90
        0
280
     0
281
     0
  0
CLASS
  1
ACIMSYSVARMAN
  2
AcImSysVarManager
  3
AcMeServices
 90
        0
280
     0
281
     0
  0
CLASS
  1
ACIMINTSYSVAR
  2
AcImIntSysVar
  3
AcMeServices
 90
        0
280
     0
281
     0
  0
CLASS
  1
ACIMREALSYSVAR
  2
AcImRealSysVar
  3
AcMeServices
 90
        0
280
     0
281
     0
  0
CLASS
  1
ACIMSTRSYSVAR
  2
AcImStrSysVar
  3
AcMeServices
 90
        0
280
     0
281
     0
  0
CLASS
  1
NAMEDAPPL
  2
AcAdNamedAppl
  3
DesignerServices
 90
        0
280
     0
281
     0
  0
CLASS
  1
ADHNTMPLT
  2
AdHoleNoteTemplateMgr
  3
DesignerServices
 90
        0
280
     0
281
     0
  0
CLASS
  1
AM_HNTEMPLATE_MGR_NAME
  2
AdHoleNoteTemplateMgrName
  3
DesignerServices
 90
        0
280
     0
281
     0
  0
CLASS
  1
ACADGREFMODULE
  2
AcAdGrefModule
  3
AdGrefServices
 90
        0
280
     0
281
     0
  0
CLASS
  1
AM_DRAWING_MGR
  2
AcDmDwgMgr
  3
AcMechDwgViewMgmt
 90
        0
280
     0
281
     0
  0
CLASS
  1
AM_DWG_DOCUMENT
  2
AcDmDwgDocument
  3
AcMechDwgViewMgmt
 90
        0
280
     0
281
     0
  0
CLASS
  1
AM_DWG_SHEET
  2
AcDmSheet
  3
AcMechDwgViewMgmt
 90
        0
280
     0
281
     0
  0
CLASS
  1
AM_VIEWDIMPARMAP
  2
AcDmViewDimParMap
  3
AcMechDwgViewMgmt
 90
        0
280
     0
281
     0
  0
CLASS
  1
AM_DWGMGR_NAME
  2
AcDmDwgMgrName
  3
AcMechDwgViewMgmt
 90
        0
280
     0
281
     0
  0
CLASS
  1
ACAMPROJECT
  2
AcAmProject
  3
DesignerAssemblies
 90
        0
280
     0
281
     0
  0
CLASS
  1
ACAMGRCOMPSET
  2
AcAmGrCompSet
  3
DesignerAssemblies
 90
        0
280
     1
281
     0
  0
CLASS
  1
ACAMGRCOMPDEFSET
  2
AcAmGrCompDefSet
  3
DesignerAssemblies
 90
        0
280
     0
281
     0
  0
CLASS
  1
ACAMGRCOMPDEF
  2
AcAmGrCompDef
  3
DesignerAssemblies
 90
        0
280
     0
281
     0
  0
CLASS
  1
ACCMCONTEXT
  2
AcCmContext
  3
DesignerAssemblies
 90
        0
280
     0
281
     0
  0
CLASS
  1
ACAMCOMPDEF
  2
AcAmCompDef
  3
DesignerAssemblies
 90
        0
280
     0
281
     0
  0
CLASS
  1
ACAMCOMPDEFMGR
  2
AcAmCompDefMgr
  3
DesignerAssemblies
 90
        0
280
     0
281
     0
  0
CLASS
  1
AMCONTEXTMGR
  2
AcAmContextMgr
  3
DesignerAssemblies
 90
        0
280
     0
281
     0
  0
CLASS
  1
ACAMCONTEXTMODELER
  2
AcAmContextModeler
  3
DesignerAssemblies
 90
        0
280
     0
281
     0
  0
CLASS
  1
ACDMVIEWGEOM
  2
AcDmViewGeometry
  3
AcMechDwgViewMgmt
 90
        0
280
     0
281
     1
  0
CLASS
  1
CBROWSERAPPOBJECT
  2
CBrowserAppObject
  3
McadcomServices
 90
        0
280
     0
281
     0
  0
CLASS
  1
IM_STATIC_MAN
  2
AcImStaticVarManager
  3
AcMeServices
 90
        0
280
     0
281
     0
  0
CLASS
  1
ASAPP
  2
AcAsAppObject
  3
AutoSurfServices
 90
        0
280
     0
281
     0
  0
CLASS
  1
ACIMDBLSTATICVAR
  2
AcImDblStaticVar
  3
AcMeServices
 90
        0
280
     0
281
     0
  0
CLASS
  1
ACIMSTRSTATICVAR
  2
AcImStrStaticVar
  3
AcMeServices
 90
        0
280
     0
281
     0
  0
CLASS
  1
ACIMINTSTATICVAR
  2
AcImIntStaticVar
  3
AcMeServices
 90
        0
280
     0
281
     0
  0
CLASS
  1
CATALOGSTATE
  2
AcAmCatalogState
  3
DesignerAssemblies
 90
        0
280
     0
281
     0
  0
CLASS
  1
DM_PLACEHOLDER
  2
AcDmSelsetPlaceholder
  3
AcMechDwgViewMgmt
 90
        0
280
     0
281
     0
  0
CLASS
  1
DICTIONARYVAR
  2
AcDbDictionaryVar
  3
AutoCAD 2000
 90
        0
280
     0
281
     0
  0
CLASS
  1
LAYER_INDEX
  2
AcDbLayerIndex
  3
AutoCAD 2000
 90
        0
280
     0
281
     0
  0
CLASS
  1
IDBUFFER
  2
AcDbIdBuffer
  3
AutoCAD 2000
 90
        0
280
     0
281
     0
  0
CLASS
  1
ACMSTANDARDJIS
  2
AcmStandardJIS
  3
"Amdt_StdImp|Product Description: AutoCAD Mechanical 2000|Company: Autodesk"
 90
        0
280
     0
281
     0
  0
CLASS
  1
ACMSTANDARDANSI
  2
AcmStandardANSI
  3
"Amdt_StdImp|Product Description: AutoCAD Mechanical 2000|Company: Autodesk"
 90
        0
280
     0
281
     0
  0
CLASS
  1
ACMSTANDARDBSI
  2
AcmStandardBSI
  3
"Amdt_StdImp|Product Description: AutoCAD Mechanical 2000|Company: Autodesk"
 90
        0
280
     0
281
     0
  0
CLASS
  1
ACMSTANDARDDIN
  2
AcmStandardDIN
  3
"Amdt_StdImp|Product Description: AutoCAD Mechanical 2000|Company: Autodesk"
 90
        0
280
     0
281
     0
  0
CLASS
  1
ACMSTANDARDISO
  2
AcmStandardISO
  3
"Amdt_StdImp|Product Description: AutoCAD Mechanical 2000|Company: Autodesk"
 90
        0
280
     0
281
     0
  0
CLASS
  1
DSDatabasePersistent
  2
DSDatabasePersistent
  3
DesignSpace
 90
        0
280
     1
281
     0
  0
CLASS
  1
DSGfxEntity
  2
DSGfxEntity
  3
DesignSpace
 90
        0
280
     1
281
     1
  0
CLASS
  1
DSGfxEntityMarker
  2
DSGfxEntityMarker
  3
DesignSpace
 90
        0
280
     1
281
     0
  0
CLASS
  1
AGDICTIONARY
  2
AgDictionary
  3
"AccelView"
 90
        1
280
     0
281
     0
  0
CLASS
  1
ACAMEXTERNALCOMPDEF
  2
AcAmExternalCompDef
  3
DesignerAssemblies
 90
        0
280
     0
281
     0
  0
CLASS
  1
ACCMBODY
  2
AcCmBody
  3
DesignerAssemblies
 90
        0
280
     0
281
     0
  0
CLASS
  1
ACAMGRCOMP
  2
AcAmGrComp
  3
DesignerAssemblies
 90
        0
280
     0
281
     0
  0
CLASS
  1
ACAMCOMPFEEDBACK
  2
AcAmCompFeedback
  3
DesignerAssemblies
 90
        0
280
     0
281
     0
  0
CLASS
  1
ACAMCOMP
  2
AcAmComp
  3
DesignerAssemblies
 90
        0
280
     0
281
     0
  0
CLASS
  1
ACAMGRCOMPCLONE
  2
AcAmGrCompClone
  3
DesignerAssemblies
 90
        0
280
     0
281
     0
  0
CLASS
  1
ACAMCLONEREACTOR
  2
AcAmGrCompCloneReactor
  3
DesignerAssemblies
 90
        0
280
     0
281
     0
  0
CLASS
  1
EDGEID
  2
AcAdEdgeId
  3
DesignerServices
 90
        0
280
     0
281
     0
  0
CLASS
  1
ACADPARTCIRCEDGRES
  2
AcAdPartCircEdgRes
  3
AdGrefServices
 90
        0
280
     0
281
     0
  0
CLASS
  1
ACRFINSADJ
  2
AcRfInsAdjuster
  3
AcMeServices
 90
        0
280
     0
281
     0
  0
CLASS
  1
FACEID
  2
AcAdFaceId
  3
DesignerServices
 90
        0
280
     0
281
     0
  0
CLASS
  1
DEPEDGESECONDARYDEPID
  2
AcAdDepEdgeSecondaryDepId
  3
DesignerServices
 90
        0
280
     0
281
     0
  0
CLASS
  1
ACADPARTPLANARFACERES
  2
AcAdPartPlanarFaceRes
  3
AdGrefServices
 90
        0
280
     0
281
     0
  0
CLASS
  1
ACMELINEARARROW
  2
AcImLinearArrowDisplay
  3
AcMeServices
 90
        0
280
     0
281
     1
  0
CLASS
  1
ACAMEXPR
  2
AcAmExpr
  3
DesignerAssemblies
 90
        0
280
     0
281
     0
  0
CLASS
  1
ACCMINSERTPLPL
  2
AcCmInsertPlPl
  3
AcCmServices
 90
        0
280
     0
281
     0
  0
CLASS
  1
ACADPARTLINEDGRES
  2
AcAdPartLinEdgRes
  3
AdGrefServices
 90
        0
280
     0
281
     0
  0
CLASS
  1
STREFID
  2
AcAdStraightRefId
  3
DesignerServices
 90
        0
280
     0
281
     0
  0
CLASS
  1
ACMEAXIS
  2
AcImAxisDisplay
  3
AcMeServices
 90
        0
280
     0
281
     1
  0
CLASS
  1
ACMEPOINT
  2
AcImPointDisplay
  3
AcMeServices
 90
        0
280
     0
281
     1
  0
CLASS
  1
ACCMANGVECVEC
  2
AcCmAngVecVec
  3
DesignerAssemblies
 90
        0
280
     0
281
     0
  0
CLASS
  1
ACMEROTATIONARROW
  2
AcImRotationArrowDisplay
  3
AcMeServices
 90
        0
280
     0
281
     1
  0
CLASS
  1
ACMECIRCARC
  2
AcImCircArcDisplay
  3
AcMeServices
 90
        0
280
     0
281
     1
  0
CLASS
  1
CIRREFID
  2
AcAdCircleRefId
  3
DesignerServices
 90
        0
280
     0
281
     0
  0
CLASS
  1
ACADPARTCYLINDERFACERES
  2
AcAdPartCylinderFaceRes
  3
AdGrefServices
 90
        0
280
     0
281
     0
  0
CLASS
  1
ACCMDISTLNLN
  2
AcCmDistLnLn
  3
DesignerAssemblies
 90
        0
280
     0
281
     0
  0
CLASS
  1
SILEDGEID
  2
AcAdSilhouetteEdgeId
  3
DesignerServices
 90
        0
280
     0
281
     0
  0
CLASS
  1
ACADPARTAXISRES
  2
AcAdPartAxisRes
  3
AdGrefServices
 90
        0
280
     0
281
     0
  0
CLASS
  1
ACRFATTGENMGR
  2
AcRfAttGeneralMgr
  3
AcAttribServices
 90
        0
280
     0
281
     0
  0
CLASS
  1
ACAMGRBLOCKRECORD
  2
AcAmGrBlockRecord
  3
DesignerAssemblies
 90
        0
280
     0
281
     0
  0
CLASS
  1
ACAMVIEWREACTOR
  2
AcAmViewReactor
  3
DesignerAssemblies
 90
        0
280
     0
281
     0
  0
CLASS
  1
AMVIEW
  2
AcAmView
  3
DesignerAssemblies
 90
        0
280
     0
281
     0
  0
CLASS
  1
ACAMVIEWCONTEXT
  2
AcAmViewContext
  3
DesignerAssemblies
 90
        0
280
     0
281
     0
  0
CLASS
  1
ACAMCOMPVIEWREACTOR
  2
AcAmGrCompViewReactor
  3
DesignerAssemblies
 90
        0
280
     0
281
     0
  0
CLASS
  1
ACAMGRCOMPVIEW
  2
AcAmGrCompView
  3
DesignerAssemblies
 90
        0
280
     0
281
     0
  0
CLASS
  1
HATCH
  2
AcDbHatch
  3
AutoCAD 2000
 90
        0
280
     0
281
     1
  0
CLASS
  1
FEEDBACK
  2
AcAmFeedback
  3
DesignerAssemblies
 90
        0
280
     0
281
     1
  0
CLASS
  1
ACAMTRIAXISSYMBOL
  2
AcAmTriAxisSymbol
  3
DesignerAssemblies
 90
        0
280
     0
281
     0
  0
CLASS
  1
ACAMROTAXISSYMBOL
  2
AcAmRotAxisSymbol
  3
DesignerAssemblies
 90
        0
280
     0
281
     0
  0
CLASS
  1
ACAMTEXTCIRCLESYMBOL
  2
AcAmTextCircleSymbol
  3
DesignerAssemblies
 90
        0
280
     0
281
     0
  0
CLASS
  1
ACAMVECTORSYMBOL
  2
AcAmVectorSymbol
  3
DesignerAssemblies
 90
        0
280
     0
281
     0
  0
CLASS
  1
ACAMVIEWENTITYFILTER
  2
AcAmViewEntityFilter
  3
DesignerAssemblies
 90
        0
280
     0
281
     0
  0
CLASS
  1
AM_ABS_PLANE
  2
AcDmAbsPlnDef
  3
AcMechDwgViewMgmt
 90
        0
280
     0
281
     0
  0
CLASS
  1
AM_ABS_AXIS
  2
AcDmAbsAxisDef
  3
AcMechDwgViewMgmt
 90
        0
280
     0
281
     0
  0
CLASS
  1
AM_BASE_VIEW_ORIENT
  2
AcDmBaseViewOr
  3
AcMechDwgViewMgmt
 90
        0
280
     0
281
     0
  0
CLASS
  1
AM_DWG_VIEWPORT
  2
AcDmViewport
  3
AcMechDwgViewMgmt
 90
        0
280
     0
281
     0
  0
CLASS
  1
AM_VIEW_DISPLAY
  2
AcDmDwgViewDisplay
  3
AcMechDwgViewMgmt
 90
        0
280
     0
281
     0
  0
CLASS
  1
AM_BASE_VIEW
  2
AcDmBaseView
  3
AcMechDwgViewMgmt
 90
        0
280
     0
281
     0
  0
CLASS
  1
ACDMVWEDCIRC
  2
AcDmViewEdgeCircle
  3
AcMechDwgViewMgmt
 90
        0
280
     0
281
     1
  0
CLASS
  1
ACDMVWEDLINE
  2
AcDmViewEdgeLine
  3
AcMechDwgViewMgmt
 90
        0
280
     0
281
     1
  0
CLASS
  1
ACDMVWEDSPLINE
  2
AcDmViewEdgeSpline
  3
AcMechDwgViewMgmt
 90
        0
280
     0
281
     1
  0
CLASS
  1
ACDMVWEDARC
  2
AcDmViewEdgeArc
  3
AcMechDwgViewMgmt
 90
        0
280
     0
281
     1
  0
CLASS
  1
CNRREFID
  2
AcAdCornerId
  3
DesignerServices
 90
        0
280
     0
281
     0
  0
CLASS
  1
ACADPARTPOINTRES
  2
AcAdPartPointRes
  3
AdGrefServices
 90
        0
280
     0
281
     0
  0
CLASS
  1
AM_DETAIL_VIEW
  2
AcDmDetailView
  3
AcMechDwgViewMgmt
 90
        0
280
     0
281
     0
  0
CLASS
  1
AM_ORTHO_VIEW_ORIENT
  2
AcDmOrthoViewOr
  3
AcMechDwgViewMgmt
 90
        0
280
     0
281
     0
  0
CLASS
  1
AM_ORTHO_VIEW
  2
AcDmOrthoView
  3
AcMechDwgViewMgmt
 90
        0
280
     0
281
     0
  0
CLASS
  1
AM_DETAILSYMBOL
  2
AcDmDetailSymbol
  3
AcMechDwgViewMgmt
 90
        0
280
     0
281
     0
  0
CLASS
  1
AM_DETAILVWLBL
  2
AcDmDetailViewLabel
  3
AcMechDwgViewMgmt
 90
        0
280
     0
281
     0
  0
CLASS
  1
AM_ISO_VIEW_ORIENT
  2
AcDmIsoViewOr
  3
AcMechDwgViewMgmt
 90
        0
280
     0
281
     0
  0
CLASS
  1
AM_ISO_VIEW
  2
AcDmIsoView
  3
AcMechDwgViewMgmt
 90
        0
280
     0
281
     0
  0
CLASS
  1
AM_USERDEFNNOTE
  2
AcDmUserDefnNote
  3
AcMechDwgViewMgmt
 90
        0
280
     0
281
     0
  0
CLASS
  1
AM_VIEWDIMLINEAR
  2
AcDmViewDimLinear
  3
AcMechDwgViewMgmt
 90
        0
280
     0
281
     0
  0
CLASS
  1
ACMEPLINE
  2
AcImPlineDisplay
  3
AcMeServices
 90
        0
280
     0
281
     1
  0
CLASS
  1
ACADPARTSPLINEEDGERES
  2
AcAdPartSplineEdgeRes
  3
AdGrefServices
 90
        0
280
     0
281
     0
  0
CLASS
  1
ACADPARTCONICALFACERES
  2
AcAdPartConicalFaceRes
  3
AdGrefServices
 90
        0
280
     0
281
     0
  0
CLASS
  1
ACAMROTVECTORSYMBOL
  2
AcAmRotVectorSymbol
  3
DesignerAssemblies
 90
        0
280
     0
281
     0
  0
CLASS
  1
ADPART
  2
AcAdPart
  3
DesignerServices
 90
        0
280
     0
281
     1
  0
CLASS
  1
WORKPLANEDISPLAYMGR
  2
AcAdDisplayMgr
  3
DesignerServices
 90
        0
280
     0
281
     0
  0
CLASS
  1
PARAM
  2
AcAdParam
  3
DesignerServices
 90
        0
280
     0
281
     0
  0
CLASS
  1
ADDATUMAXISABS
  2
AcAdDatumAxisAbs
  3
DesignerServices
 90
        0
280
     0
281
     0
  0
CLASS
  1
ADDATUMPLANEABS
  2
AcAdDatumPlaneAbs
  3
DesignerServices
 90
        0
280
     0
281
     0
  0
CLASS
  1
ADBASE
  2
AcAdBase
  3
DesignerServices
 90
        0
280
     0
281
     0
  0
CLASS
  1
ADDATUMORIENTEDPLANE
  2
AcAdDatumOrientedPlane
  3
DesignerServices
 90
        0
280
     0
281
     0
  0
CLASS
  1
BODYID
  2
AcAdBodyId
  3
DesignerServices
 90
        0
280
     0
281
     0
  0
CLASS
  1
ADVIRTUALCONTAINER
  2
AcAdVirtualContainer
  3
DesignerServices
 90
        0
280
     0
281
     0
  0
CLASS
  1
ADVIRTUALVERTEX
  2
AcAdVirtualVertex
  3
DesignerServices
 90
        0
280
     0
281
     0
  0
CLASS
  1
ACADCONSGROUP
  2
AcAdConstraintGroup
  3
DesignerServices
 90
        0
280
     0
281
     0
  0
CLASS
  1
ACADREFLINEACAD
  2
AcAdVirtualReferenceLine
  3
DesignerServices
 90
        0
280
     0
281
     0
  0
CLASS
  1
ACADCONSLINE
  2
AcAdConstrainedLine
  3
DesignerServices
 90
        0
280
     0
281
     0
  0
CLASS
  1
ACADPLLINEACAD
  2
AcAdVirtualLinePlineAcad
  3
DesignerServices
 90
        0
280
     0
281
     0
  0
CLASS
  1
ACADIMPPTACAD
  2
AcAdVirtualImplicitPoint
  3
DesignerServices
 90
        0
280
     0
281
     0
  0
CLASS
  1
ACADCONSPOINT
  2
AcAdConstrainedPoint
  3
DesignerServices
 90
        0
280
     0
281
     0
  0
CLASS
  1
ADPCURCNS
  2
AcAdPointCurveConstr
  3
DesignerServices
 90
        0
280
     0
281
     0
  0
CLASS
  1
ADHORCNS
  2
AcAdHorizontalConstr
  3
DesignerServices
 90
        0
280
     0
281
     0
  0
CLASS
  1
ADVERCNS
  2
AcAdVerticalConstr
  3
DesignerServices
 90
        0
280
     0
281
     0
  0
CLASS
  1
ADVDISTCNS
  2
AcAdVerticalDistanceConstr
  3
DesignerServices
 90
        0
280
     0
281
     0
  0
CLASS
  1
ADHDISTCNS
  2
AcAdHorizontalDistanceConstr
  3
DesignerServices
 90
        0
280
     0
281
     0
  0
CLASS
  1
ADCLPROF2D
  2
AcAdClosedProfile2d
  3
DesignerServices
 90
        0
280
     0
281
     0
  0
CLASS
  1
DEPEDGEFEATUREORDERING
  2
AcAdDepEdgeFeatureOrdering
  3
DesignerServices
 90
        0
280
     0
281
     0
  0
CLASS
  1
ADEXTRUSIONBLIND
  2
AcAdExtrusionBlind
  3
DesignerServices
 90
        0
280
     0
281
     0
  0
CLASS
  1
ADPLANEID
  2
AcAdPlaneId
  3
DesignerServices
 90
        0
280
     0
281
     0
  0
CLASS
  1
ADSTRAIGHTID
  2
AcAdStraightId
  3
DesignerServices
 90
        0
280
     0
281
     0
  0
CLASS
  1
ADFILLET
  2
AcAdFillet
  3
DesignerServices
 90
        0
280
     0
281
     0
  0
CLASS
  1
ADDATUMPLANEFACE
  2
AcAdDatumPlaneFace
  3
DesignerServices
 90
        0
280
     0
281
     0
  0
CLASS
  1
ADDATUMAXISEDGE
  2
AcAdDatumAxisEdge
  3
DesignerServices
 90
        0
280
     0
281
     0
  0
CLASS
  1
ADPLANEID
  2
AcAdSurfGeomId
  3
DesignerServices
 90
        0
280
     0
281
     0
  0
CLASS
  1
HVREFID
  2
AcAdHVRefId
  3
DesignerServices
 90
        0
280
     0
281
     0
  0
CLASS
  1
ADDATUMAXISCENTER
  2
AcAdDatumAxisCenter
  3
DesignerServices
 90
        0
280
     0
281
     0
  0
CLASS
  1
ADDATUMPOINTAXISPLANE
  2
AcAdDatumPointAxisPlane
  3
DesignerServices
 90
        0
280
     0
281
     0
  0
CLASS
  1
ADVIRTUALPOINTWORKPOINTFREE
  2
AcAdVirtualPointWorkPointFree
  3
DesignerServices
 90
        0
280
     0
281
     0
  0
CLASS
  1
ACADLINEDEPID
  2
AcAdVirtualPointDepId
  3
DesignerServices
 90
        0
280
     0
281
     0
  0
CLASS
  1
ADWORKPOINTDISPLAY
  2
AcAdWorkPointDisplay
  3
DesignerServices
 90
        0
280
     0
281
     1
  0
CLASS
  1
ADWORKPOINTSKETCH
  2
AcAdWorkPointSketch
  3
DesignerServices
 90
        0
280
     0
281
     0
  0
CLASS
  1
ADHOLEFEAT
  2
AcAdHoleFeat
  3
DesignerServices
 90
        0
280
     0
281
     0
  0
CLASS
  1
DATUMAXISDISPLAY
  2
AcAdDatumAxisDisplay
  3
DesignerServices
 90
        0
280
     0
281
     1
  0
CLASS
  1
ACADCIRCLEACAD
  2
AcAdVirtualCircleAcad
  3
DesignerServices
 90
        0
280
     0
281
     0
  0
CLASS
  1
ACADCONSCIRCLE
  2
AcAdConstrainedCircle
  3
DesignerServices
 90
        0
280
     0
281
     0
  0
CLASS
  1
ADCTRPTCNS
  2
AcAdCenterPointConstr
  3
DesignerServices
 90
        0
280
     0
281
     0
  0
CLASS
  1
ADDIACNS
  2
AcAdAcadDiameterConstr
  3
DesignerServices
 90
        0
280
     0
281
     0
  0
CLASS
  1
ACADCIRCDEPID
  2
AcAdVirtualCircleDepId
  3
DesignerServices
 90
        0
280
     0
281
     0
  0
CLASS
  1
ADCONCCNS
  2
AcAdConcentricConstr
  3
DesignerServices
 90
        0
280
     0
281
     0
  0
CLASS
  1
ACADLINEACAD
  2
AcAdVirtualBoundedLineAcad
  3
DesignerServices
 90
        0
280
     0
281
     0
  0
CLASS
  1
ADCOLNCNS
  2
AcAdColinearConstr
  3
DesignerServices
 90
        0
280
     0
281
     0
  0
CLASS
  1
ADDATUMPOINT2EDGES
  2
AcAdDatumPoint2Edges
  3
DesignerServices
 90
        0
280
     0
281
     0
  0
CLASS
  1
ACADARCACAD
  2
AcAdVirtualArcAcad
  3
DesignerServices
 90
        0
280
     0
281
     0
  0
CLASS
  1
ADTANCNS
  2
AcAdTangentConstr
  3
DesignerServices
 90
        0
280
     0
281
     0
  0
CLASS
  1
ADPARCNS
  2
AcAdParallelConstr
  3
DesignerServices
 90
        0
280
     0
281
     0
  0
CLASS
  1
ADEQRADCNS
  2
AcAdEqualRadiusConstr
  3
DesignerServices
 90
        0
280
     0
281
     0
  0
CLASS
  1
ADBDISTCNS
  2
AcAdAcadAngleConstr
  3
DesignerServices
 90
        0
280
     0
281
     0
  0
CLASS
  1
ADEXTRUSIONTHRU
  2
AcAdExtrusionThru
  3
DesignerServices
 90
        0
280
     0
281
     0
  0
CLASS
  1
ADFEATRECTARRAY
  2
AcAdRectangularFeatArray
  3
DesignerServices
 90
        0
280
     0
281
     0
  0
CLASS
  1
ADRADCNS
  2
AcAdAcadRadiusConstr
  3
DesignerServices
 90
        0
280
     0
281
     0
  0
CLASS
  1
ACCMDISTPLPL
  2
AcCmDistPlPl
  3
DesignerAssemblies
 90
        0
280
     0
281
     0
  0
CLASS
  1
ACAMCLONECHILDREACTOR
  2
AcAmGrCloneChildReactor
  3
DesignerAssemblies
 90
        0
280
     0
281
     0
  0
CLASS
  1
ACADPLARCACAD
  2
AcAdVirtualArcPlineAcad
  3
DesignerServices
 90
        0
280
     0
281
     0
  0
CLASS
  1
DATUMPLANEDISPLAY
  2
AcAdDatumPlaneDisplay
  3
DesignerServices
 90
        0
280
     0
281
     1
  0
CLASS
  1
ADDATUMPLANEOFFSET
  2
AcAdDatumPlaneOffset
  3
DesignerServices
 90
        0
280
     0
281
     0
  0
CLASS
  1
ADREVOLUTIONFULL
  2
AcAdRevolutionFull
  3
DesignerServices
 90
        0
280
     0
281
     0
  0
CLASS
  1
ADDATUMPLANEAXISPLANE
  2
AcAdDatumPlaneAxisPlane
  3
DesignerServices
 90
        0
280
     0
281
     0
  0
CLASS
  1
ADEXTRUSIONMIDPLANE
  2
AcAdExtrusionMidplane
  3
DesignerServices
 90
        0
280
     0
281
     0
  0
CLASS
  1
ACMWELDSYM
  2
AcmWelding
  3
"AcmSymBB|Product Description: AutoCAD Mechanical 2000|Company: Autodesk"
 90
     1023
280
     0
281
     1
  0
CLASS
  1
ADLDISTCNS
  2
AcAdLinearDistanceConstr
  3
DesignerServices
 90
        0
280
     0
281
     0
  0
CLASS
  1
ADDATUMPOINT2HOLES
  2
AcAdDatumPoint2Holes
  3
DesignerServices
 90
        0
280
     0
281
     0
  0
CLASS
  1
ADPARAMETRICBOOLEAN
  2
AcAdParametricBoolean
  3
DesignerServices
 90
        0
280
     0
281
     0
  0
CLASS
  1
DEPEDGEPARAMETRCBOOLORDERING
  2
AcAdDepEdgeParametricBooleanOrdering
  3
DesignerServices
 90
        0
280
     0
281
     0
  0
CLASS
  1
ACAMTOOLBODYCOMP
  2
AcAmToolBodyComp
  3
DesignerAssemblies
 90
        0
280
     0
281
     0
  0
CLASS
  1
ACAMBLANKBODYCOMP
  2
AcAmBlankBodyComp
  3
DesignerAssemblies
 90
        0
280
     0
281
     0
  0
CLASS
  1
ACADBOUNDEDLINEDATUMID
  2
AcAdVirtualBoundedLineDatumId
  3
DesignerServices
 90
        0
280
     0
281
     0
  0
CLASS
  1
ADDATUMPLANETANGENTPLANE
  2
AcAdDatumPlaneTangentPlane
  3
DesignerServices
 90
        0
280
     0
281
     0
  0
CLASS
  1
ACDBDICTIONARYWDFLT
  2
AcDbDictionaryWithDefault
  3
AutoCAD 2000
 90
        0
280
     0
281
     0
  0
CLASS
  1
ACDBPLACEHOLDER
  2
AcDbPlaceHolder
  3
AutoCAD 2000
 90
        0
280
     0
281
     0
  0
CLASS
  1
LAYOUT
  2
AcDbLayout
  3
AutoCAD 2000
 90
        0
280
     0
281
     0
  0
CLASS
  1
ACME_DOCUMENT
  2
AcMeDbDoc
  3
AcMeServices
 90
        0
280
     0
281
     0
  0
CLASS
  1
AMGOBJPROPCFG
  2
AmgObjPropCfg
  3
"AmgLay|Product Description: AutoCAD Mechanical 2000|Company: Autodesk"
 90
        1
280
     0
281
     0
  0
CLASS
  1
AMGSETTINGSOBJ
  2
AmgSettingsObj
  3
"AcadM|Product Description: AutoCAD Mechanical 2000|Company: Autodesk"
 90
        0
280
     0
281
     0
  0
CLASS
  1
ACDBENTITYCACHE
  2
AcMeEntityCache
  3
AcMeServices
 90
        0
280
     0
281
     0
  0
CLASS
  1
GSMANAGER
  2
AcMeGSManager
  3
AcMeServices
 90
        0
280
     0
281
     0
  0
CLASS
  1
AmdtInternalReactor
  2
AmdtInternalReactor
  3
AcMeServices
 90
        0
280
     0
281
     0
  0
CLASS
  1
ACME_DATABASE
  2
AcMeDbDatabase
  3
AcMeServices
 90
        0
280
     0
281
     0
  0
CLASS
  1
ACGREFMASTER
  2
AcGrefacadMaster
  3
AcGrefServices
 90
        0
280
     0
281
     0
  0
CLASS
  1
AMDTMENUSTATEMGR
  2
AmdtMenuStateMgr
  3
McadcomServices
 90
        0
280
     0
281
     0
  0
CLASS
  1
AMDTMCOMMENUSTATE
  2
AmdtMcomMenuState
  3
McadcomServices
 90
        0
280
     0
281
     0
  0
CLASS
  1
AmdtMApiSurfModule
  2
AmdtMApiSurfModule
  3
MApiSurfServices
 90
        0
280
     0
281
     0
  0
CLASS
  1
MAPIAMMOUDLE
  2
MApiAmModule
  3
MApiAmServices
 90
        0
280
     0
281
     0
  0
CLASS
  1
AMDTADMENUSTATE
  2
AmdtAdMenuState
  3
DesignerServices
 90
        0
280
     0
281
     0
  0
CLASS
  1
AMDTDMMENUSTATE
  2
AmdtDmMenuState
  3
AcMechDwgViewMgmt
 90
        0
280
     0
281
     0
  0
CLASS
  1
MAPIADMODULE
  2
MApiAdModule
  3
MApiAdServices
 90
        0
280
     0
281
     0
  0
CLASS
  1
AMDTAMMENUSTATE
  2
AmdtAmMenuState
  3
DesignerAssemblies
 90
        0
280
     0
281
     0
  0
CLASS
  1
ACAMCOMPENT
  2
AcAmCompEnt
  3
DesignerAssemblies
 90
        0
280
     0
281
     1
  0
CLASS
  1
ACAMCOMPENTCLONE
  2
AcAmCompEntClone
  3
DesignerAssemblies
 90
        0
280
     0
281
     1
  0
CLASS
  1
ACCMCONSTREACTOR
  2
AcCmConstraintReactor
  3
DesignerAssemblies
 90
        0
280
     0
281
     0
  0
CLASS
  1
ACAD_FIXCONSTRAINT
  2
AcAdFixedConstraint
  3
DesignerServices
 90
        0
280
     0
281
     0
  0
CLASS
  1
ACMDATADICTIONARY
  2
AcmDataDictionary
  3
"AcmSymBB|Product Description: AutoCAD Mechanical 2000|Company: Autodesk"
 90
        0
280
     0
281
     0
  0
CLASS
  1
ACMDATAENTRYBLOCK
  2
AcmDataEntryBlock
  3
"AcmSymBB|Product Description: AutoCAD Mechanical 2000|Company: Autodesk"
 90
        0
280
     0
281
     0
  0
CLASS
  1
AMDTFORMULAUPDATEDISPATCHER
  2
AmdtFormulaUpdateDispatcher
  3
AcMeServices
 90
        0
280
     0
281
     0
  0
CLASS
  1
ACMSURFSTANDARDJIS
  2
AcmSurfTextStdJIS
  3
"Amdt_StdImp|Product Description: AutoCAD Mechanical 2000|Company: Autodesk"
 90
        0
280
     0
281
     0
  0
CLASS
  1
ACMFCFSTANDARDJIS
  2
AcmFCFStdJIS
  3
"Amdt_StdImp|Product Description: AutoCAD Mechanical 2000|Company: Autodesk"
 90
        0
280
     0
281
     0
  0
CLASS
  1
ACMWELDSTANDARDJIS
  2
AcmWeldingStdJIS
  3
"Amdt_StdImp|Product Description: AutoCAD Mechanical 2000|Company: Autodesk"
 90
        0
280
     0
281
     0
  0
CLASS
  1
ACMIDSTANDARDJIS
  2
AcmIdStdJIS
  3
"Amdt_StdImp|Product Description: AutoCAD Mechanical 2000|Company: Autodesk"
 90
        0
280
     0
281
     0
  0
CLASS
  1
ACMDATUMSTANDARDJIS
  2
AcmDatumStdJIS
  3
"Amdt_StdImp|Product Description: AutoCAD Mechanical 2000|Company: Autodesk"
 90
        0
280
     0
281
     0
  0
CLASS
  1
ACMBOMSTANDARDJIS
  2
AcmBOMStdJIS
  3
"Amdt_StdImp|Product Description: AutoCAD Mechanical 2000|Company: Autodesk"
 90
        0
280
     0
281
     0
  0
CLASS
  1
ACMDETAILSTANDARDJIS
  2
AmdtDetailSymStdJIS
  3
"Amdt_StdImp|Product Description: AutoCAD Mechanical 2000|Company: Autodesk"
 90
        0
280
     0
281
     0
  0
CLASS
  1
ACMSECTIONSTANDARDJIS
  2
AmdtSectionSymStdJIS
  3
"Amdt_StdImp|Product Description: AutoCAD Mechanical 2000|Company: Autodesk"
 90
        0
280
     0
281
     0
  0
CLASS
  1
ACMCENTERLINESTANDARDJIS
  2
AmdtCenterLineStdJIS
  3
"Amdt_StdImp|Product Description: AutoCAD Mechanical 2000|Company: Autodesk"
 90
        0
280
     0
281
     0
  0
CLASS
  1
ACMThreadLineSTANDARDJIS
  2
AmdtThreadLineStdJIS
  3
"Amdt_StdImp|Product Description: AutoCAD Mechanical 2000|Company: Autodesk"
 90
        0
280
     0
281
     0
  0
CLASS
  1
"AcAmgLayStd"
  2
AcAmgLayStd
  3
"AcAmgLayStd|Product Description: AutoCAD Mechanical 2000|Company: Autodesk"
 90
        0
280
     0
281
     0
  0
CLASS
  1
"AcAmgDimStd"
  2
AcAmgDimStd
  3
"AcAmgDimStd|Product Description: AutoCAD Mechanical 2000|Company: Autodesk"
 90
        0
280
     0
281
     0
  0
CLASS
  1
AcAmgTitleStd
  2
AcAmgTitleStd
  3
"TITLEAPP"
 90
        0
280
     0
281
     0
  0
CLASS
  1
AMDTEDGESTANDARDISO
  2
AmdtEdgeStdISO
  3
"Amdt_StdImp|Product Description: AutoCAD Mechanical 2000|Company: Autodesk"
 90
        0
280
     0
281
     0
  0
CLASS
  1
ACMSURFSTANDARDISO
  2
AcmSurfTextStdISO
  3
"Amdt_StdImp|Product Description: AutoCAD Mechanical 2000|Company: Autodesk"
 90
        0
280
     0
281
     0
  0
CLASS
  1
ACMFCFSTANDARDISO
  2
AcmFCFStdISO
  3
"Amdt_StdImp|Product Description: AutoCAD Mechanical 2000|Company: Autodesk"
 90
        0
280
     0
281
     0
  0
CLASS
  1
ACMWELDSTANDARDISO
  2
AcmWeldingStdISO
  3
"Amdt_StdImp|Product Description: AutoCAD Mechanical 2000|Company: Autodesk"
 90
        0
280
     0
281
     0
  0
CLASS
  1
ACMIDSTANDARDISO
  2
AcmIdStdISO
  3
"Amdt_StdImp|Product Description: AutoCAD Mechanical 2000|Company: Autodesk"
 90
        0
280
     0
281
     0
  0
CLASS
  1
ACMDATUMSTANDARDISO
  2
AcmDatumStdISO
  3
"Amdt_StdImp|Product Description: AutoCAD Mechanical 2000|Company: Autodesk"
 90
        0
280
     0
281
     0
  0
CLASS
  1
ACMBOMSTANDARDISO
  2
AcmBOMStdISO
  3
"Amdt_StdImp|Product Description: AutoCAD Mechanical 2000|Company: Autodesk"
 90
        0
280
     0
281
     0
  0
CLASS
  1
ACMDETAILSTANDARDISO
  2
AmdtDetailSymStdISO
  3
"Amdt_StdImp|Product Description: AutoCAD Mechanical 2000|Company: Autodesk"
 90
        0
280
     0
281
     0
  0
CLASS
  1
ACMSECTIONSTANDARDISO
  2
AmdtSectionSymStdISO
  3
"Amdt_StdImp|Product Description: AutoCAD Mechanical 2000|Company: Autodesk"
 90
        0
280
     0
281
     0
  0
CLASS
  1
ACMCENTERLINESTANDARDISO
  2
AmdtCenterLineStdISO
  3
"Amdt_StdImp|Product Description: AutoCAD Mechanical 2000|Company: Autodesk"
 90
        0
280
     0
281
     0
  0
CLASS
  1
ACMThreadLineSTANDARDISO
  2
AmdtThreadLineStdISO
  3
"Amdt_StdImp|Product Description: AutoCAD Mechanical 2000|Company: Autodesk"
 90
        0
280
     0
281
     0
  0
CLASS
  1
ACMSURFSTANDARDANSI
  2
AcmSurfTextStdANSI
  3
"Amdt_StdImp|Product Description: AutoCAD Mechanical 2000|Company: Autodesk"
 90
        0
280
     0
281
     0
  0
CLASS
  1
ACMFCFSTANDARDANSI
  2
AcmFCFStdANSI
  3
"Amdt_StdImp|Product Description: AutoCAD Mechanical 2000|Company: Autodesk"
 90
        0
280
     0
281
     0
  0
CLASS
  1
ACMWELDSTANDARDANSI
  2
AcmWeldingStdANSI
  3
"Amdt_StdImp|Product Description: AutoCAD Mechanical 2000|Company: Autodesk"
 90
        0
280
     0
281
     0
  0
CLASS
  1
ACMIDSTANDARDANSI
  2
AcmIdStdANSI
  3
"Amdt_StdImp|Product Description: AutoCAD Mechanical 2000|Company: Autodesk"
 90
        0
280
     0
281
     0
  0
CLASS
  1
ACMDATUMSTANDARDANSI
  2
AcmDatumStdANSI
  3
"Amdt_StdImp|Product Description: AutoCAD Mechanical 2000|Company: Autodesk"
 90
        0
280
     0
281
     0
  0
CLASS
  1
ACMBOMSTANDARDANSI
  2
AcmBOMStdANSI
  3
"Amdt_StdImp|Product Description: AutoCAD Mechanical 2000|Company: Autodesk"
 90
        0
280
     0
281
     0
  0
CLASS
  1
ACMDETAILSTANDARDANSI
  2
AmdtDetailSymStdANSI
  3
"Amdt_StdImp|Product Description: AutoCAD Mechanical 2000|Company: Autodesk"
 90
        0
280
     0
281
     0
  0
CLASS
  1
ACMSECTIONSTANDARDANSI
  2
AmdtSectionSymStdANSI
  3
"Amdt_StdImp|Product Description: AutoCAD Mechanical 2000|Company: Autodesk"
 90
        0
280
     0
281
     0
  0
CLASS
  1
ACMCENTERLINESTANDARDANSI
  2
AmdtCenterLineStdANSI
  3
"Amdt_StdImp|Product Description: AutoCAD Mechanical 2000|Company: Autodesk"
 90
        0
280
     0
281
     0
  0
CLASS
  1
ACMThreadLineSTANDARDANSI
  2
AmdtThreadLineStdANSI
  3
"Amdt_StdImp|Product Description: AutoCAD Mechanical 2000|Company: Autodesk"
 90
        0
280
     0
281
     0
  0
CLASS
  1
ACMSURFSTANDARDBSI
  2
AcmSurfTextStdBSI
  3
"Amdt_StdImp|Product Description: AutoCAD Mechanical 2000|Company: Autodesk"
 90
        0
280
     0
281
     0
  0
CLASS
  1
ACMFCFSTANDARDBSI
  2
AcmFCFStdBSI
  3
"Amdt_StdImp|Product Description: AutoCAD Mechanical 2000|Company: Autodesk"
 90
        0
280
     0
281
     0
  0
CLASS
  1
ACMWELDSTANDARDBSI
  2
AcmWeldingStdBSI
  3
"Amdt_StdImp|Product Description: AutoCAD Mechanical 2000|Company: Autodesk"
 90
        0
280
     0
281
     0
  0
CLASS
  1
ACMIDSTANDARDBSI
  2
AcmIdStdBSI
  3
"Amdt_StdImp|Product Description: AutoCAD Mechanical 2000|Company: Autodesk"
 90
        0
280
     0
281
     0
  0
CLASS
  1
ACMDATUMSTANDARDBSI
  2
AcmDatumStdBSI
  3
"Amdt_StdImp|Product Description: AutoCAD Mechanical 2000|Company: Autodesk"
 90
        0
280
     0
281
     0
  0
CLASS
  1
ACMBOMSTANDARDBSI
  2
AcmBOMStdBSI
  3
"Amdt_StdImp|Product Description: AutoCAD Mechanical 2000|Company: Autodesk"
 90
        0
280
     0
281
     0
  0
CLASS
  1
ACMDETAILSTANDARDBSI
  2
AmdtDetailSymStdBSI
  3
"Amdt_StdImp|Product Description: AutoCAD Mechanical 2000|Company: Autodesk"
 90
        0
280
     0
281
     0
  0
CLASS
  1
ACMSECTIONSTANDARDBSI
  2
AmdtSectionSymStdBSI
  3
"Amdt_StdImp|Product Description: AutoCAD Mechanical 2000|Company: Autodesk"
 90
        0
280
     0
281
     0
  0
CLASS
  1
ACMCENTERLINESTANDARDBSI
  2
AmdtCenterLineStdBSI
  3
"Amdt_StdImp|Product Description: AutoCAD Mechanical 2000|Company: Autodesk"
 90
        0
280
     0
281
     0
  0
CLASS
  1
ACMThreadLineSTANDARDBSI
  2
AmdtThreadLineStdBSI
  3
"Amdt_StdImp|Product Description: AutoCAD Mechanical 2000|Company: Autodesk"
 90
        0
280
     0
281
     0
  0
CLASS
  1
AMDTEDGESTANDARDDIN
  2
AmdtEdgeStdDIN
  3
"Amdt_StdImp|Product Description: AutoCAD Mechanical 2000|Company: Autodesk"
 90
        0
280
     0
281
     0
  0
CLASS
  1
ACMSURFSTANDARDDIN
  2
AcmSurfTextStdDIN
  3
"Amdt_StdImp|Product Description: AutoCAD Mechanical 2000|Company: Autodesk"
 90
        0
280
     0
281
     0
  0
CLASS
  1
ACMFCFSTANDARDDIN
  2
AcmFCFStdDIN
  3
"Amdt_StdImp|Product Description: AutoCAD Mechanical 2000|Company: Autodesk"
 90
        0
280
     0
281
     0
  0
CLASS
  1
ACMWELDSTANDARDDIN
  2
AcmWeldingStdDIN
  3
"Amdt_StdImp|Product Description: AutoCAD Mechanical 2000|Company: Autodesk"
 90
        0
280
     0
281
     0
  0
CLASS
  1
ACMIDSTANDARDDIN
  2
AcmIdStdDIN
  3
"Amdt_StdImp|Product Description: AutoCAD Mechanical 2000|Company: Autodesk"
 90
        0
280
     0
281
     0
  0
CLASS
  1
ACMDATUMSTANDARDDIN
  2
AcmDatumStdDIN
  3
"Amdt_StdImp|Product Description: AutoCAD Mechanical 2000|Company: Autodesk"
 90
        0
280
     0
281
     0
  0
CLASS
  1
ACMBOMSTANDARDDIN
  2
AcmBOMStdDIN
  3
"Amdt_StdImp|Product Description: AutoCAD Mechanical 2000|Company: Autodesk"
 90
        0
280
     0
281
     0
  0
CLASS
  1
ACMDETAILSTANDARDDIN
  2
AmdtDetailSymStdDIN
  3
"Amdt_StdImp|Product Description: AutoCAD Mechanical 2000|Company: Autodesk"
 90
        0
280
     0
281
     0
  0
CLASS
  1
ACMSECTIONSTANDARDDIN
  2
AmdtSectionSymStdDIN
  3
"Amdt_StdImp|Product Description: AutoCAD Mechanical 2000|Company: Autodesk"
 90
        0
280
     0
281
     0
  0
CLASS
  1
ACMCENTERLINESTANDARDDIN
  2
AmdtCenterLineStdDIN
  3
"Amdt_StdImp|Product Description: AutoCAD Mechanical 2000|Company: Autodesk"
 90
        0
280
     0
281
     0
  0
CLASS
  1
ACMThreadLineSTANDARDDIN
  2
AmdtThreadLineStdDIN
  3
"Amdt_StdImp|Product Description: AutoCAD Mechanical 2000|Company: Autodesk"
 90
        0
280
     0
281
     0
  0
CLASS
  1
AMDTBROWSERDBTAB
  2
AmdtBrowserDbTab
  3
McadcomServices
 90
        0
280
     0
281
     0
  0
CLASS
  1
ACAMCOMPENTVIEW
  2
AcAmCompEntView
  3
DesignerAssemblies
 90
        0
280
     0
281
     1
  0
CLASS
  1
ACAMGFILTERDAT
  2
AcAmgFilterDat
  3
"AcadM|Product Description: AutoCAD Mechanical 2000|Company: Autodesk"
 90
        0
280
     0
281
     0
  0
CLASS
  1
AM_CLDFLTS
  2
AcDmClDflts
  3
AcMechDwgViewMgmt
 90
        0
280
     0
281
     0
  0
CLASS
  1
ACDMPARTVIEWDATA
  2
AcDmPartViewData
  3
AcMechDwgViewMgmt
 90
        0
280
     0
281
     0
  0
CLASS
  1
ACDMDISPLAYATTRIBS
  2
AcDmDisplayAttribs
  3
AcMechDwgViewMgmt
 90
        0
280
     0
281
     0
  0
CLASS
  1
ACDMBODYINSTANCEDATA
  2
AcDmBodyInstanceData
  3
AcMechDwgViewMgmt
 90
        0
280
     0
281
     0
  0
CLASS
  1
ACDMVWEDELLIPSE
  2
AcDmViewEdgeEllipse
  3
AcMechDwgViewMgmt
 90
        0
280
     0
281
     1
  0
CLASS
  1
AD_LINETAPH
  2
AcAdTapHoleLineDisp
  3
DesignerServices
 90
        0
280
     0
281
     0
  0
CLASS
  1
LONG_TRANSACTION
  2
AcDbLongTransaction
  3
AutoCAD 2000
 90
        0
280
     0
281
     0
  0
CLASS
  1
LWPOLYLINE
  2
AcDbPolyline
  3
AutoCAD 2000
 90
        0
280
     0
281
     1
  0
CLASS
  1
HATCH
  2
AcDbHatch
  3
AutoCAD 2000
 90
        0
280
     0
281
     1
  0
CLASS
  1
XRECORD
  2
AcDbXrecord
  3
AutoCAD 2000
 90
        0
280
     0
281
     0
  0
CLASS
  1
LONG_TRANSACTION
  2
AcDbLongTransaction
  3
AutoCAD 2000
 90
        0
280
     0
281
     0
  0
CLASS
  1
LWPOLYLINE
  2
AcDbPolyline
  3
AutoCAD 2000
 90
        0
280
     0
281
     1
  0
CLASS
  1
HATCH
  2
AcDbHatch
  3
AutoCAD 2000
 90
        0
280
     0
281
     1
  0
CLASS
  1
XRECORD
  2
AcDbXrecord
  3
AutoCAD 2000
 90
        0
280
     0
281
     0
  0
ENDSEC
  0
SECTION
  2
TABLES
  0
TABLE
  2
VPORT
  5
1A
330
0
100
AcDbSymbolTable
 70
     2
  0
VPORT
  5
532
330
1A
100
AcDbSymbolTableRecord
100
AcDbViewportTableRecord
  2
*ACTIVE
 70
     0
 10
0.0
 20
0.0
 11
1.0
 21
1.0
 12
395.8673631880912
 22
305.5211497752971
 13
0.0
 23
0.0
 14
10.0
 24
10.0
 15
10.0
 25
10.0
 16
0.0
 26
0.0
 36
1.0
 17
0.0
 27
0.0
 37
0.0
 40
633.4419366668177
 41
1.780487804878048
 42
50.0
 43
0.0
 44
0.0
 50
0.0
 51
0.0
 71
     0
 72
    80
 73
     1
 74
     1
 75
     0
 76
     0
 77
     0
 78
     0
  0
ENDTAB
  0
TABLE
  2
LTYPE
  5
15
330
0
100
AcDbSymbolTable
 70
     1
  0
LTYPE
  5
16
330
15
100
AcDbSymbolTableRecord
100
AcDbLinetypeTableRecord
  2
BYBLOCK
 70
     0
  3

 72
    65
 73
     0
 40
0.0
  0
LTYPE
  5
17
330
15
100
AcDbSymbolTableRecord
100
AcDbLinetypeTableRecord
  2
BYLAYER
 70
     0
  3

 72
    65
 73
     0
 40
0.0
  0
LTYPE
  5
9
330
15
100
AcDbSymbolTableRecord
100
AcDbLinetypeTableRecord
  2
CONTINUOUS
 70
     0
  3
Solid line
 72
    65
 73
     0
 40
0.0
  0
ENDTAB
  0
TABLE
  2
LAYER
  5
11
330
0
100
AcDbSymbolTable
 70
     3
  0
LAYER
  5
5
330
11
100
AcDbSymbolTableRecord
100
AcDbLayerTableRecord
  2
0
 70
     0
 62
     7
  6
CONTINUOUS
  0
LAYER
  5
27
330
11
100
AcDbSymbolTableRecord
100
AcDbLayerTableRecord
  2
AM_VIS
 70
     0
 62
     7
  6
CONTINUOUS
  0
LAYER
  5
23
330
11
100
AcDbSymbolTableRecord
100
AcDbLayerTableRecord
  2
DIMS
 70
     0
 62
     2
  6
CONTINUOUS
  0
ENDTAB
  0
TABLE
  2
STYLE
  5
12
330
0
100
AcDbSymbolTable
 70
     1
  0
STYLE
  5
13
330
12
100
AcDbSymbolTableRecord
100
AcDbTextStyleTableRecord
  2
STANDARD
 70
     0
 40
0.0
 41
1.0
 50
0.0
 71
     0
 42
2.5
  3
txt
  4

  0
ENDTAB
  0
TABLE
  2
VIEW
  5
18
330
0
100
AcDbSymbolTable
 70
     0
  0
ENDTAB
  0
TABLE
  2
UCS
  5
19
330
0
100
AcDbSymbolTable
 70
     0
  0
ENDTAB
  0
TABLE
  2
APPID
  5
1C
330
0
100
AcDbSymbolTable
 70
     1
  0
APPID
  5
1D
330
1C
100
AcDbSymbolTableRecord
100
AcDbRegAppTableRecord
  2
ACAD
 70
     0
  0
ENDTAB
  0
TABLE
  2
DIMSTYLE
  5
1E
330
0
100
AcDbSymbolTable
 70
     1
  0
DIMSTYLE
105
25
330
1E
100
AcDbSymbolTableRecord
100
AcDbDimStyleTableRecord
  2
DIMSTYLE1
 70
     0
  3

  4

  5

  6

  7

 40
0.0
 41
2.5
 42
1.0
 43
3.75
 44
1.25
 45
0.0
 46
0.0
 47
0.0
 48
0.0
140
2.5
141
2.5
142
0.0
143
0.0394
144
1.0
145
0.0
146
1.0
147
0.625
 71
     0
 72
     0
 73
     0
 74
     0
 75
     0
 76
     0
 77
     1
 78
     0
170
     0
171
     4
172
     0
173
     0
174
     0
175
     0
176
     0
177
     0
178
     0
270
     2
271
     1
272
     0
273
     8
274
     4
340
13
275
     0
280
     0
281
     0
282
     0
283
     1
284
     0
285
     0
286
     0
287
     0
288
     0
  0
ENDTAB
  0
TABLE
  2
BLOCK_RECORD
  5
1
330
0
100
AcDbSymbolTable
 70
     0
  0
BLOCK_RECORD
  5
2
102
{ACAD_XDICTIONARY
360
3
102
}
330
1
100
AcDbSymbolTableRecord
100
AcDbBlockTableRecord
  2
*MODEL_SPACE
  0
BLOCK_RECORD
  5
D
102
{ACAD_XDICTIONARY
360
52B
102
}
330
1
100
AcDbSymbolTableRecord
100
AcDbBlockTableRecord
  2
*PAPER_SPACE
  0
ENDTAB
  0
ENDSEC
  0
SECTION
  2
BLOCKS
  0
BLOCK
  5
4
330
2
100
AcDbEntity
  8
0
100
AcDbBlockBegin
  2
*MODEL_SPACE
 70
     0
 10
0.0
 20
0.0
 30
0.0
  3
*MODEL_SPACE
  1

  0
ENDBLK
  5
A
330
2
100
AcDbEntity
  8
0
100
AcDbBlockEnd
  0
BLOCK
  5
E
330
D
100
AcDbEntity
 67
     1
  8
0
100
AcDbBlockBegin
  2
*PAPER_SPACE
 70
     0
 10
0.0
 20
0.0
 30
0.0
  3
*PAPER_SPACE
  1

  0
ENDBLK
  5
F
330
D
100
AcDbEntity
 67
     1
  8
0
100
AcDbBlockEnd
  0
ENDSEC
  0
SECTION
  2
ENTITIES
  0
CIRCLE
  5
26
330
2
100
AcDbEntity
  8
AM_VIS
100
AcDbCircle
 10
233.5105728933167
 20
290.0034016510557
 30
0.0
 40
9.0
  0
ARC
  5
28
330
2
100
AcDbEntity
  8
AM_VIS
100
AcDbCircle
 10
233.5105728933167
 20
290.0034016510557
 30
0.0
 40
17.0
100
AcDbArc
 50
309.5211963586421
 51
50.63025861989945
  0
ARC
  5
29
330
2
100
AcDbEntity
  8
AM_VIS
100
AcDbCircle
 10
247.5105728933167
 20
273.0328389025785
 30
0.0
 40
5.0
100
AcDbArc
 50
129.5211963586421
 51
180.0
  0
LINE
  5
2A
330
2
100
AcDbEntity
  8
AM_VIS
100
AcDbLine
 10
242.5105728933167
 20
273.0328389025785
 30
0.0
 11
242.5105728933167
 21
194.8935400612468
 31
0.0
  0
LINE
  5
2B
330
2
100
AcDbEntity
  8
AM_VIS
100
AcDbLine
 10
242.5105728933167
 20
194.8935400612468
 30
0.0
 11
241.2427181080946
 21
192.1746167001369
 31
0.0
  0
LINE
  5
2C
330
2
100
AcDbEntity
  8
AM_VIS
100
AcDbLine
 10
224.3379876384667
 20
155.9223052186709
 30
0.0
 11
222.5105728933167
 21
152.0034016510557
 31
0.0
  0
LINE
  5
2D
330
2
100
AcDbEntity
  8
AM_VIS
100
AcDbLine
 10
222.5105728933167
 20
152.0034016510557
 30
0.0
 11
157.5105728933167
 21
152.0034016510557
 31
0.0
  0
LINE
  5
2E
330
2
100
AcDbEntity
  8
AM_VIS
100
AcDbLine
 10
157.5105728933167
 20
287.0034016510556
 30
0.0
 11
157.5105728933167
 21
307.0034016510557
 31
0.0
  0
LINE
  5
2F
330
2
100
AcDbEntity
  8
AM_VIS
100
AcDbLine
 10
157.5105728933167
 20
307.0034016510557
 30
0.0
 11
172.8319042433846
 21
307.0034016510557
 31
0.0
  0
ARC
  5
30
330
2
100
AcDbEntity
  8
AM_VIS
100
AcDbCircle
 10
190.8105728933167
 20
325.9034016510556
 30
0.0
 40
18.9
100
AcDbArc
 50
308.941528699634
 51
328.6900868928111
  0
ARC
  5
31
330
2
100
AcDbEntity
  8
AM_VIS
100
AcDbCircle
 10
217.2105728933167
 20
309.8456932217685
 30
0.0
 40
12.0
100
AcDbArc
 50
50.63025861989943
 51
148.690086892811
  0
LINE
  5
32
330
2
100
AcDbEntity
  8
AM_VIS
100
AcDbLine
 10
224.8224409062794
 20
319.1225173201999
 30
0.0
 11
244.2940525783472
 21
303.1455691238335
 31
0.0
  0
LINE
  5
33
330
2
100
AcDbEntity
  8
AM_VIS
100
AcDbLine
 10
149.5105728933167
 20
287.0034016510556
 30
0.0
 11
157.5105728933167
 21
287.0034016510556
 31
0.0
  0
LINE
  5
34
330
2
100
AcDbEntity
  8
AM_VIS
100
AcDbLine
 10
149.5105728933167
 20
152.0034016510556
 30
0.0
 11
157.5105728933167
 21
152.0034016510556
 31
0.0
  0
LINE
  5
35
330
2
100
AcDbEntity
  8
AM_VIS
100
AcDbLine
 10
157.5105728933167
 20
157.0034016510556
 30
0.0
 11
157.5105728933167
 21
152.0034016510556
 31
0.0
  0
LINE
  5
36
330
2
100
AcDbEntity
  8
AM_VIS
100
AcDbLine
 10
149.5105728933167
 20
157.0034016510556
 30
0.0
 11
149.5105728933167
 21
152.0034016510556
 31
0.0
  0
LINE
  5
37
330
2
100
AcDbEntity
  8
AM_VIS
100
AcDbLine
 10
157.5105728933167
 20
157.0034016510556
 30
0.0
 11
157.5105728933167
 21
282.0034016510555
 31
0.0
  0
LINE
  5
38
330
2
100
AcDbEntity
  8
AM_VIS
100
AcDbLine
 10
149.5105728933167
 20
157.0034016510556
 30
0.0
 11
149.5105728933167
 21
282.0034016510555
 31
0.0
  0
LINE
  5
39
330
2
100
AcDbEntity
  8
AM_VIS
100
AcDbLine
 10
157.5105728933167
 20
287.0034016510556
 30
0.0
 11
157.5105728933167
 21
282.0034016510555
 31
0.0
  0
LINE
  5
3A
330
2
100
AcDbEntity
  8
AM_VIS
100
AcDbLine
 10
149.5105728933167
 20
287.0034016510556
 30
0.0
 11
149.5105728933167
 21
282.0034016510555
 31
0.0
  0
LINE
  5
3B
330
2
100
AcDbEntity
  8
AM_VIS
100
AcDbLine
 10
241.2427181080946
 20
192.1746167001369
 30
0.0
 11
254.2391717742002
 21
186.1142708267752
 31
0.0
  0
LINE
  5
3C
330
2
100
AcDbEntity
  8
AM_VIS
100
AcDbLine
 10
241.2427181080946
 20
192.1746167001369
 30
0.0
 11
224.3379876384667
 21
155.9223052186709
 31
0.0
  0
LINE
  5
3D
330
2
100
AcDbEntity
  8
AM_VIS
100
AcDbLine
 10
237.3344413045722
 20
149.8619593453092
 30
0.0
 11
224.3379876384667
 21
155.9223052186709
 31
0.0
  0
LINE
  5
3E
330
2
100
AcDbEntity
  8
AM_VIS
100
AcDbLine
 10
254.2391717742002
 20
186.1142708267752
 30
0.0
 11
309.2158021358434
 21
160.4782470695844
 31
0.0
  0
ARC
  5
3F
330
2
100
AcDbEntity
  8
AM_VIS
100
AcDbCircle
 10
300.7634369010294
 20
142.3520913288514
 30
0.0
 40
20.0
100
AcDbArc
 50
245.0
 51
64.99999999999992
  0
LINE
  5
40
330
2
100
AcDbEntity
  8
AM_VIS
100
AcDbLine
 10
292.3110716662154
 20
124.2259355881184
 30
0.0
 11
237.3344413045722
 21
149.8619593453092
 31
0.0
  0
LINE
  5
41
330
2
100
AcDbEntity
  8
AM_VIS
100
AcDbLine
 10
222.8520965585697
 20
347.6436580773758
 30
0.0
 11
220.0804119109593
 21
345.7204549398662
 31
0.0
  0
LINE
  5
42
330
2
100
AcDbEntity
  8
AM_VIS
100
AcDbLine
 10
220.0804119109593
 20
345.7204549398663
 30
0.0
 11
219.2670396477908
 21
345.688414704909
 31
0.0
  0
LINE
  5
43
330
2
100
AcDbEntity
  8
AM_VIS
100
AcDbLine
 10
223.8334449324854
 20
349.9845750884647
 30
0.0
 11
222.8520965585696
 21
347.6436580773758
 31
0.0
  0
ARC
  5
44
330
2
100
AcDbEntity
  8
AM_VIS
100
AcDbCircle
 10
228.4446461810339
 20
348.0514886844506
 30
0.0
 40
5.0
100
AcDbArc
 50
92.25582020868065
 51
157.2558202086811
  0
LINE
  5
45
330
2
100
AcDbEntity
  8
AM_VIS
100
AcDbLine
 10
264.0282570370869
 20
354.457070594657
 30
0.0
 11
228.2478395858086
 21
353.0476138994623
 31
0.0
  0
ARC
  5
46
330
2
100
AcDbEntity
  8
AM_VIS
100
AcDbCircle
 10
272.5554230276256
 20
366.8022781007053
 30
0.0
 40
11.99999999999999
100
AcDbArc
 50
333.6058425455989
 51
40.7204620694334
  0
LINE
  5
47
330
2
100
AcDbEntity
  8
AM_VIS
100
AcDbLine
 10
245.1040110380214
 20
377.7302230025163
 30
0.0
 11
271.5692766916389
 21
378.7727386723346
 31
0.0
  0
ARC
  5
48
330
2
100
AcDbEntity
  8
AM_VIS
100
AcDbCircle
 10
244.907204442796
 20
382.726348217528
 30
0.0
 40
4.999999999999999
100
AcDbArc
 50
182.2558202086813
 51
272.2558202086806
  0
LINE
  5
49
330
2
100
AcDbEntity
  8
AM_VIS
100
AcDbLine
 10
239.753633951604
 20
386.526441794312
 30
0.0
 11
239.9110792277843
 21
382.5295416223027
 31
0.0
  0
LINE
  5
4A
330
2
100
AcDbEntity
  8
AM_VIS
100
AcDbLine
 10
236.6378748654617
 20
389.4060329661837
 30
0.0
 11
239.753633951604
 21
386.526441794312
 31
0.0
  0
LINE
  5
4B
330
2
100
AcDbEntity
  8
AM_VIS
100
AcDbLine
 10
235.2228809833491
 20
389.3502937450437
 30
0.0
 11
236.6378748654617
 21
389.4060329661838
 31
0.0
  0
LINE
  5
4C
330
2
100
AcDbEntity
  8
AM_VIS
100
AcDbLine
 10
235.3165621244158
 20
386.972107635385
 30
0.0
 11
235.2228809833491
 21
389.3502937450437
 31
0.0
  0
LINE
  5
4D
330
2
100
AcDbEntity
  8
AM_VIS
100
AcDbLine
 10
229.639251230697
 20
372.3685354762451
 30
0.0
 11
235.3165621244158
 21
386.972107635385
 31
0.0
  0
LINE
  5
4E
330
2
100
AcDbEntity
  8
AM_VIS
100
AcDbLine
 10
229.639251230697
 20
372.3685354762451
 30
0.0
 11
219.0719539027769
 21
345.1866016444895
 31
0.0
  0
LINE
  5
4F
330
2
100
AcDbEntity
  8
AM_VIS
100
AcDbLine
 10
236.2569457337889
 20
389.3910274644799
 30
0.0
 11
236.4545027813004
 21
389.8991973802889
 31
0.0
  0
LINE
  5
50
330
2
100
AcDbEntity
  8
AM_VIS
100
AcDbLine
 10
207.3098105881167
 20
388.7511341527704
 30
0.0
 11
227.7284332471904
 21
389.5554613927383
 31
0.0
  0
LINE
  5
51
330
2
100
AcDbEntity
  8
AM_VIS
100
AcDbLine
 10
209.1597925832354
 20
341.7875571316603
 30
0.0
 11
207.3098105881167
 21
388.7511341527704
 31
0.0
  0
LINE
  5
52
330
2
100
AcDbEntity
  8
AM_VIS
100
AcDbLine
 10
214.6085370900818
 20
342.0021932363407
 30
0.0
 11
209.1597925832354
 21
341.7875571316603
 31
0.0
  0
ARC
  5
53
330
2
100
AcDbEntity
  8
AM_VIS
100
AcDbCircle
 10
214.4117304948564
 20
346.9983184513524
 30
0.0
 40
4.999999999999999
100
AcDbArc
 50
272.2558202086806
 51
338.7558202086806
  0
LINE
  5
54
330
2
100
AcDbEntity
  8
AM_VIS
100
AcDbLine
 10
209.1597925832354
 20
341.7875571316603
 30
0.0
 11
206.492974824983
 21
341.6825062571323
 31
0.0
  0
LINE
  5
55
330
2
100
AcDbEntity
  8
AM_VIS
100
AcDbLine
 10
227.7284332471904
 20
389.5554613927383
 30
0.0
 11
236.6181942059391
 21
389.9056454876849
 31
0.0
  0
CIRCLE
  5
56
330
2
100
AcDbEntity
  8
AM_VIS
100
AcDbCircle
 10
187.3260844795884
 20
370.9507538043911
 30
0.0
 40
6.349999999999998
  0
LINE
  5
57
330
2
100
AcDbEntity
  8
AM_VIS
100
AcDbLine
 10
186.6569420558221
 20
387.9375795354309
 30
0.0
 11
207.3098105881167
 21
388.7511341527704
 31
0.0
  0
ARC
  5
58
330
2
100
AcDbEntity
  8
AM_VIS
100
AcDbCircle
 10
187.3260844795884
 20
370.9507538043911
 30
0.0
 40
17.0
100
AcDbArc
 50
92.25582020868079
 51
182.2558202086808
  0
LINE
  5
59
330
2
100
AcDbEntity
  8
AM_VIS
100
AcDbLine
 10
174.472197248282
 20
265.3629818653789
 30
0.0
 11
170.3392587485486
 21
370.2816113806248
 31
0.0
  0
ARC
  5
5A
330
2
100
AcDbEntity
  8
AM_VIS
100
AcDbCircle
 10
189.4605728933171
 20
265.9534016510551
 30
0.0
 40
15.0
100
AcDbArc
 50
182.2558202086808
 51
2.255820208680872
  0
LINE
  5
5B
330
2
100
AcDbEntity
  8
AM_VIS
100
AcDbLine
 10
201.6936562051967
 20
336.4895744468952
 30
0.0
 11
204.4489485383523
 21
266.5438214367313
 31
0.0
  0
ARC
  5
5C
330
2
100
AcDbEntity
  8
AM_VIS
100
AcDbCircle
 10
206.6897814202084
 20
336.6863810421206
 30
0.0
 40
4.999999999999999
100
AcDbArc
 50
92.25582020868065
 51
182.2558202086813
  0
ARC
  5
5D
330
2
100
AcDbEntity
  8
AM_VIS
100
AcDbCircle
 10
221.3542893275885
 20
396.3098010030251
 30
0.0
 40
15.0
100
AcDbArc
 50
2.255820208680872
 51
182.2558202086808
  0
LINE
  5
5E
330
2
100
AcDbEntity
  8
AM_VIS
100
AcDbLine
 10
236.3426649726235
 20
396.9002207887013
 30
0.0
 11
236.6181942059391
 21
389.905645487685
 31
0.0
  0
LINE
  5
5F
330
2
100
AcDbEntity
  8
AM_VIS
100
AcDbLine
 10
206.3659136825534
 20
395.7193812173489
 30
0.0
 11
206.6414429158689
 21
388.7248059163325
 31
0.0
  0
LINE
  5
60
330
2
100
AcDbEntity
  8
AM_VIS
100
AcDbLine
 10
87.51057289331665
 20
295.0034275645993
 30
0.0
 11
87.51057289331665
 21
327.0034275645993
 31
0.0
  0
LINE
  5
61
330
2
100
AcDbEntity
  8
AM_VIS
100
AcDbLine
 10
87.51057289331663
 20
327.0034275645993
 30
0.0
 11
171.5180511742574
 21
340.3568288569324
 31
0.0
  0
LINE
  5
62
330
2
100
AcDbEntity
  8
AM_VIS
100
AcDbLine
 10
206.3069470617349
 20
334.2259497732938
 30
0.0
 11
224.0751086067583
 21
319.6883630546382
 31
0.0
  0
LINE
  5
63
330
2
100
AcDbEntity
  8
AM_VIS
100
AcDbLine
 10
157.5105728933167
 20
295.0034275645993
 30
0.0
 11
87.51057289331667
 21
295.0034275645993
 31
0.0
  0
ARC
  5
64
330
2
100
AcDbEntity
  8
AM_VIS
100
AcDbCircle
 10
186.5990019720149
 20
370.9334540984725
 30
0.0
 40
6.349999999999998
100
AcDbArc
 50
274.6459412615341
 51
274.9755751263941
  0
ARC
  5
65
330
2
100
AcDbEntity
  8
AM_VIS
100
AcDbCircle
 10
186.5990019720149
 20
370.9334540984725
 30
0.0
 40
6.349999999999998
100
AcDbArc
 50
86.10886987817414
 51
88.08005789921946
  0
ARC
  5
66
330
2
100
AcDbEntity
  8
AM_VIS
100
AcDbCircle
 10
186.5990019720149
 20
370.9334540984725
 30
0.0
 40
6.349999999999998
100
AcDbArc
 50
274.9755751263941
 51
276.6171292824712
  0
ARC
  5
67
330
2
100
AcDbEntity
  8
AM_VIS
100
AcDbCircle
 10
190.4975632339332
 20
326.1528364152932
 30
0.0
 40
16.45
100
AcDbArc
 50
317.0708002267616
 51
4.975575126394255
  0
LINE
  5
68
330
2
100
AcDbEntity
  8
AM_VIS
100
AcDbLine
 10
170.5010083419215
 20
366.1754419657089
 30
0.0
 11
170.2109894939661
 21
369.5067281194168
 31
0.0
  0
ARC
  5
69
330
2
100
AcDbEntity
  8
AM_VIS
100
AcDbCircle
 10
186.5990019720149
 20
370.9334540984725
 30
0.0
 40
16.45
100
AcDbArc
 50
139.6743542234504
 51
184.9755751263942
  0
LINE
  5
6A
330
2
100
AcDbEntity
  8
AM_VIS
100
AcDbLine
 10
205.6666590797473
 20
341.5805838042107
 30
0.0
 11
206.8855757119821
 21
327.5795623943489
 31
0.0
  0
LINE
  5
6B
330
2
100
AcDbEntity
  8
AM_VIS
100
AcDbLine
 10
274.5827430074653
 20
302.5536207318591
 30
0.0
 11
275.5749381071087
 21
302.6783158971356
 31
0.0
  0
LINE
  5
6C
330
2
100
AcDbEntity
  8
AM_VIS
100
AcDbLine
 10
285.4968891035442
 20
303.9252675499012
 30
0.0
 11
286.4890842031877
 21
304.0499627151778
 31
0.0
  0
LINE
  5
6D
330
2
100
AcDbEntity
  8
AM_VIS
100
AcDbLine
 10
274.8267671154495
 20
308.6314864949969
 30
0.0
 11
275.5749381071089
 21
302.6783158971357
 31
0.0
  0
SPLINE
  5
6E
330
2
100
AcDbEntity
  8
AM_VIS
100
AcDbSpline
210
0.0
220
0.0
230
1.0
 70
    24
 71
     3
 72
    10
 73
     6
 74
     0
 42
0.0000000001
 43
0.0000000001
 40
0.0
 40
0.0
 40
0.0
 40
0.0
 40
1.110902832752573
 40
1.110902832752573
 40
2.221805665505147
 40
2.221805665505147
 40
2.221805665505147
 40
2.221805665505147
 10
274.7644195328112
 20
309.1275840448187
 30
0.0
 10
274.7783417399839
 20
309.0168055258414
 30
0.0
 10
274.7937883592297
 20
308.8938973129383
 30
0.0
 10
274.8180229125752
 20
308.7010638135953
 30
0.0
 10
274.8267671154495
 20
308.6314864949969
 30
0.0
 10
274.8267671154495
 20
308.6314864949969
 30
0.0
  0
SPLINE
  5
6F
330
2
100
AcDbEntity
  8
AM_VIS
100
AcDbSpline
210
0.0
220
0.0
230
1.0
 70
    24
 71
     3
 72
    10
 73
     6
 74
     0
 42
0.0000000001
 43
0.0000000001
 40
4.564540839656428
 40
4.564540839656428
 40
4.564540839656428
 40
4.564540839656428
 40
5.675443672409028
 40
5.675443672409028
 40
6.786346505161628
 40
6.786346505161628
 40
6.786346505161628
 40
6.786346505161628
 10
284.7487181118848
 20
309.8784381477624
 30
0.0
 10
284.7487181118848
 20
309.8784381477624
 30
0.0
 10
284.7399739090106
 20
309.9480154663608
 30
0.0
 10
284.7157393556651
 20
310.1408489657039
 30
0.0
 10
284.7002927364193
 20
310.2637571786069
 30
0.0
 10
284.6863705292466
 20
310.3745356975843
 30
0.0
  0
LINE
  5
70
330
2
100
AcDbEntity
  8
AM_VIS
100
AcDbLine
 10
285.4968891035442
 20
303.9252675499012
 30
0.0
 11
284.7487181118849
 21
309.8784381477624
 31
0.0
  0
LINE
  5
71
330
2
100
AcDbEntity
  8
AM_VIS
100
AcDbLine
 10
274.8267671154495
 20
308.6314864949969
 30
0.0
 11
284.7487181118848
 21
309.8784381477624
 31
0.0
  0
LINE
  5
72
330
2
100
AcDbEntity
  8
AM_VIS
100
AcDbLine
 10
291.3937787620752
 20
168.7887930525899
 30
0.0
 11
274.5827430074653
 21
302.5536207318592
 31
0.0
  0
LINE
  5
73
330
2
100
AcDbEntity
  8
AM_VIS
100
AcDbLine
 10
304.2410733996993
 20
162.7980011764921
 30
0.0
 11
286.4890842031877
 21
304.0499627151779
 31
0.0
  0
LINE
  5
74
330
2
100
AcDbEntity
  8
AM_VIS
100
AcDbLine
 10
283.1276809632896
 20
322.7769744431285
 30
0.0
 11
284.6863705292465
 21
310.3745356975843
 31
0.0
  0
LINE
  5
75
330
2
100
AcDbEntity
  8
AM_VIS
100
AcDbLine
 10
273.2057299668543
 20
321.5300227903629
 30
0.0
 11
274.7644195328112
 21
309.1275840448187
 31
0.0
  0
SPLINE
  5
76
330
2
100
AcDbEntity
  8
AM_VIS
100
AcDbSpline
210
0.0
220
0.0
230
1.0
 70
    28
 71
     2
 72
     6
 73
     3
 74
     0
 42
0.0000000001
 43
0.0000000001
 40
13.04984894672373
 40
13.04984894672373
 40
13.04984894672373
 40
19.48188204589985
 40
19.48188204589985
 40
19.48188204589985
 10
268.7408520184575
 20
320.9688945466183
 30
0.0
 41
1.0
 10
268.7408520184575
 20
320.9688945466183
 30
0.0
 41
1.078466120372227
 10
268.6917479902911
 20
321.3596135934349
 30
0.0
 41
1.079583194719702
  0
LINE
  5
77
330
2
100
AcDbEntity
  8
AM_VIS
100
AcDbLine
 10
268.6917479902911
 20
321.3596135934349
 30
0.0
 11
267.917089889688
 21
327.5235411973065
 31
0.0
  0
SPLINE
  5
78
330
2
100
AcDbEntity
  8
AM_VIS
100
AcDbSpline
210
0.0
220
0.0
230
1.0
 70
    28
 71
     2
 72
     6
 73
     3
 74
     0
 42
0.0000000001
 43
0.0000000001
 40
6.617815847547626
 40
6.617815847547626
 40
6.617815847547626
 40
13.04984894672373
 40
13.04984894672373
 40
13.04984894672373
 10
267.9170898896881
 20
327.5235411973065
 30
0.0
 41
1.079583194719702
 10
267.8679858615217
 20
327.9142602441231
 30
0.0
 41
1.078466120372227
 10
267.8679858615216
 20
327.9142602441231
 30
0.0
 41
1.0
  0
SPLINE
  5
79
330
2
100
AcDbEntity
  8
AM_VIS
100
AcDbSpline
210
0.0
220
0.0
230
1.0
 70
    28
 71
     2
 72
     6
 73
     3
 74
     0
 42
0.0000000001
 43
0.0000000001
 40
13.04984894672373
 40
13.04984894672373
 40
13.04984894672373
 40
19.48188204589988
 40
19.48188204589988
 40
19.48188204589988
 10
286.7196927547488
 20
330.2834683843776
 30
0.0
 41
1.0
 10
286.7196927547489
 20
330.2834683843776
 30
0.0
 41
1.078466120372243
 10
286.7687967829153
 20
329.892749337561
 30
0.0
 41
1.079583194719717
  0
LINE
  5
7A
330
2
100
AcDbEntity
  8
AM_VIS
100
AcDbLine
 10
287.5434548835183
 20
323.7288217336894
 30
0.0
 11
286.7687967829153
 21
329.892749337561
 31
0.0
  0
SPLINE
  5
7B
330
2
100
AcDbEntity
  8
AM_VIS
100
AcDbSpline
210
0.0
220
0.0
230
1.0
 70
    28
 71
     2
 72
     6
 73
     3
 74
     0
 42
0.0000000001
 43
0.0000000001
 40
6.617815847547618
 40
6.617815847547618
 40
6.617815847547618
 40
13.04984894672373
 40
13.04984894672373
 40
13.04984894672373
 10
287.5434548835183
 20
323.7288217336894
 30
0.0
 41
1.079583194719703
 10
287.5925589116848
 20
323.3381026868729
 30
0.0
 41
1.078466120372228
 10
287.5925589116848
 20
323.3381026868729
 30
0.0
 41
1.0
  0
SPLINE
  5
7C
330
2
100
AcDbEntity
  8
AM_VIS
100
AcDbSpline
210
0.0
220
0.0
230
1.0
 70
    12
 71
     2
 72
     6
 73
     3
 74
     0
 42
0.0000000001
 43
0.0000000001
 40
0.0
 40
0.0
 40
0.0
 40
6.424690970355181
 40
6.424690970355181
 40
6.424690970355181
 10
282.8852050100639
 20
322.7465010220504
 30
0.0
 41
1.0
 10
285.0698376891867
 20
323.0215258799875
 30
0.0
 41
1.078316916438947
 10
287.5434548835183
 20
323.7288217336894
 30
0.0
 41
1.07948173344588
  0
SPLINE
  5
7D
330
2
100
AcDbEntity
  8
AM_VIS
100
AcDbSpline
210
0.0
220
0.0
230
1.0
 70
    12
 71
     2
 72
     6
 73
     3
 74
     0
 42
0.0000000001
 43
0.0000000001
 40
6.618686710241831
 40
6.618686710241831
 40
6.618686710241831
 40
13.043377680597
 40
13.043377680597
 40
13.043377680597
 10
286.7687967829153
 20
329.892749337561
 30
0.0
 41
1.079481733445879
 10
284.1970875444761
 20
329.9659684722441
 30
0.0
 41
1.078316916438945
 10
282.012338853128
 20
329.6918667195551
 30
0.0
 41
1.0
  0
SPLINE
  5
7E
330
2
100
AcDbEntity
  8
AM_VIS
100
AcDbSpline
210
0.0
220
0.0
230
1.0
 70
    12
 71
     2
 72
     6
 73
     3
 74
     0
 42
0.0000000001
 43
0.0000000001
 40
0.0
 40
0.0
 40
0.0
 40
6.424688169171937
 40
6.424688169171937
 40
6.424688169171937
 10
282.0011910123536
 20
329.690465702912
 30
0.0
 41
1.0
 10
279.8165592165574
 20
329.4154409561774
 30
0.0
 41
1.078316882292519
 10
277.3429432935795
 20
328.7081456073732
 30
0.0
 41
1.079481732430106
  0
LINE
  5
7F
330
2
100
AcDbEntity
  8
AM_VIS
100
AcDbLine
 10
278.117601479627
 20
322.5442173236227
 30
0.0
 11
277.3429432935795
 21
328.7081456073733
 31
0.0
  0
SPLINE
  5
80
330
2
100
AcDbEntity
  8
AM_VIS
100
AcDbSpline
210
0.0
220
0.0
230
1.0
 70
    12
 71
     2
 72
     6
 73
     3
 74
     0
 42
0.0000000001
 43
0.0000000001
 40
6.618689511425067
 40
6.618689511425067
 40
6.618689511425067
 40
13.043377680597
 40
13.043377680597
 40
13.043377680597
 10
278.117601479627
 20
322.5442173236227
 30
0.0
 41
1.079481732430125
 10
280.6893093613148
 20
322.4709983635475
 30
0.0
 41
1.078316882292539
 10
282.8740571692894
 20
322.7451000054072
 30
0.0
 41
1.0
  0
LINE
  5
81
330
2
100
AcDbEntity
  8
AM_VIS
100
AcDbLine
 10
282.8740571692765
 20
322.7451000054056
 30
0.0
 11
282.8852050100768
 21
322.746501022052
 31
0.0
  0
SPLINE
  5
82
330
2
100
AcDbEntity
  8
AM_VIS
100
AcDbSpline
210
0.0
220
0.0
230
1.0
 70
    12
 71
     2
 72
     6
 73
     3
 74
     0
 42
0.0000000001
 43
0.0000000001
 40
0.0
 40
0.0
 40
0.0
 40
6.424688169162345
 40
6.424688169162345
 40
6.424688169162345
 10
273.4593537608602
 20
321.5618972280849
 30
0.0
 41
1.0
 10
275.6439855566529
 20
321.8369219748196
 30
0.0
 41
1.078316882292358
 10
278.117601479627
 20
322.5442173236227
 30
0.0
 41
1.079481732430007
  0
SPLINE
  5
83
330
2
100
AcDbEntity
  8
AM_VIS
100
AcDbSpline
210
0.0
220
0.0
230
1.0
 70
    12
 71
     2
 72
     6
 73
     3
 74
     0
 42
0.0000000001
 43
0.0000000001
 40
6.618689511426148
 40
6.618689511426148
 40
6.618689511426148
 40
13.04337768058853
 40
13.04337768058853
 40
13.04337768058853
 10
277.3429432935795
 20
328.7081456073732
 30
0.0
 41
1.079481732430041
 10
274.7712354118957
 20
328.7813645674483
 30
0.0
 41
1.078316882292392
 10
272.5864876039243
 20
328.5072629255896
 30
0.0
 41
1.0
  0
SPLINE
  5
84
330
2
100
AcDbEntity
  8
AM_VIS
100
AcDbSpline
210
0.0
220
0.0
230
1.0
 70
    12
 71
     2
 72
     6
 73
     3
 74
     0
 42
0.0000000001
 43
0.0000000001
 40
0.0
 40
0.0
 40
0.0
 40
6.424690970345568
 40
6.424690970345568
 40
6.424690970345568
 10
272.5753397631353
 20
328.5058619089447
 30
0.0
 41
1.0
 10
270.3907070840159
 20
328.2308370510074
 30
0.0
 41
1.078316916438779
 10
267.9170898896881
 20
327.5235411973064
 30
0.0
 41
1.079481733445776
  0
SPLINE
  5
85
330
2
100
AcDbEntity
  8
AM_VIS
100
AcDbSpline
210
0.0
220
0.0
230
1.0
 70
    12
 71
     2
 72
     6
 73
     3
 74
     0
 42
0.0000000001
 43
0.0000000001
 40
6.618686710242966
 40
6.618686710242966
 40
6.618686710242966
 40
13.04337768058852
 40
13.04337768058852
 40
13.04337768058852
 10
268.6917479902911
 20
321.3596135934349
 30
0.0
 41
1.079481733445777
 10
271.2634572287262
 20
321.2863944587519
 30
0.0
 41
1.078316916438781
 10
273.4482059200711
 20
321.5604962114399
 30
0.0
 41
1.0
  0
LINE
  5
86
330
2
100
AcDbEntity
  8
AM_VIS
100
AcDbLine
 10
273.4482059200607
 20
321.5604962114386
 30
0.0
 11
273.4593537608704
 21
321.5618972280862
 31
0.0
  0
LINE
  5
87
330
2
100
AcDbEntity
  8
AM_VIS
100
AcDbLine
 10
268.7408520184575
 20
320.9688945466183
 30
0.0
 11
273.4482059200607
 21
321.5604962114386
 31
0.0
  0
LINE
  5
88
330
2
100
AcDbEntity
  8
AM_VIS
100
AcDbLine
 10
273.4593537608705
 20
321.5618972280862
 30
0.0
 11
282.8740571692765
 21
322.7451000054055
 31
0.0
  0
LINE
  5
89
330
2
100
AcDbEntity
  8
AM_VIS
100
AcDbLine
 10
282.8852050100769
 20
322.746501022052
 30
0.0
 11
287.5925589116848
 21
323.3381026868729
 31
0.0
  0
LINE
  5
8A
330
2
100
AcDbEntity
  8
AM_VIS
100
AcDbLine
 10
261.5112155437017
 20
374.4850823447311
 30
0.0
 11
264.1137153468026
 21
377.8357531394914
 31
0.0
  0
LINE
  5
8B
330
2
100
AcDbEntity
  8
AM_VIS
100
AcDbLine
 10
278.0044467418122
 20
379.5814854533631
 30
0.0
 11
264.1137153468026
 21
377.8357531394914
 31
0.0
  0
LINE
  5
8C
330
2
100
AcDbEntity
  8
AM_VIS
100
AcDbLine
 10
278.0044467418122
 20
379.5814854533631
 30
0.0
 11
281.3551175365724
 21
376.9789856502622
 31
0.0
  0
LINE
  5
8D
330
2
100
AcDbEntity
  8
AM_VIS
100
AcDbLine
 10
287.2157903045705
 20
330.3458159670159
 30
0.0
 11
281.3551175365724
 21
376.9789856502622
 31
0.0
  0
LINE
  5
8E
330
2
100
AcDbEntity
  8
AM_VIS
100
AcDbLine
 10
267.3718883116997
 20
327.8519126614848
 30
0.0
 11
261.5112155437017
 21
374.4850823447312
 31
0.0
  0
LINE
  5
8F
330
2
100
AcDbEntity
  8
AM_VIS
100
AcDbLine
 10
287.2157903045705
 20
330.3458159670159
 30
0.0
 11
267.3718883116997
 21
327.8519126614848
 31
0.0
  0
CIRCLE
  5
90
330
2
100
AcDbEntity
  8
AM_VIS
100
AcDbCircle
 10
233.5105728933167
 20
290.0034016510557
 30
0.0
 40
8.390000000000011
  0
CIRCLE
  5
91
330
2
100
AcDbEntity
  8
AM_VIS
100
AcDbCircle
 10
233.5105728933167
 20
290.0034016510557
 30
0.0
 40
6.375
  0
CIRCLE
  5
92
330
2
100
AcDbEntity
  8
AM_VIS
100
AcDbCircle
 10
233.5105728933167
 20
290.0034016510557
 30
0.0
 40
6.325
  0
CIRCLE
  5
93
330
2
100
AcDbEntity
  8
AM_VIS
100
AcDbCircle
 10
233.5105728933167
 20
290.0034016510557
 30
0.0
 40
5.825
  0
CIRCLE
  5
94
330
2
100
AcDbEntity
  8
AM_VIS
100
AcDbCircle
 10
189.4605728933177
 20
265.9534016510544
 30
0.0
 40
7.5
  0
CIRCLE
  5
95
330
2
100
AcDbEntity
  8
AM_VIS
100
AcDbCircle
 10
189.4605728933177
 20
265.9534016510544
 30
0.0
 40
8.0
  0
SPLINE
  5
96
330
2
100
AcDbEntity
  8
AM_VIS
100
AcDbSpline
210
0.0
220
0.0
230
1.0
 70
    28
 71
     2
 72
     6
 73
     3
 74
     0
 42
0.0000000001
 43
0.0000000001
 40
0.0
 40
0.0
 40
0.0
 40
4.489346956745006
 40
4.489346956745006
 40
4.489346956745006
 10
294.6915840199271
 20
154.3520969238606
 30
0.0
 41
1.0
 10
297.0160710323741
 20
154.3520969238606
 30
0.0
 41
1.01528023573722
 10
299.1097655973894
 20
154.3520969238606
 30
0.0
 41
1.0
  0
ARC
  5
97
330
2
100
AcDbEntity
  8
AM_VIS
100
AcDbCircle
 10
300.7634369010294
 20
142.3520913288514
 30
0.0
 40
13.4487
100
AcDbArc
 50
116.8388403378705
 51
123.1608956827663
  0
SPLINE
  5
98
330
2
100
AcDbEntity
  8
AM_VIS
100
AcDbSpline
210
0.0
220
0.0
230
1.0
 70
    28
 71
     2
 72
     6
 73
     3
 74
     0
 42
0.0000000001
 43
0.0000000001
 40
0.0
 40
0.0
 40
0.0
 40
4.489200933507459
 40
4.489200933507459
 40
4.489200933507459
 10
291.1980885843403
 20
149.7843772922107
 30
0.0
 41
1.0
 10
292.2449008700336
 20
151.5975093570189
 30
0.0
 41
1.015279190562461
 10
293.4071055216687
 20
153.6105068624438
 30
0.0
 41
1.0
  0
ARC
  5
99
330
2
100
AcDbEntity
  8
AM_VIS
100
AcDbCircle
 10
300.7634369010294
 20
142.3520913288514
 30
0.0
 40
12.11341252747277
100
AcDbArc
 50
97.84627610852368
 51
142.1527546826731
  0
SPLINE
  5
9A
330
2
100
AcDbEntity
  8
AM_VIS
100
AcDbSpline
210
0.0
220
0.0
230
1.0
 70
    28
 71
     2
 72
     6
 73
     3
 74
     0
 42
0.0000000001
 43
0.0000000001
 40
0.0
 40
0.0
 40
0.0
 40
4.489200933507414
 40
4.489200933507414
 40
4.489200933507414
 10
287.3351973528968
 20
143.0936534152382
 30
0.0
 41
1.0
 10
288.4974020045319
 20
145.1066509206631
 30
0.0
 41
1.015279190563105
 10
289.5442142902252
 20
146.9197829854713
 30
0.0
 41
1.0
  0
ARC
  5
9B
330
2
100
AcDbEntity
  8
AM_VIS
100
AcDbCircle
 10
300.7634369010294
 20
142.3520913288514
 30
0.0
 40
13.4487
100
AcDbArc
 50
176.8391043172337
 51
183.1610012742079
  0
SPLINE
  5
9C
330
2
100
AcDbEntity
  8
AM_VIS
100
AcDbSpline
210
0.0
220
0.0
230
1.0
 70
    28
 71
     2
 72
     6
 73
     3
 74
     0
 42
0.0000000001
 43
0.0000000001
 40
0.0
 40
0.0
 40
0.0
 40
4.489259339835058
 40
4.489259339835058
 40
4.489259339835058
 10
289.5442451959577
 20
137.7843237619118
 30
0.0
 41
1.0
 10
288.4974189122446
 20
139.5974800720014
 30
0.0
 41
1.015279608606588
 10
287.3351987195579
 20
141.6105044953173
 30
0.0
 41
1.0
  0
ARC
  5
9D
330
2
100
AcDbEntity
  8
AM_VIS
100
AcDbCircle
 10
300.7634369010294
 20
142.3520913288514
 30
0.0
 40
12.11341252747277
100
AcDbArc
 50
157.8472453173268
 51
202.1531423518619
  0
SPLINE
  5
9E
330
2
100
AcDbEntity
  8
AM_VIS
100
AcDbSpline
210
0.0
220
0.0
230
1.0
 70
    28
 71
     2
 72
     6
 73
     3
 74
     0
 42
0.0000000001
 43
0.0000000001
 40
0.0
 40
0.0
 40
0.0
 40
4.489259339835054
 40
4.489259339835054
 40
4.489259339835054
 10
293.407084773341
 20
131.093689352396
 30
0.0
 41
1.0
 10
292.2448645806543
 20
133.1067137757119
 30
0.0
 41
1.015279608606679
 10
291.1980382969411
 20
134.9198700858016
 30
0.0
 41
1.0
  0
ARC
  5
9F
330
2
100
AcDbEntity
  8
AM_VIS
100
AcDbCircle
 10
300.7634369010294
 20
142.3520913288514
 30
0.0
 40
13.4487
100
AcDbArc
 50
236.838998725792
 51
243.1610540700357
  0
SPLINE
  5
A0
330
2
100
AcDbEntity
  8
AM_VIS
100
AcDbSpline
210
0.0
220
0.0
230
1.0
 70
    28
 71
     2
 72
     6
 73
     3
 74
     0
 42
0.0000000001
 43
0.0000000001
 40
0.0
 40
0.0
 40
0.0
 40
4.489288544457886
 40
4.489288544457886
 40
4.489288544457886
 10
299.1096843981066
 20
130.3520969238606
 30
0.0
 41
1.0
 10
297.0160178319664
 20
130.3520969238606
 30
0.0
 41
1.015279817641361
 10
294.6915619047708
 20
130.3520969238606
 30
0.0
 41
1.0
  0
ARC
  5
A1
330
2
100
AcDbEntity
  8
AM_VIS
100
AcDbCircle
 10
300.7634369010294
 20
142.3520913288514
 30
0.0
 40
12.11341252747277
100
AcDbArc
 50
217.8468576481379
 51
262.1533361934595
  0
SPLINE
  5
A2
330
2
100
AcDbEntity
  8
AM_VIS
100
AcDbSpline
210
0.0
220
0.0
230
1.0
 70
    28
 71
     2
 72
     6
 73
     3
 74
     0
 42
0.0000000001
 43
0.0000000001
 40
0.0
 40
0.0
 40
0.0
 40
4.489288544457886
 40
4.489288544457886
 40
4.489288544457886
 10
306.8353118972879
 20
130.3520969238606
 30
0.0
 41
1.0
 10
304.5108559700924
 20
130.3520969238606
 30
0.0
 41
1.015279817641361
 10
302.4171894039521
 20
130.3520969238606
 30
0.0
 41
1.0
  0
ARC
  5
A3
330
2
100
AcDbEntity
  8
AM_VIS
100
AcDbCircle
 10
300.7634369010294
 20
142.3520913288514
 30
0.0
 40
13.4487
100
AcDbArc
 50
296.8389459299643
 51
303.1611068660347
  0
SPLINE
  5
A4
330
2
100
AcDbEntity
  8
AM_VIS
100
AcDbSpline
210
0.0
220
0.0
230
1.0
 70
    28
 71
     2
 72
     6
 73
     3
 74
     0
 42
0.0000000001
 43
0.0000000001
 40
0.0
 40
0.0
 40
0.0
 40
4.489317750108253
 40
4.489317750108253
 40
4.489317750108253
 10
310.3288857945481
 20
134.9199348096293
 30
0.0
 41
1.0
 10
309.2820455118766
 20
133.1067542526324
 30
0.0
 41
1.015280026684792
 10
308.1198097770961
 20
131.0937029096207
 30
0.0
 41
1.0
  0
ARC
  5
A5
330
2
100
AcDbEntity
  8
AM_VIS
100
AcDbCircle
 10
300.7634369010294
 20
142.3520913288514
 30
0.0
 40
12.11341252747277
100
AcDbArc
 50
277.8466638065406
 51
322.1535300400877
  0
SPLINE
  5
A6
330
2
100
AcDbEntity
  8
AM_VIS
100
AcDbSpline
210
0.0
220
0.0
230
1.0
 70
    28
 71
     2
 72
     6
 73
     3
 74
     0
 42
0.0000000001
 43
0.0000000001
 40
0.0
 40
0.0
 40
0.0
 40
4.489317750108252
 40
4.489317750108252
 40
4.489317750108252
 10
314.1916737157892
 20
141.6104797480822
 30
0.0
 41
1.0
 10
313.0294379810088
 20
139.5974284050705
 30
0.0
 41
1.015280026685218
 10
311.9825976983372
 20
137.7842478480736
 30
0.0
 41
1.0
  0
ARC
  5
A7
330
2
100
AcDbEntity
  8
AM_VIS
100
AcDbCircle
 10
300.7634369010294
 20
142.3520913288514
 30
0.0
 40
13.4487
100
AcDbArc
 50
356.8388931339653
 51
3.161001274208159
  0
SPLINE
  5
A8
330
2
100
AcDbEntity
  8
AM_VIS
100
AcDbSpline
210
0.0
220
0.0
230
1.0
 70
    28
 71
     2
 72
     6
 73
     3
 74
     0
 42
0.0000000001
 43
0.0000000001
 40
0.0
 40
0.0
 40
0.0
 40
4.489259339835413
 40
4.489259339835413
 40
4.489259339835413
 10
311.9826286061008
 20
146.9198588957914
 30
0.0
 41
1.0
 10
313.0294548898142
 20
145.1067025857016
 30
0.0
 41
1.015279608607052
 10
314.1916750825009
 20
143.0936781623856
 30
0.0
 41
1.0
  0
ARC
  5
A9
330
2
100
AcDbEntity
  8
AM_VIS
100
AcDbCircle
 10
300.7634369010294
 20
142.3520913288514
 30
0.0
 40
12.11341252747277
100
AcDbArc
 50
337.846469959912
 51
22.15314235186383
  0
SPLINE
  5
AA
330
2
100
AcDbEntity
  8
AM_VIS
100
AcDbSpline
210
0.0
220
0.0
230
1.0
 70
    28
 71
     2
 72
     6
 73
     3
 74
     0
 42
0.0000000001
 43
0.0000000001
 40
0.0
 40
0.0
 40
0.0
 40
4.489259339835388
 40
4.489259339835388
 40
4.489259339835388
 10
308.1197890287178
 20
153.6104933053069
 30
0.0
 41
1.0
 10
309.2820092214046
 20
151.5974688819908
 30
0.0
 41
1.01527960860693
 10
310.3288355051178
 20
149.784312571901
 30
0.0
 41
1.0
  0
ARC
  5
AB
330
2
100
AcDbEntity
  8
AM_VIS
100
AcDbCircle
 10
300.7634369010294
 20
142.3520913288514
 30
0.0
 40
13.4487
100
AcDbArc
 50
56.83899872579164
 51
63.16115966212948
  0
SPLINE
  5
AC
330
2
100
AcDbEntity
  8
AM_VIS
100
AcDbSpline
210
0.0
220
0.0
230
1.0
 70
    28
 71
     2
 72
     6
 73
     3
 74
     0
 42
0.0000000001
 43
0.0000000001
 40
0.0
 40
0.0
 40
0.0
 40
4.489346956745006
 40
4.489346956745006
 40
4.489346956745006
 10
302.4171082046693
 20
154.3520969238606
 30
0.0
 41
1.0
 10
304.5108027696848
 20
154.3520969238606
 30
0.0
 41
1.01528023573722
 10
306.8352897821316
 20
154.3520969238606
 30
0.0
 41
1.0
  0
ARC
  5
AD
330
2
100
AcDbEntity
  8
AM_VIS
100
AcDbCircle
 10
300.7634369010294
 20
142.3520913288514
 30
0.0
 40
12.11341252747277
100
AcDbArc
 50
37.84685764813611
 51
82.15372389147644
  0
LINE
  5
AE
330
2
100
AcDbEntity
  8
AM_VIS
100
AcDbLine
 10
302.4171082046693
 20
154.3520969238606
 30
0.0
 11
299.1097655973894
 21
154.3520969238606
 31
0.0
  0
LINE
  5
AF
330
2
100
AcDbEntity
  8
AM_VIS
100
AcDbLine
 10
291.1980885843403
 20
149.7843772922107
 30
0.0
 11
289.5442142902252
 21
146.9197829854713
 31
0.0
  0
LINE
  5
B0
330
2
100
AcDbEntity
  8
AM_VIS
100
AcDbLine
 10
289.5442451959577
 20
137.7843237619119
 30
0.0
 11
291.1980382969413
 21
134.9198700858015
 31
0.0
  0
LINE
  5
B1
330
2
100
AcDbEntity
  8
AM_VIS
100
AcDbLine
 10
299.1096843981066
 20
130.3520969238606
 30
0.0
 11
302.4171894039521
 21
130.3520969238606
 31
0.0
  0
LINE
  5
B2
330
2
100
AcDbEntity
  8
AM_VIS
100
AcDbLine
 10
310.328885794548
 20
134.9199348096292
 30
0.0
 11
311.9825976983373
 21
137.7842478480737
 31
0.0
  0
LINE
  5
B3
330
2
100
AcDbEntity
  8
AM_VIS
100
AcDbLine
 10
311.9826286061009
 20
146.9198588957913
 30
0.0
 11
310.3288355051177
 21
149.7843125719011
 31
0.0
  0
CIRCLE
  5
B4
330
2
100
AcDbEntity
  8
AM_VIS
100
AcDbCircle
 10
300.763456282696
 20
142.352080138841
 30
0.0
 40
0.0005
  0
CIRCLE
  5
B5
330
2
100
AcDbEntity
  8
AM_VIS
100
AcDbCircle
 10
300.7634369010294
 20
142.3520913288514
 30
0.0
 40
13.5
  0
CIRCLE
  5
B6
330
2
100
AcDbEntity
  8
AM_VIS
100
AcDbCircle
 10
271.8550259926702
 20
367.3753129841518
 30
0.0
 40
5.0
  0
CIRCLE
  5
B7
330
2
100
AcDbEntity
  8
AM_VIS
100
AcDbCircle
 10
271.8550259926702
 20
367.3753129841518
 30
0.0
 40
8.5
  0
CIRCLE
  5
B8
330
2
100
AcDbEntity
  8
AM_VIS
100
AcDbCircle
 10
187.3260844795888
 20
370.9507538043904
 30
0.0
 40
6.325
  0
CIRCLE
  5
B9
330
2
100
AcDbEntity
  8
AM_VIS
100
AcDbCircle
 10
187.3260844795888
 20
370.9507538043904
 30
0.0
 40
5.825
  0
LINE
  5
BA
330
2
100
AcDbEntity
  8
AM_VIS
100
AcDbLine
 10
327.1987424302089
 20
118.4619862311558
 30
0.0
 11
338.8570348510205
 21
119.9271544231553
 31
0.0
  0
LINE
  5
BB
330
2
100
AcDbEntity
  8
AM_VIS
100
AcDbLine
 10
342.5978898093171
 20
90.16130143384916
 30
0.0
 11
338.8570348510205
 21
119.9271544231553
 31
0.0
  0
LINE
  5
BC
330
2
100
AcDbEntity
  8
AM_VIS
100
AcDbLine
 10
330.9395973885055
 20
88.69613324184966
 30
0.0
 11
284.8025252550809
 21
82.89780805648986
 31
0.0
  0
LINE
  5
BD
330
2
100
AcDbEntity
  8
AM_VIS
100
AcDbLine
 10
269.4033778759727
 20
111.1984928537965
 30
0.0
 11
281.0616702967843
 21
112.663661045796
 31
0.0
  0
LINE
  5
BE
330
2
100
AcDbEntity
  8
AM_VIS
100
AcDbLine
 10
269.4033778759727
 20
111.1984928537965
 30
0.0
 11
273.1442328342693
 21
81.43263986449035
 31
0.0
  0
LINE
  5
BF
330
2
100
AcDbEntity
  8
AM_VIS
100
AcDbLine
 10
327.1987424302089
 20
118.4619862311558
 30
0.0
 11
281.0616702967843
 21
112.663661045796
 31
0.0
  0
LINE
  5
C0
330
2
100
AcDbEntity
  8
AM_VIS
100
AcDbLine
 10
285.0237429171473
 20
123.2402616599333
 30
0.0
 11
284.4385057647386
 21
127.896973357307
 31
0.0
  0
LINE
  5
C1
330
2
100
AcDbEntity
  8
AM_VIS
100
AcDbLine
 10
320.7427665043148
 20
127.7292876098893
 30
0.0
 11
319.7100159429905
 21
135.946847960585
 31
0.0
  0
LINE
  5
C2
330
2
100
AcDbEntity
  8
AM_VIS
100
AcDbLine
 10
357.5171078157605
 20
-148.843754860105
 30
0.0
 11
317.829303830019
 21
-153.8315614711672
 31
0.0
  0
LINE
  5
C3
330
2
100
AcDbEntity
  8
AM_VIS
100
AcDbLine
 10
357.0183271546543
 20
-144.8749744615309
 30
0.0
 11
357.5171078157605
 21
-148.843754860105
 31
0.0
  0
LINE
  5
C4
330
2
100
AcDbEntity
  8
AM_VIS
100
AcDbLine
 10
317.3305231689127
 20
-149.862781072593
 30
0.0
 11
317.8293038300189
 21
-153.8315614711672
 31
0.0
  0
LINE
  5
C5
330
2
100
AcDbEntity
  8
AM_VIS
100
AcDbLine
 10
371.9012536493074
 20
-143.0045469823826
 30
0.0
 11
360.2429612284958
 21
-144.4697151743821
 31
0.0
  0
LINE
  5
C6
330
2
100
AcDbEntity
  8
AM_VIS
100
AcDbLine
 10
371.9012536493075
 20
-143.0045469823826
 30
0.0
 11
368.1603986910108
 21
-113.2386939930764
 31
0.0
  0
LINE
  5
C7
330
2
100
AcDbEntity
  8
AM_VIS
100
AcDbLine
 10
360.2429612284958
 20
-144.4697151743821
 30
0.0
 11
314.1058890950712
 21
-150.2680403597418
 31
0.0
  0
LINE
  5
C8
330
2
100
AcDbEntity
  8
AM_VIS
100
AcDbLine
 10
314.1058890950712
 20
-150.2680403597418
 30
0.0
 11
302.4475966742597
 21
-151.7332085517413
 31
0.0
  0
LINE
  5
C9
330
2
100
AcDbEntity
  8
AM_VIS
100
AcDbLine
 10
298.706741715963
 20
-121.9673555624352
 30
0.0
 11
302.4475966742596
 21
-151.7332085517413
 31
0.0
  0
LINE
  5
CA
330
2
100
AcDbEntity
  8
AM_VIS
100
AcDbLine
 10
356.5021062701992
 20
-114.7038621850759
 30
0.0
 11
310.3650341367746
 21
-120.5021873704356
 31
0.0
  0
LINE
  5
CB
330
2
100
AcDbEntity
  8
AM_VIS
100
AcDbLine
 10
273.1442328342693
 20
81.43263986449033
 30
0.0
 11
284.55447648017
 21
82.86663426517071
 31
0.0
  0
LINE
  5
CC
330
2
100
AcDbEntity
  8
AM_VIS
100
AcDbLine
 10
284.55447648017
 20
82.86663426517071
 30
0.0
 11
292.9881348271401
 21
83.92654317002143
 31
0.0
  0
LINE
  5
CD
330
2
100
AcDbEntity
  8
AM_VIS
100
AcDbLine
 10
304.3983784730408
 20
85.36053757070181
 30
0.0
 11
311.3437441705456
 21
86.23340372763768
 31
0.0
  0
LINE
  5
CE
330
2
100
AcDbEntity
  8
AM_VIS
100
AcDbLine
 10
324.2422804659115
 20
87.85444087623288
 30
0.0
 11
331.1876461634164
 21
88.72730703316879
 31
0.0
  0
LINE
  5
CF
330
2
100
AcDbEntity
  8
AM_VIS
100
AcDbLine
 10
331.1876461634164
 20
88.72730703316879
 30
0.0
 11
342.5978898093172
 21
90.16130143384916
 31
0.0
  0
LINE
  5
D0
330
2
100
AcDbEntity
  8
AM_VIS
100
AcDbLine
 10
292.9881348271401
 20
83.92654317002143
 30
0.0
 11
318.5506437088338
 21
-119.4734522569041
 31
0.0
  0
LINE
  5
D1
330
2
100
AcDbEntity
  8
AM_VIS
100
AcDbLine
 10
302.9100858235755
 20
85.17349482278698
 30
0.0
 11
328.4725947052691
 21
-118.2265006041385
 31
0.0
  0
LINE
  5
D2
330
2
100
AcDbEntity
  8
AM_VIS
100
AcDbLine
 10
338.3945457017046
 20
-116.979548951373
 30
0.0
 11
312.8320368200109
 21
86.42044647555252
 31
0.0
  0
LINE
  5
D3
330
2
100
AcDbEntity
  8
AM_VIS
100
AcDbLine
 10
322.7539878164463
 20
87.66739812831806
 30
0.0
 11
348.3164966981399
 21
-115.7325972986074
 31
0.0
  0
LINE
  5
D4
330
2
100
AcDbEntity
  8
AM_VIS
100
AcDbLine
 10
368.1603986910108
 20
-113.2386939930764
 30
0.0
 11
342.5978898093171
 21
90.16130143384916
 31
0.0
  0
LINE
  5
D5
330
2
100
AcDbEntity
  8
AM_VIS
100
AcDbLine
 10
310.1169853618636
 20
-120.5333611617548
 30
0.0
 11
298.7067417159629
 21
-121.9673555624352
 31
0.0
  0
LINE
  5
D6
330
2
100
AcDbEntity
  8
AM_VIS
100
AcDbLine
 10
273.1442328342692
 20
81.43263986449033
 30
0.0
 11
298.7067417159629
 21
-121.9673555624352
 31
0.0
  0
LINE
  5
D7
330
2
100
AcDbEntity
  8
AM_VIS
100
AcDbLine
 10
368.1603986910108
 20
-113.2386939930764
 30
0.0
 11
356.7501550451101
 21
-114.6726883937567
 31
0.0
  0
LINE
  5
D8
330
2
100
AcDbEntity
  8
AM_VIS
100
AcDbLine
 10
329.9608873547344
 20
-118.0394578562237
 30
0.0
 11
336.9062530522393
 21
-117.1665916992878
 31
0.0
  0
LINE
  5
D9
330
2
100
AcDbEntity
  8
AM_VIS
100
AcDbLine
 10
349.8047893476051
 20
-115.5455545506926
 30
0.0
 11
356.7501550451101
 21
-114.6726883937567
 31
0.0
  0
LINE
  5
DA
330
2
100
AcDbEntity
  8
AM_VIS
100
AcDbLine
 10
310.1169853618637
 20
-120.5333611617548
 30
0.0
 11
318.5506437088338
 21
-119.4734522569041
 31
0.0
  0
LINE
  5
DB
330
2
100
AcDbEntity
  8
AM_VIS
100
AcDbLine
 10
273.1174017214249
 20
121.7439196766147
 30
0.0
 11
276.0939870203555
 21
122.1180051724443
 31
0.0
  0
LINE
  5
DC
330
2
100
AcDbEntity
  8
AM_VIS
100
AcDbLine
 10
288.000328216078
 20
123.614347155763
 30
0.0
 11
276.0939870203555
 21
122.1180051724443
 31
0.0
  0
LINE
  5
DD
330
2
100
AcDbEntity
  8
AM_VIS
100
AcDbLine
 10
329.6725224011067
 20
128.8515440973783
 30
0.0
 11
317.7661812053842
 21
127.3552021140596
 31
0.0
  0
LINE
  5
DE
330
2
100
AcDbEntity
  8
AM_VIS
100
AcDbLine
 10
329.6725224011066
 20
128.8515440973783
 30
0.0
 11
332.6491077000373
 21
129.2256295932079
 31
0.0
  0
LINE
  5
DF
330
2
100
AcDbEntity
  8
AM_VIS
100
AcDbLine
 10
273.1174017214249
 20
121.7439196766147
 30
0.0
 11
274.3643533741904
 21
111.8219686801793
 31
0.0
  0
LINE
  5
E0
330
2
100
AcDbEntity
  8
AM_VIS
100
AcDbLine
 10
333.8960593528028
 20
119.3036785967725
 30
0.0
 11
332.6491077000373
 21
129.2256295932079
 31
0.0
  0
ARC
  5
E1
330
2
100
AcDbEntity
  8
AM_VIS
100
AcDbCircle
 10
287.750937885525
 20
125.5987373550501
 30
0.0
 40
1.999999999999999
100
AcDbArc
 50
277.1631523075166
 51
354.9687421040754
  0
ARC
  5
E2
330
2
100
AcDbEntity
  8
AM_VIS
100
AcDbCircle
 10
317.5167908748311
 20
129.3395923133467
 30
0.0
 40
1.999999999999999
100
AcDbArc
 50
192.6395444069545
 51
277.163152307515
  0
LINE
  5
E3
330
2
100
AcDbEntity
  8
AM_VIS
100
AcDbLine
 10
-108.5666130255925
 20
287.0034016510556
 30
0.0
 11
-108.5666130255925
 21
307.0034016510557
 31
0.0
  0
LINE
  5
E4
330
2
100
AcDbEntity
  8
AM_VIS
100
AcDbLine
 10
-116.5666130255925
 20
307.0034016510557
 30
0.0
 11
-108.5666130255925
 21
307.0034016510557
 31
0.0
  0
LINE
  5
E5
330
2
100
AcDbEntity
  8
AM_VIS
100
AcDbLine
 10
-116.5666130255925
 20
287.0034016510556
 30
0.0
 11
-116.5666130255925
 21
295.0034275645993
 31
0.0
  0
LINE
  5
E6
330
2
100
AcDbEntity
  8
AM_VIS
100
AcDbLine
 10
-132.5666130255926
 20
287.0034016510556
 30
0.0
 11
-132.5666130255926
 21
295.0034275645993
 31
0.0
  0
LINE
  5
E7
330
2
100
AcDbEntity
  8
AM_VIS
100
AcDbLine
 10
-140.5666130255926
 20
307.0034016510557
 30
0.0
 11
-132.5666130255926
 21
307.0034016510557
 31
0.0
  0
LINE
  5
E8
330
2
100
AcDbEntity
  8
AM_VIS
100
AcDbLine
 10
-140.5666130255926
 20
287.0034016510556
 30
0.0
 11
-140.5666130255926
 21
307.0034016510557
 31
0.0
  0
CIRCLE
  5
E9
330
2
100
AcDbEntity
  8
AM_VIS
100
AcDbCircle
 10
-162.0666130255927
 20
264.0034016510556
 30
0.0
 40
5.15
  0
CIRCLE
  5
EA
330
2
100
AcDbEntity
  8
AM_VIS
100
AcDbCircle
 10
-162.0666130255926
 20
164.0034016510555
 30
0.0
 40
5.15
  0
CIRCLE
  5
EB
330
2
100
AcDbEntity
  8
AM_VIS
100
AcDbCircle
 10
-87.06661302559272
 20
264.0034016510556
 30
0.0
 40
5.15
  0
CIRCLE
  5
EC
330
2
100
AcDbEntity
  8
AM_VIS
100
AcDbCircle
 10
-87.06661302559266
 20
164.0034016510556
 30
0.0
 40
5.15
  0
LINE
  5
ED
330
2
100
AcDbEntity
  8
AM_VIS
100
AcDbLine
 10
-77.06661302559272
 20
287.0034016510556
 30
0.0
 11
-172.0666130255927
 21
287.0034016510556
 31
0.0
  0
ARC
  5
EE
330
2
100
AcDbEntity
  8
AM_VIS
100
AcDbCircle
 10
-172.0666130255927
 20
282.0034016510555
 30
0.0
 40
5.0
100
AcDbArc
 50
90.0
 51
180.0
  0
LINE
  5
EF
330
2
100
AcDbEntity
  8
AM_VIS
100
AcDbLine
 10
-177.0666130255927
 20
282.0034016510555
 30
0.0
 11
-177.0666130255927
 21
157.0034016510556
 31
0.0
  0
ARC
  5
F0
330
2
100
AcDbEntity
  8
AM_VIS
100
AcDbCircle
 10
-172.0666130255926
 20
157.0034016510556
 30
0.0
 40
5.0
100
AcDbArc
 50
180.0
 51
270.0
  0
LINE
  5
F1
330
2
100
AcDbEntity
  8
AM_VIS
100
AcDbLine
 10
-172.0666130255926
 20
152.0034016510555
 30
0.0
 11
-77.06661302559266
 21
152.0034016510555
 31
0.0
  0
ARC
  5
F2
330
2
100
AcDbEntity
  8
AM_VIS
100
AcDbCircle
 10
-77.06661302559266
 20
157.0034016510556
 30
0.0
 40
5.0
100
AcDbArc
 50
270.0
 51
0.0
  0
LINE
  5
F3
330
2
100
AcDbEntity
  8
AM_VIS
100
AcDbLine
 10
-72.0666130255927
 20
157.0034016510556
 30
0.0
 11
-72.06661302559273
 21
282.0034016510555
 31
0.0
  0
ARC
  5
F4
330
2
100
AcDbEntity
  8
AM_VIS
100
AcDbCircle
 10
-77.06661302559272
 20
282.0034016510555
 30
0.0
 40
5.0
100
AcDbArc
 50
0.0
 51
90.0
  0
ELLIPSE
  5
F5
330
2
100
AcDbEntity
  8
AM_VIS
100
AcDbEllipse
 10
-101.8966130255926
 20
149.8619593453092
 30
0.0
 11
14.34
 21
0.0
 31
0.0
210
0.0
220
0.0
230
1.0
 40
0.4226182617406992
 41
0.0
 42
0.3611530665958935
  0
LINE
  5
F6
330
2
100
AcDbEntity
  8
AM_VIS
100
AcDbLine
 10
-87.55661302559261
 20
149.8619593453092
 30
0.0
 11
-87.55661302559261
 21
152.0034016510555
 31
0.0
  0
LINE
  5
F7
330
2
100
AcDbEntity
  8
AM_VIS
100
AcDbLine
 10
-87.55661302559261
 20
158.8767653269147
 30
0.0
 11
-87.55661302559261
 21
169.1300379751964
 31
0.0
  0
LINE
  5
F8
330
2
100
AcDbEntity
  8
AM_VIS
100
AcDbLine
 10
-161.6566130255925
 20
169.1370553207142
 30
0.0
 11
-161.6566130255925
 21
158.8697479813969
 31
0.0
  0
LINE
  5
F9
330
2
100
AcDbEntity
  8
AM_VIS
100
AcDbLine
 10
-161.6566130255925
 20
152.0034016510555
 30
0.0
 11
-161.6566130255925
 21
149.8619593453092
 31
0.0
  0
ELLIPSE
  5
FA
330
2
100
AcDbEntity
  8
AM_VIS
100
AcDbEllipse
 10
-147.3166130255926
 20
149.8619593453092
 30
0.0
 11
14.34
 21
0.0
 31
0.0
210
0.0
220
0.0
230
1.0
 40
0.4226182617406992
 41
2.7804395869939
 42
3.141592653589792
  0
LINE
  5
FB
330
2
100
AcDbEntity
  8
AM_VIS
100
AcDbLine
 10
-161.6566130255925
 20
124.2259355881184
 30
0.0
 11
-161.6566130255925
 21
122.3520913288514
 31
0.0
  0
LINE
  5
FC
330
2
100
AcDbEntity
  8
AM_VIS
100
AcDbLine
 10
-161.6566130255925
 20
124.2259355881184
 30
0.0
 11
-161.6566130255925
 21
149.8619593453092
 31
0.0
  0
ELLIPSE
  5
FD
330
2
100
AcDbEntity
  8
AM_VIS
100
AcDbEllipse
 10
-147.3166130255926
 20
149.8619593453092
 30
0.0
 11
7.999999999999999
 21
0.0
 31
0.0
210
0.0
220
0.0
230
1.0
 40
0.4226182617406992
 41
2.455672249668788
 42
3.141592653589792
  0
ELLIPSE
  5
FE
330
2
100
AcDbEntity
  8
AM_VIS
100
AcDbEllipse
 10
-101.8166130255925
 20
149.8619593453092
 30
0.0
 11
7.999999999999999
 21
0.0
 31
0.0
210
0.0
220
0.0
230
1.0
 40
0.4226182617406992
 41
0.0
 42
0.6859204039210103
  0
LINE
  5
FF
330
2
100
AcDbEntity
  8
AM_VIS
100
AcDbLine
 10
-155.3166130255926
 20
124.2259355881184
 30
0.0
 11
-155.3166130255926
 21
149.8619593453092
 31
0.0
  0
LINE
  5
100
330
2
100
AcDbEntity
  8
AM_VIS
100
AcDbLine
 10
-155.3166130255926
 20
124.2259355881184
 30
0.0
 11
-155.3166130255926
 21
122.3520913288514
 31
0.0
  0
LINE
  5
101
330
2
100
AcDbEntity
  8
AM_VIS
100
AcDbLine
 10
-93.8166130255926
 20
122.3520913288514
 30
0.0
 11
-93.8166130255926
 21
124.2259355881184
 31
0.0
  0
LINE
  5
102
330
2
100
AcDbEntity
  8
AM_VIS
100
AcDbLine
 10
-93.8166130255926
 20
149.8619593453092
 30
0.0
 11
-93.8166130255926
 21
124.2259355881184
 31
0.0
  0
LINE
  5
103
330
2
100
AcDbEntity
  8
AM_VIS
100
AcDbLine
 10
-87.55661302559261
 20
124.2259355881184
 30
0.0
 11
-87.55661302559261
 21
122.3520913288514
 31
0.0
  0
LINE
  5
104
330
2
100
AcDbEntity
  8
AM_VIS
100
AcDbLine
 10
-87.55661302559261
 20
124.2259355881184
 30
0.0
 11
-87.55661302559261
 21
149.8619593453092
 31
0.0
  0
LINE
  5
105
330
2
100
AcDbEntity
  8
AM_VIS
100
AcDbLine
 10
-161.6566130255925
 20
122.3520913288515
 30
0.0
 11
-155.3166130255926
 21
122.3520913288515
 31
0.0
  0
LINE
  5
106
330
2
100
AcDbEntity
  8
AM_VIS
100
AcDbLine
 10
-93.8166130255926
 20
122.3520913288515
 30
0.0
 11
-87.55661302559261
 21
122.3520913288515
 31
0.0
  0
LINE
  5
107
330
2
100
AcDbEntity
  8
AM_VIS
100
AcDbLine
 10
-139.5666130255926
 20
389.4669800993799
 30
0.0
 11
-150.0666130255926
 21
388.7511341527703
 31
0.0
  0
LINE
  5
108
330
2
100
AcDbEntity
  8
AM_VIS
100
AcDbLine
 10
-99.06661302559259
 20
388.7511341527704
 30
0.0
 11
-109.5666130255925
 21
389.46698009938
 31
0.0
  0
ELLIPSE
  5
109
330
2
100
AcDbEntity
  8
AM_VIS
100
AcDbEllipse
 10
-124.5666130255925
 20
389.3152257020087
 30
0.0
 11
15.0
 21
0.0
 31
0.0
210
0.0
220
0.0
230
1.0
 40
0.0393613190450799
 41
3.141592653589796
 42
6.283185307179586
  0
LINE
  5
10A
330
2
100
AcDbEntity
  8
AM_VIS
100
AcDbLine
 10
-108.5666130255925
 20
381.5787604882217
 30
0.0
 11
-108.5666130255925
 21
387.9375795354309
 31
0.0
  0
LINE
  5
10B
330
2
100
AcDbEntity
  8
AM_VIS
100
AcDbLine
 10
-108.5666130255925
 20
388.5673606401523
 30
0.0
 11
-108.5666130255925
 21
387.9375795354309
 31
0.0
  0
LINE
  5
10C
330
2
100
AcDbEntity
  8
AM_VIS
100
AcDbLine
 10
-108.5666130255925
 20
366.1754419657085
 30
0.0
 11
-108.5666130255925
 21
307.0034016510557
 31
0.0
  0
LINE
  5
10D
330
2
100
AcDbEntity
  8
AM_VIS
100
AcDbLine
 10
-140.5666130255926
 20
388.5673606401522
 30
0.0
 11
-108.5666130255926
 21
388.5673606401522
 31
0.0
  0
LINE
  5
10E
330
2
100
AcDbEntity
  8
AM_VIS
100
AcDbLine
 10
-140.5666130255926
 20
387.9375795354309
 30
0.0
 11
-140.5666130255926
 21
381.5787604882233
 31
0.0
  0
LINE
  5
10F
330
2
100
AcDbEntity
  8
AM_VIS
100
AcDbLine
 10
-140.5666130255926
 20
307.0034016510557
 30
0.0
 11
-140.5666130255926
 21
366.175441965704
 31
0.0
  0
LINE
  5
110
330
2
100
AcDbEntity
  8
AM_VIS
100
AcDbLine
 10
-140.5666130255926
 20
387.9375795354309
 30
0.0
 11
-140.5666130255926
 21
388.5673606401522
 31
0.0
  0
LINE
  5
111
330
2
100
AcDbEntity
  8
AM_VIS
100
AcDbLine
 10
-150.0666130255926
 20
388.7511341527704
 30
0.0
 11
-150.0666130255926
 21
387.9375795354309
 31
0.0
  0
LINE
  5
112
330
2
100
AcDbEntity
  8
AM_VIS
100
AcDbLine
 10
-99.0666130255926
 20
387.9375795354309
 30
0.0
 11
-99.0666130255926
 21
388.7511341527704
 31
0.0
  0
LINE
  5
113
330
2
100
AcDbEntity
  8
AM_VIS
100
AcDbLine
 10
-99.0666130255926
 20
387.9375795354309
 30
0.0
 11
-99.0666130255926
 21
370.2816113806248
 31
0.0
  0
LINE
  5
114
330
2
100
AcDbEntity
  8
AM_VIS
100
AcDbLine
 10
-99.0666130255926
 20
287.0034016510556
 30
0.0
 11
-99.0666130255926
 21
370.2816113806247
 31
0.0
  0
LINE
  5
115
330
2
100
AcDbEntity
  8
AM_VIS
100
AcDbLine
 10
-150.0666130255926
 20
370.2816113806248
 30
0.0
 11
-150.0666130255926
 21
387.9375795354309
 31
0.0
  0
LINE
  5
116
330
2
100
AcDbEntity
  8
AM_VIS
100
AcDbLine
 10
-150.0666130255926
 20
370.2816113806248
 30
0.0
 11
-150.0666130255926
 21
287.0034016510556
 31
0.0
  0
ARC
  5
117
330
2
100
AcDbEntity
  8
AM_VIS
100
AcDbCircle
 10
-124.5666130255925
 20
396.3098010030251
 30
0.0
 40
15.0
100
AcDbArc
 50
0.0
 51
180.0
  0
LINE
  5
118
330
2
100
AcDbEntity
  8
AM_VIS
100
AcDbLine
 10
-109.5666130255926
 20
396.309801003025
 30
0.0
 11
-109.5666130255926
 21
389.3152257020087
 31
0.0
  0
LINE
  5
119
330
2
100
AcDbEntity
  8
AM_VIS
100
AcDbLine
 10
-139.5666130255926
 20
396.309801003025
 30
0.0
 11
-139.5666130255926
 21
389.3152257020087
 31
0.0
  0
LINE
  5
11A
330
2
100
AcDbEntity
  8
AM_VIS
100
AcDbLine
 10
-116.5666130255925
 20
295.0034275645993
 30
0.0
 11
-116.5666130255925
 21
327.0034275645993
 31
0.0
  0
LINE
  5
11B
330
2
100
AcDbEntity
  8
AM_VIS
100
AcDbLine
 10
-132.5666130255926
 20
327.0034275645993
 30
0.0
 11
-116.5666130255926
 21
327.0034275645993
 31
0.0
  0
LINE
  5
11C
330
2
100
AcDbEntity
  8
AM_VIS
100
AcDbLine
 10
-132.5666130255926
 20
295.0034275645993
 30
0.0
 11
-132.5666130255926
 21
327.0034275645993
 31
0.0
  0
LINE
  5
11D
330
2
100
AcDbEntity
  8
AM_VIS
100
AcDbLine
 10
-132.5666130255926
 20
295.0034275645993
 30
0.0
 11
-116.5666130255926
 21
295.0034275645993
 31
0.0
  0
LINE
  5
11E
330
2
100
AcDbEntity
  8
AM_VIS
100
AcDbLine
 10
-116.5666130255925
 20
327.0034275645993
 30
0.0
 11
-116.5666130255925
 21
340.5497849193507
 31
0.0
  0
LINE
  5
11F
330
2
100
AcDbEntity
  8
AM_VIS
100
AcDbLine
 10
-132.5666130255926
 20
327.0034275645993
 30
0.0
 11
-132.5666130255926
 21
340.5497849193507
 31
0.0
  0
LINE
  5
120
330
2
100
AcDbEntity
  8
AM_VIS
100
AcDbLine
 10
-132.5666130255926
 20
343.0034016510558
 30
0.0
 11
-116.5666130255926
 21
343.0034016510558
 31
0.0
  0
LINE
  5
121
330
2
100
AcDbEntity
  8
AM_VIS
100
AcDbLine
 10
-108.5666130255925
 20
366.1754419657084
 30
0.0
 11
-108.5666130255925
 21
369.5067281194168
 31
0.0
  0
LINE
  5
122
330
2
100
AcDbEntity
  8
AM_VIS
100
AcDbLine
 10
-116.5666130255925
 20
340.5497849193507
 30
0.0
 11
-116.5666130255925
 21
369.5067281194168
 31
0.0
  0
LINE
  5
123
330
2
100
AcDbEntity
  8
AM_VIS
100
AcDbLine
 10
-108.5666130255925
 20
381.5787604882218
 30
0.0
 11
-108.5666130255925
 21
369.5067281194168
 31
0.0
  0
LINE
  5
124
330
2
100
AcDbEntity
  8
AM_VIS
100
AcDbLine
 10
-116.5666130255925
 20
387.3834540984725
 30
0.0
 11
-116.5666130255925
 21
369.5067281194168
 31
0.0
  0
LINE
  5
125
330
2
100
AcDbEntity
  8
AM_VIS
100
AcDbLine
 10
-116.5666130255925
 20
309.7028364152933
 30
0.0
 11
-108.5666130255925
 21
309.7028364152933
 31
0.0
  0
LINE
  5
126
330
2
100
AcDbEntity
  8
AM_VIS
100
AcDbLine
 10
-116.5666130255925
 20
387.3834540984725
 30
0.0
 11
-108.5666130255925
 21
387.3834540984725
 31
0.0
  0
LINE
  5
127
330
2
100
AcDbEntity
  8
AM_VIS
100
AcDbLine
 10
-132.5666130255926
 20
340.5497849193507
 30
0.0
 11
-132.5666130255926
 21
369.5067281194166
 31
0.0
  0
LINE
  5
128
330
2
100
AcDbEntity
  8
AM_VIS
100
AcDbLine
 10
-140.5666130255926
 20
366.1754419657039
 30
0.0
 11
-140.5666130255926
 21
369.5067281194166
 31
0.0
  0
LINE
  5
129
330
2
100
AcDbEntity
  8
AM_VIS
100
AcDbLine
 10
-132.5666130255926
 20
387.3834540984724
 30
0.0
 11
-132.5666130255926
 21
369.5067281194166
 31
0.0
  0
LINE
  5
12A
330
2
100
AcDbEntity
  8
AM_VIS
100
AcDbLine
 10
-140.5666130255926
 20
381.5787604882233
 30
0.0
 11
-140.5666130255926
 21
369.5067281194166
 31
0.0
  0
LINE
  5
12B
330
2
100
AcDbEntity
  8
AM_VIS
100
AcDbLine
 10
-140.5666130255926
 20
309.7028364152931
 30
0.0
 11
-132.5666130255926
 21
309.7028364152931
 31
0.0
  0
LINE
  5
12C
330
2
100
AcDbEntity
  8
AM_VIS
100
AcDbLine
 10
-140.5666130255926
 20
387.3834540984724
 30
0.0
 11
-132.5666130255926
 21
387.3834540984724
 31
0.0
  0
LINE
  5
12D
330
2
100
AcDbEntity
  8
AM_VIS
100
AcDbLine
 10
-130.5666130255923
 20
140.3623349069955
 30
0.0
 11
-130.5666130255923
 21
152.0034016510556
 31
0.0
  0
LINE
  5
12E
330
2
100
AcDbEntity
  8
AM_VIS
100
AcDbLine
 10
-118.5666130255923
 20
140.3623349069955
 30
0.0
 11
-118.5666130255923
 21
152.0034016510556
 31
0.0
  0
SPLINE
  5
12F
330
2
100
AcDbEntity
  8
AM_VIS
100
AcDbSpline
210
0.0
220
0.0
230
1.0
 70
    12
 71
     2
 72
     6
 73
     3
 74
     0
 42
0.0000000001
 43
0.0000000001
 40
9.109054284862555
 40
9.109054284862555
 40
9.109054284862555
 40
10.47962958320626
 40
10.47962958320626
 40
10.47962958320626
 10
-156.916986759264
 20
264.0654445163824
 30
0.0
 41
1.066986395374182
 10
-156.9684007079353
 20
263.5596859341687
 30
0.0
 41
1.060358068204063
 10
-157.0019300295601
 20
263.0698674258131
 30
0.0
 41
1.050218593620355
  0
LINE
  5
130
330
2
100
AcDbEntity
  8
AM_VIS
100
AcDbLine
 10
-157.0666130255925
 20
262.7695053831308
 30
0.0
 11
-157.0666130255925
 21
265.2372979189804
 31
0.0
  0
LINE
  5
131
330
2
100
AcDbEntity
  8
AM_VIS
100
AcDbLine
 10
-158.7166130255926
 20
267.914923094177
 30
0.0
 11
-158.7166130255926
 21
260.0918802079341
 31
0.0
  0
LINE
  5
132
330
2
100
AcDbEntity
  8
AM_VIS
100
AcDbLine
 10
-159.7166130255926
 20
260.6284016510544
 30
0.0
 11
-159.7166130255926
 21
268.5859773460113
 31
0.0
  0
LINE
  5
133
330
2
100
AcDbEntity
  8
AM_VIS
100
AcDbLine
 10
-159.7166130255926
 20
260.6284016510544
 30
0.0
 11
-158.973756767191
 21
259.8855453926529
 31
0.0
  0
SPLINE
  5
134
330
2
100
AcDbEntity
  8
AM_VIS
100
AcDbSpline
210
0.0
220
0.0
230
1.0
 70
    12
 71
     2
 72
     6
 73
     3
 74
     0
 42
0.0000000001
 43
0.0000000001
 40
0.0
 40
0.0
 40
0.0
 40
2.663676470548328
 40
2.663676470548328
 40
2.663676470548328
 10
-81.0566130255926
 20
149.7843772922107
 30
0.0
 41
1.0
 10
-81.15513940794741
 20
150.8668271965506
 30
0.0
 41
1.009065938681086
 10
-81.40631040173634
 20
152.0034016510556
 30
0.0
 41
1.007373291187961
  0
LINE
  5
135
330
2
100
AcDbEntity
  8
AM_VIS
100
AcDbLine
 10
-81.0566130255926
 20
149.7843772922107
 30
0.0
 11
-81.0566130255926
 21
152.0034016510556
 31
0.0
  0
SPLINE
  5
136
330
2
100
AcDbEntity
  8
AM_VIS
100
AcDbSpline
210
0.0
220
0.0
230
1.0
 70
    12
 71
     2
 72
     6
 73
     3
 74
     0
 42
0.0000000001
 43
0.0000000001
 40
0.0
 40
0.0
 40
0.0
 40
4.489200933507414
 40
4.489200933507414
 40
4.489200933507414
 10
-81.82754160730175
 20
143.0936534152382
 30
0.0
 41
1.0
 10
-81.22164730788211
 20
145.1066509206631
 30
0.0
 41
1.015279190563105
 10
-81.0566130255926
 20
146.9197829854713
 30
0.0
 41
1.0
  0
LINE
  5
137
330
2
100
AcDbEntity
  8
AM_VIS
100
AcDbLine
 10
-81.82754160730175
 20
141.6105044953173
 30
0.0
 11
-81.82754160730175
 21
143.0936534152382
 31
0.0
  0
SPLINE
  5
138
330
2
100
AcDbEntity
  8
AM_VIS
100
AcDbSpline
210
0.0
220
0.0
230
1.0
 70
    12
 71
     2
 72
     6
 73
     3
 74
     0
 42
0.0000000001
 43
0.0000000001
 40
0.0
 40
0.0
 40
0.0
 40
4.489259339835058
 40
4.489259339835058
 40
4.489259339835058
 10
-81.0566130255926
 20
137.7843237619118
 30
0.0
 41
1.0
 10
-81.22164141264319
 20
139.5974800720014
 30
0.0
 41
1.015279608606588
 10
-81.82754160730173
 20
141.6105044953173
 30
0.0
 41
1.0
  0
LINE
  5
139
330
2
100
AcDbEntity
  8
AM_VIS
100
AcDbLine
 10
-81.0566130255926
 20
137.7843237619119
 30
0.0
 11
-81.0566130255926
 21
146.9197829854713
 31
0.0
  0
SPLINE
  5
13A
330
2
100
AcDbEntity
  8
AM_VIS
100
AcDbSpline
210
0.0
220
0.0
230
1.0
 70
    12
 71
     2
 72
     6
 73
     3
 74
     0
 42
0.0000000001
 43
0.0000000001
 40
0.0
 40
0.0
 40
0.0
 40
4.489259339835054
 40
4.489259339835054
 40
4.489259339835054
 10
-81.82754160730173
 20
131.093689352396
 30
0.0
 41
1.0
 10
-81.22164141264319
 20
133.1067137757119
 30
0.0
 41
1.015279608606679
 10
-81.0566130255926
 20
134.9198700858016
 30
0.0
 41
1.0
  0
LINE
  5
13B
330
2
100
AcDbEntity
  8
AM_VIS
100
AcDbLine
 10
-81.82754160730175
 20
130.3520969238606
 30
0.0
 11
-81.82754160730175
 21
131.093689352396
 31
0.0
  0
SPLINE
  5
13C
330
2
100
AcDbEntity
  8
AM_VIS
100
AcDbSpline
210
0.0
220
0.0
230
1.0
 70
    28
 71
     2
 72
     6
 73
     3
 74
     0
 42
0.0000000001
 43
0.0000000001
 40
0.0
 40
0.0
 40
0.0
 40
4.489288544457886
 40
4.489288544457886
 40
4.489288544457886
 10
-81.0566130255926
 20
130.3520969238606
 30
0.0
 41
1.0
 10
-81.22163846484802
 20
130.3520969238606
 30
0.0
 41
1.015279817641361
 10
-81.82754160730175
 20
130.3520969238606
 30
0.0
 41
1.0
  0
LINE
  5
13D
330
2
100
AcDbEntity
  8
AM_VIS
100
AcDbLine
 10
-81.0566130255926
 20
130.3520969238606
 30
0.0
 11
-81.0566130255926
 21
134.9198700858015
 31
0.0
  0
LINE
  5
13E
330
2
100
AcDbEntity
  8
AM_VIS
100
AcDbLine
 10
-85.22754160730173
 20
143.0936534152382
 30
0.0
 11
-81.82754160730175
 21
143.0936534152382
 31
0.0
  0
LINE
  5
13F
330
2
100
AcDbEntity
  8
AM_VIS
100
AcDbLine
 10
-85.22754160730173
 20
141.6105044953173
 30
0.0
 11
-85.22754160730173
 21
143.0936534152382
 31
0.0
  0
LINE
  5
140
330
2
100
AcDbEntity
  8
AM_VIS
100
AcDbLine
 10
-81.82754160730175
 20
141.6105044953173
 30
0.0
 11
-85.22754160730173
 21
141.6105044953173
 31
0.0
  0
LINE
  5
141
330
2
100
AcDbEntity
  8
AM_VIS
100
AcDbLine
 10
-85.22754160730173
 20
131.093689352396
 30
0.0
 11
-81.82754160730173
 21
131.093689352396
 31
0.0
  0
LINE
  5
142
330
2
100
AcDbEntity
  8
AM_VIS
100
AcDbLine
 10
-85.22754160730173
 20
130.3520969238606
 30
0.0
 11
-85.22754160730173
 21
131.093689352396
 31
0.0
  0
LINE
  5
143
330
2
100
AcDbEntity
  8
AM_VIS
100
AcDbLine
 10
-81.82754160730175
 20
130.3520969238606
 30
0.0
 11
-85.22754160730173
 21
130.3520969238606
 31
0.0
  0
SPLINE
  5
144
330
2
100
AcDbEntity
  8
AM_VIS
100
AcDbSpline
210
0.0
220
0.0
230
1.0
 70
    12
 71
     2
 72
     6
 73
     3
 74
     0
 42
0.0000000001
 43
0.0000000001
 40
1.799447380410537
 40
1.799447380410537
 40
1.799447380410537
 40
5.59028604994716
 40
5.59028604994716
 40
5.59028604994716
 10
-85.64877281286715
 20
152.0034016510555
 30
0.0
 41
1.010632000607879
 10
-86.00933390288089
 20
150.3718258149442
 30
0.0
 41
1.01651504937802
 10
-86.0566130255926
 20
148.8308652396664
 30
0.0
 41
1.0
  0
SPLINE
  5
145
330
2
100
AcDbEntity
  8
AM_VIS
100
AcDbSpline
210
0.0
220
0.0
230
1.0
 70
    12
 71
     2
 72
     6
 73
     3
 74
     0
 42
0.0000000001
 43
0.0000000001
 40
0.0
 40
0.0
 40
0.0
 40
5.590286049947125
 40
5.590286049947125
 40
5.590286049947125
 10
-86.0566130255926
 20
147.8732950380155
 30
0.0
 41
1.0
 10
-85.98742488076803
 20
145.6182573525371
 30
0.0
 41
1.02435446564768
 10
-85.22754160730173
 20
143.0936534152382
 30
0.0
 41
1.0
  0
SPLINE
  5
146
330
2
100
AcDbEntity
  8
AM_VIS
100
AcDbSpline
210
0.0
220
0.0
230
1.0
 70
    12
 71
     2
 72
     6
 73
     3
 74
     0
 42
0.0000000001
 43
0.0000000001
 40
0.0
 40
0.0
 40
0.0
 40
5.590505691017254
 40
5.590505691017254
 40
5.590505691017254
 10
-85.22754160730173
 20
141.6105044953174
 30
0.0
 41
1.0
 10
-85.98745251681549
 20
139.0857995457548
 30
0.0
 41
1.024356486367964
 10
-86.0566130255926
 20
136.8306716336635
 30
0.0
 41
1.0
  0
SPLINE
  5
147
330
2
100
AcDbEntity
  8
AM_VIS
100
AcDbSpline
210
0.0
220
0.0
230
1.0
 70
    12
 71
     2
 72
     6
 73
     3
 74
     0
 42
0.0000000001
 43
0.0000000001
 40
0.0
 40
0.0
 40
0.0
 40
5.590505691017281
 40
5.590505691017281
 40
5.590505691017281
 10
-86.0566130255926
 20
135.8735222140499
 30
0.0
 41
1.0
 10
-85.98745251681549
 20
133.6183943019586
 30
0.0
 41
1.024356486368125
 10
-85.22754160730173
 20
131.093689352396
 30
0.0
 41
1.0
  0
SPLINE
  5
148
330
2
100
AcDbEntity
  8
AM_VIS
100
AcDbSpline
210
0.0
220
0.0
230
1.0
 70
    28
 71
     2
 72
     6
 73
     3
 74
     0
 42
0.0000000001
 43
0.0000000001
 40
0.0
 40
0.0
 40
0.0
 40
5.59061555148098
 40
5.59061555148098
 40
5.59061555148098
 10
-85.22754160730173
 20
130.3520969238606
 30
0.0
 41
1.0
 10
-85.98746634026369
 20
130.3520969238606
 30
0.0
 41
1.024357497129432
 10
-86.0566130255926
 20
130.3520969238606
 30
0.0
 41
1.0
  0
LINE
  5
149
330
2
100
AcDbEntity
  8
AM_VIS
100
AcDbLine
 10
-81.0566130255926
 20
149.7843772922107
 30
0.0
 11
-81.0566130255926
 21
146.9197829854713
 31
0.0
  0
LINE
  5
14A
330
2
100
AcDbEntity
  8
AM_VIS
100
AcDbLine
 10
-81.0566130255926
 20
137.7843237619119
 30
0.0
 11
-81.0566130255926
 21
134.9198700858015
 31
0.0
  0
LINE
  5
14B
330
2
100
AcDbEntity
  8
AM_VIS
100
AcDbLine
 10
-94.31661302559129
 20
148.3520913288514
 30
0.0
 11
-93.81661302559258
 21
148.3520913288514
 31
0.0
  0
LINE
  5
14C
330
2
100
AcDbEntity
  8
AM_VIS
100
AcDbLine
 10
-94.31661302559131
 20
136.3520913288514
 30
0.0
 11
-93.8166130255926
 21
136.3520913288514
 31
0.0
  0
SPLINE
  5
14D
330
2
100
AcDbEntity
  8
AM_VIS
100
AcDbSpline
210
0.0
220
0.0
230
1.0
 70
    28
 71
     2
 72
     6
 73
     3
 74
     0
 42
0.0000000001
 43
0.0000000001
 40
0.0
 40
0.0
 40
0.0
 40
4.489346956745006
 40
4.489346956745006
 40
4.489346956745006
 10
-167.3856844438834
 20
130.3520857338422
 30
0.0
 41
1.0
 10
-167.9915934822914
 20
130.3520857338422
 30
0.0
 41
1.01528023573722
 10
-168.1566130255926
 20
130.3520857338422
 30
0.0
 41
1.0
  0
LINE
  5
14E
330
2
100
AcDbEntity
  8
AM_VIS
100
AcDbLine
 10
-167.3856844438834
 20
131.0936757952591
 30
0.0
 11
-167.3856844438834
 21
130.3520857338422
 31
0.0
  0
SPLINE
  5
14F
330
2
100
AcDbEntity
  8
AM_VIS
100
AcDbSpline
210
0.0
220
0.0
230
1.0
 70
    12
 71
     2
 72
     6
 73
     3
 74
     0
 42
0.0000000001
 43
0.0000000001
 40
0.0
 40
0.0
 40
0.0
 40
4.489200933507459
 40
4.489200933507459
 40
4.489200933507459
 10
-168.1566130255926
 20
134.9198053654922
 30
0.0
 41
1.0
 10
-167.991578743303
 20
133.1066733006839
 30
0.0
 41
1.015279190562461
 10
-167.3856844438834
 20
131.0936757952591
 30
0.0
 41
1.0
  0
LINE
  5
150
330
2
100
AcDbEntity
  8
AM_VIS
100
AcDbLine
 10
-168.1566130255926
 20
134.9198053654922
 30
0.0
 11
-168.1566130255926
 21
130.3520857338422
 31
0.0
  0
SPLINE
  5
151
330
2
100
AcDbEntity
  8
AM_VIS
100
AcDbSpline
210
0.0
220
0.0
230
1.0
 70
    12
 71
     2
 72
     6
 73
     3
 74
     0
 42
0.0000000001
 43
0.0000000001
 40
0.0
 40
0.0
 40
0.0
 40
4.489200933507414
 40
4.489200933507414
 40
4.489200933507414
 10
-167.3856844438834
 20
141.6105292424647
 30
0.0
 41
1.0
 10
-167.9915787433031
 20
139.5975317370397
 30
0.0
 41
1.015279190563105
 10
-168.1566130255926
 20
137.7843996722316
 30
0.0
 41
1.0
  0
LINE
  5
152
330
2
100
AcDbEntity
  8
AM_VIS
100
AcDbLine
 10
-167.3856844438834
 20
143.0936781623856
 30
0.0
 11
-167.3856844438834
 21
141.6105292424647
 31
0.0
  0
SPLINE
  5
153
330
2
100
AcDbEntity
  8
AM_VIS
100
AcDbSpline
210
0.0
220
0.0
230
1.0
 70
    12
 71
     2
 72
     6
 73
     3
 74
     0
 42
0.0000000001
 43
0.0000000001
 40
0.0
 40
0.0
 40
0.0
 40
4.489259339835058
 40
4.489259339835058
 40
4.489259339835058
 10
-168.1566130255926
 20
146.9198588957911
 30
0.0
 41
1.0
 10
-167.9915846385419
 20
145.1067025857015
 30
0.0
 41
1.015279608606588
 10
-167.3856844438834
 20
143.0936781623856
 30
0.0
 41
1.0
  0
LINE
  5
154
330
2
100
AcDbEntity
  8
AM_VIS
100
AcDbLine
 10
-168.1566130255926
 20
146.9198588957909
 30
0.0
 11
-168.1566130255926
 21
137.7843996722316
 31
0.0
  0
SPLINE
  5
155
330
2
100
AcDbEntity
  8
AM_VIS
100
AcDbSpline
210
0.0
220
0.0
230
1.0
 70
    12
 71
     2
 72
     6
 73
     3
 74
     0
 42
0.0000000001
 43
0.0000000001
 40
1.825507119030529
 40
1.825507119030529
 40
1.825507119030529
 40
4.489259339835054
 40
4.489259339835054
 40
4.489259339835054
 10
-167.8069107906033
 20
152.0034016510555
 30
0.0
 41
1.007373440692833
 10
-168.0580886400623
 20
150.8667936802406
 30
0.0
 41
1.009066326598222
 10
-168.1566130255926
 20
149.7843125719013
 30
0.0
 41
1.0
  0
LINE
  5
156
330
2
100
AcDbEntity
  8
AM_VIS
100
AcDbLine
 10
-168.1566130255926
 20
152.0034016510555
 30
0.0
 11
-168.1566130255926
 21
149.7843125719014
 31
0.0
  0
LINE
  5
157
330
2
100
AcDbEntity
  8
AM_VIS
100
AcDbLine
 10
-163.9856844438834
 20
130.3520857338422
 30
0.0
 11
-167.3856844438834
 21
130.3520857338422
 31
0.0
  0
LINE
  5
158
330
2
100
AcDbEntity
  8
AM_VIS
100
AcDbLine
 10
-163.9856844438834
 20
131.0936757952591
 30
0.0
 11
-163.9856844438834
 21
130.3520857338422
 31
0.0
  0
LINE
  5
159
330
2
100
AcDbEntity
  8
AM_VIS
100
AcDbLine
 10
-167.3856844438834
 20
131.0936757952591
 30
0.0
 11
-163.9856844438834
 21
131.0936757952591
 31
0.0
  0
LINE
  5
15A
330
2
100
AcDbEntity
  8
AM_VIS
100
AcDbLine
 10
-163.9856844438834
 20
141.6105292424647
 30
0.0
 11
-167.3856844438834
 21
141.6105292424647
 31
0.0
  0
LINE
  5
15B
330
2
100
AcDbEntity
  8
AM_VIS
100
AcDbLine
 10
-163.9856844438834
 20
143.0936781623856
 30
0.0
 11
-163.9856844438834
 21
141.6105292424647
 31
0.0
  0
LINE
  5
15C
330
2
100
AcDbEntity
  8
AM_VIS
100
AcDbLine
 10
-167.3856844438834
 20
143.0936781623856
 30
0.0
 11
-163.9856844438834
 21
143.0936781623856
 31
0.0
  0
SPLINE
  5
15D
330
2
100
AcDbEntity
  8
AM_VIS
100
AcDbSpline
210
0.0
220
0.0
230
1.0
 70
    28
 71
     2
 72
     6
 73
     3
 74
     0
 42
0.0000000001
 43
0.0000000001
 40
0.0
 40
0.0
 40
0.0
 40
5.590835352818166
 40
5.590835352818166
 40
5.590835352818166
 10
-163.1566130255926
 20
130.3520857338422
 30
0.0
 41
1.0
 10
-163.2257320531058
 20
130.3520857338422
 30
0.0
 41
1.02435951945957
 10
-163.9856844438834
 20
130.3520857338422
 30
0.0
 41
1.0
  0
SPLINE
  5
15E
330
2
100
AcDbEntity
  8
AM_VIS
100
AcDbSpline
210
0.0
220
0.0
230
1.0
 70
    12
 71
     2
 72
     6
 73
     3
 74
     0
 42
0.0000000001
 43
0.0000000001
 40
0.0
 40
0.0
 40
0.0
 40
5.59028604994716
 40
5.59028604994716
 40
5.59028604994716
 10
-163.9856844438834
 20
131.0936757952591
 30
0.0
 41
1.0
 10
-163.2258011704171
 20
133.6182797325579
 30
0.0
 41
1.024354465647418
 10
-163.1566130255926
 20
135.8733174180364
 30
0.0
 41
1.0
  0
SPLINE
  5
15F
330
2
100
AcDbEntity
  8
AM_VIS
100
AcDbSpline
210
0.0
220
0.0
230
1.0
 70
    12
 71
     2
 72
     6
 73
     3
 74
     0
 42
0.0000000001
 43
0.0000000001
 40
0.0
 40
0.0
 40
0.0
 40
5.590286049947125
 40
5.590286049947125
 40
5.590286049947125
 10
-163.1566130255926
 20
136.8308876196873
 30
0.0
 41
1.0
 10
-163.2258011704171
 20
139.0859253051658
 30
0.0
 41
1.02435446564768
 10
-163.9856844438834
 20
141.6105292424647
 30
0.0
 41
1.0
  0
SPLINE
  5
160
330
2
100
AcDbEntity
  8
AM_VIS
100
AcDbSpline
210
0.0
220
0.0
230
1.0
 70
    12
 71
     2
 72
     6
 73
     3
 74
     0
 42
0.0000000001
 43
0.0000000001
 40
0.0
 40
0.0
 40
0.0
 40
5.590505691017254
 40
5.590505691017254
 40
5.590505691017254
 10
-163.9856844438834
 20
143.0936781623855
 30
0.0
 41
1.0
 10
-163.2257735343696
 20
145.6183831119481
 30
0.0
 41
1.024356486367964
 10
-163.1566130255926
 20
147.8735110240394
 30
0.0
 41
1.0
  0
SPLINE
  5
161
330
2
100
AcDbEntity
  8
AM_VIS
100
AcDbSpline
210
0.0
220
0.0
230
1.0
 70
    12
 71
     2
 72
     6
 73
     3
 74
     0
 42
0.0000000001
 43
0.0000000001
 40
0.0
 40
0.0
 40
0.0
 40
3.791078462056912
 40
3.791078462056912
 40
3.791078462056912
 10
-163.1566130255926
 20
148.8306604436529
 30
0.0
 41
1.0
 10
-163.2038744071643
 20
150.3717199678111
 30
0.0
 41
1.016516815469833
 10
-163.5644580971636
 20
152.0034016510555
 30
0.0
 41
1.010632600746614
  0
LINE
  5
162
330
2
100
AcDbEntity
  8
AM_VIS
100
AcDbLine
 10
-168.1566130255926
 20
134.9198053654922
 30
0.0
 11
-168.1566130255926
 21
137.7843996722316
 31
0.0
  0
LINE
  5
163
330
2
100
AcDbEntity
  8
AM_VIS
100
AcDbLine
 10
-168.1566130255926
 20
146.9198588957909
 30
0.0
 11
-168.1566130255926
 21
149.7843125719015
 31
0.0
  0
LINE
  5
164
330
2
100
AcDbEntity
  8
AM_VIS
100
AcDbLine
 10
-154.8166130255914
 20
136.3520913288514
 30
0.0
 11
-155.3166130255926
 21
136.3520913288514
 31
0.0
  0
LINE
  5
165
330
2
100
AcDbEntity
  8
AM_VIS
100
AcDbLine
 10
-154.8166130255914
 20
148.3520913288514
 30
0.0
 11
-155.3166130255926
 21
148.3520913288514
 31
0.0
  0
LINE
  5
166
330
2
100
AcDbEntity
  8
AM_VIS
100
AcDbLine
 10
-163.1566130255926
 20
128.8520913288514
 30
0.0
 11
-163.1566130255926
 21
152.0034016510555
 31
0.0
  0
LINE
  5
167
330
2
100
AcDbEntity
  8
AM_VIS
100
AcDbLine
 10
-163.1566130255926
 20
128.8520913288514
 30
0.0
 11
-161.6566130255925
 21
128.8520913288514
 31
0.0
  0
LINE
  5
168
330
2
100
AcDbEntity
  8
AM_VIS
100
AcDbLine
 10
-86.0566130255926
 20
152.0034016510556
 30
0.0
 11
-86.0566130255926
 21
128.8520913288514
 31
0.0
  0
LINE
  5
169
330
2
100
AcDbEntity
  8
AM_VIS
100
AcDbLine
 10
-87.55661302559261
 20
128.8520913288514
 30
0.0
 11
-86.0566130255926
 21
128.8520913288514
 31
0.0
  0
LINE
  5
16A
330
2
100
AcDbEntity
  8
AM_VIS
100
AcDbLine
 10
-132.5666130255926
 20
377.2757538043904
 30
0.0
 11
-132.4166130255925
 21
377.2757538043904
 31
0.0
  0
LINE
  5
16B
330
2
100
AcDbEntity
  8
AM_VIS
100
AcDbLine
 10
-132.5666130255926
 20
364.6257538043905
 30
0.0
 11
-132.4166130255925
 21
364.6257538043905
 31
0.0
  0
ELLIPSE
  5
16C
330
2
100
AcDbEntity
  8
AM_VIS
100
AcDbEllipse
 10
-124.5666130255925
 20
141.3598962292079
 30
0.0
 11
10.0
 21
0.0000000000000017
 31
0.0
210
0.0
220
0.0
230
1.0
 40
0.1246951652765545
 41
2.214297435588163
 42
4.712388980384689
  0
ELLIPSE
  5
16D
330
2
100
AcDbEntity
  8
AM_VIS
100
AcDbEllipse
 10
-124.5666130255925
 20
141.3598962292079
 30
0.0
 11
10.0
 21
0.0000000000000017
 31
0.0
210
0.0
220
0.0
230
1.0
 40
0.1246951652765545
 41
4.712388980384689
 42
7.21048052518117
  0
ELLIPSE
  5
16E
330
2
100
AcDbEntity
  8
AM_VIS
100
AcDbEllipse
 10
-101.3166130255926
 20
118.4619862311558
 30
0.0
 11
11.75
 21
0.0000000000000019
 31
0.0
210
0.0
220
0.0
230
1.0
 40
0.1246951652765544
 41
0.0
 42
0.9588421711065697
  0
ELLIPSE
  5
16F
330
2
100
AcDbEntity
  8
AM_VIS
100
AcDbEllipse
 10
-101.3166130255926
 20
82.89780805648986
 30
0.0
 11
11.75
 21
0.0000000000000019
 31
0.0
210
0.0
220
0.0
230
1.0
 40
0.1246951652765544
 41
4.712388980384689
 42
6.283185307179586
  0
LINE
  5
170
330
2
100
AcDbEntity
  8
AM_VIS
100
AcDbLine
 10
-101.3166130255926
 20
81.43263986449035
 30
0.0
 11
-147.8166130255926
 21
81.43263986449033
 31
0.0
  0
ELLIPSE
  5
171
330
2
100
AcDbEntity
  8
AM_VIS
100
AcDbEllipse
 10
-147.8166130255926
 20
82.89780805648986
 30
0.0
 11
11.75
 21
0.0000000000000019
 31
0.0
210
0.0
220
0.0
230
1.0
 40
0.1246951652765544
 41
3.141592653589794
 42
4.712388980384689
  0
ELLIPSE
  5
172
330
2
100
AcDbEntity
  8
AM_VIS
100
AcDbEllipse
 10
-101.3166130255926
 20
112.663661045796
 30
0.0
 11
11.75
 21
0.0000000000000019
 31
0.0
210
0.0
220
0.0
230
1.0
 40
0.1246951652765544
 41
4.712388980384689
 42
6.283185307179586
  0
LINE
  5
173
330
2
100
AcDbEntity
  8
AM_VIS
100
AcDbLine
 10
-89.56661302559259
 20
82.89780805648986
 30
0.0
 11
-89.56661302559259
 21
112.663661045796
 31
0.0
  0
LINE
  5
174
330
2
100
AcDbEntity
  8
AM_VIS
100
AcDbLine
 10
-101.3166130255926
 20
111.1984928537965
 30
0.0
 11
-147.8166130255926
 21
111.1984928537965
 31
0.0
  0
ELLIPSE
  5
175
330
2
100
AcDbEntity
  8
AM_VIS
100
AcDbEllipse
 10
-147.8166130255926
 20
112.663661045796
 30
0.0
 11
11.75
 21
0.0000000000000019
 31
0.0
210
0.0
220
0.0
230
1.0
 40
0.1246951652765544
 41
3.141592653589792
 42
4.712388980384689
  0
LINE
  5
176
330
2
100
AcDbEntity
  8
AM_VIS
100
AcDbLine
 10
-159.5666130255926
 20
112.663661045796
 30
0.0
 11
-159.5666130255926
 21
82.89780805648986
 31
0.0
  0
ELLIPSE
  5
177
330
2
100
AcDbEntity
  8
AM_VIS
100
AcDbEllipse
 10
-147.8166130255926
 20
118.4619862311558
 30
0.0
 11
11.75
 21
0.0000000000000019
 31
0.0
210
0.0
220
0.0
230
1.0
 40
0.1246951652765544
 41
2.182750482483139
 42
3.141592653589792
  0
LINE
  5
178
330
2
100
AcDbEntity
  8
AM_VIS
100
AcDbLine
 10
-89.56661302559259
 20
118.4619862311558
 30
0.0
 11
-89.56661302559259
 21
112.663661045796
 31
0.0
  0
LINE
  5
179
330
2
100
AcDbEntity
  8
AM_VIS
100
AcDbLine
 10
-159.5666130255926
 20
112.663661045796
 30
0.0
 11
-159.5666130255926
 21
118.4619862311558
 31
0.0
  0
SPLINE
  5
17A
330
2
100
AcDbEntity
  8
AM_VIS
100
AcDbSpline
210
0.0
220
0.0
230
1.0
 70
     8
 71
     1
 72
    51
 73
    49
 74
     0
 42
0.0000000001
 43
0.0000000001
 40
3.446314366438828
 40
3.446314366438828
 40
3.459766285855108
 40
3.474017836213501
 40
3.488269386571894
 40
3.502520936930288
 40
3.516772487288681
 40
3.531024037647075
 40
3.545275588005468
 40
3.559527138363862
 40
3.573778688722255
 40
3.588030239080648
 40
3.609550643283875
 40
3.631071047487101
 40
3.652591451690327
 40
3.674111855893553
 40
3.695632260096779
 40
3.717152664300004
 40
3.738673068503231
 40
3.760193472706457
 40
3.781713876909684
 40
3.803234281112909
 40
3.824754685316135
 40
3.846275089519362
 40
3.867795493722588
 40
3.889315897925814
 40
3.91083630212904
 40
3.932356706332266
 40
3.953877110535492
 40
3.975397514738718
 40
3.996917918941944
 40
4.01843832314517
 40
4.036065898328323
 40
4.053693473511476
 40
4.071321048694628
 40
4.088948623877782
 40
4.106576199060935
 40
4.124203774244088
 40
4.14183134942724
 40
4.159458924610394
 40
4.177086499793547
 40
4.194714074976699
 40
4.212341650159852
 40
4.229969225343006
 40
4.247596800526158
 40
4.265224375709311
 40
4.282851950892464
 40
4.300479526075617
 40
4.318107101258769
 40
4.334646848750442
 40
4.334646848750442
 10
-140.5665884532496
 20
141.8332675921602
 30
0.0
 10
-140.4716838239605
 20
141.8700839040322
 30
0.0
 10
-140.3700879317622
 20
141.9076491744734
 30
0.0
 10
-140.2672702686704
 20
141.9439488823746
 30
0.0
 10
-140.163079020234
 20
141.9791283644788
 30
0.0
 10
-140.0573805366096
 20
142.0133094513657
 30
0.0
 10
-139.9500574469494
 20
142.0465946017914
 30
0.0
 10
-139.8410069268218
 20
142.0790702446628
 30
0.0
 10
-139.730139130459
 20
142.1108094902169
 30
0.0
 10
-139.6173757866358
 20
142.1418743378348
 30
0.0
 10
-139.5026489497564
 20
142.1723174810105
 30
0.0
 10
-139.3255579602221
 20
142.2172072130429
 30
0.0
 10
-139.1436903421087
 20
142.2609071013615
 30
0.0
 10
-138.9569149899097
 20
142.3035172888157
 30
0.0
 10
-138.7651318035177
 20
142.3451167769094
 30
0.0
 10
-138.5682672143024
 20
142.3857678470483
 30
0.0
 10
-138.3662704848305
 20
142.4255194671879
 30
0.0
 10
-138.1591106399864
 20
142.4644099381261
 30
0.0
 10
-137.9467739130044
 20
142.5024689652507
 30
0.0
 10
-137.7292616116984
 20
142.5397192926667
 30
0.0
 10
-137.5065883281695
 20
142.5761780014181
 30
0.0
 10
-137.2787804299266
 20
142.6118575479653
 30
0.0
 10
-137.0458747822039
 20
142.6467666003739
 30
0.0
 10
-136.8079176607915
 20
142.6809107158887
 30
0.0
 10
-136.5649638223545
 20
142.7142928933202
 30
0.0
 10
-136.3170757053638
 20
142.7469140260061
 30
0.0
 10
-136.064322739704
 20
142.7787732753335
 30
0.0
 10
-135.8067807470017
 20
142.8098683804227
 30
0.0
 10
-135.5445314169277
 20
142.8401959162252
 30
0.0
 10
-135.2776618473227
 20
142.8697515097155
 30
0.0
 10
-135.0062641381008
 20
142.8985300218611
 30
0.0
 10
-134.7806536104749
 20
142.921519829176
 30
0.0
 10
-134.5521251358677
 20
142.9439810044007
 30
0.0
 10
-134.3207358892673
 20
142.9659099664187
 30
0.0
 10
-134.086544782679
 20
142.9873029961943
 30
0.0
 10
-133.8496123737657
 20
143.0081562691598
 30
0.0
 10
-133.6100007811697
 20
143.0284658838949
 30
0.0
 10
-133.3677736057215
 20
143.0482278875909
 30
0.0
 10
-133.122995856842
 20
143.0674382987159
 30
0.0
 10
-132.8757338835335
 20
143.0860931272386
 30
0.0
 10
-132.6260553094298
 20
143.1041883927162
 30
0.0
 10
-132.3740289714404
 20
143.121720140507
 30
0.0
 10
-132.1197248615835
 20
143.1386844563351
 30
0.0
 10
-131.8632140716475
 20
143.1550774793999
 30
0.0
 10
-131.6045687403653
 20
143.1708954141979
 30
0.0
 10
-131.3438620028252
 20
143.1861345412045
 30
0.0
 10
-131.0811679418693
 20
143.2007912265377
 30
0.0
 10
-130.8165615412638
 20
143.2148619307174
 30
0.0
 10
-130.566561285718
 20
143.2275112634961
 30
0.0
  0
SPLINE
  5
17B
330
2
100
AcDbEntity
  8
AM_VIS
100
AcDbSpline
210
0.0
220
0.0
230
1.0
 70
     8
 71
     1
 72
    55
 73
    53
 74
     0
 42
0.0000000001
 43
0.0000000001
 40
5.090131112018959
 40
5.090131112018959
 40
5.090755434144947
 40
5.107914857727037
 40
5.125074281309126
 40
5.142233704891216
 40
5.159393128473308
 40
5.176552552055396
 40
5.193711975637487
 40
5.210871399219576
 40
5.228030822801666
 40
5.245190246383756
 40
5.262349669965846
 40
5.279509093547936
 40
5.296668517130026
 40
5.313827940712116
 40
5.330987364294205
 40
5.348457192230492
 40
5.365927020166777
 40
5.383396848103064
 40
5.400866676039351
 40
5.418336503975637
 40
5.435806331911923
 40
5.45327615984821
 40
5.470745987784496
 40
5.488215815720782
 40
5.505685643657068
 40
5.523155471593355
 40
5.540625299529641
 40
5.558095127465927
 40
5.575564955402214
 40
5.5930347833385
 40
5.610504611274786
 40
5.627974439211073
 40
5.645444267147358
 40
5.662914095083645
 40
5.680942754254059
 40
5.698971413424471
 40
5.717000072594885
 40
5.735028731765298
 40
5.753057390935711
 40
5.771086050106124
 40
5.789114709276538
 40
5.807143368446952
 40
5.825172027617364
 40
5.843200686787778
 40
5.861229345958191
 40
5.879258005128604
 40
5.897286664299017
 40
5.915315323469431
 40
5.933343982639844
 40
5.951372641810257
 40
5.969401300980671
 40
5.978463594330648
 40
5.978463594330648
 10
-118.5666419530574
 20
143.2275185316985
 30
0.0
 10
-118.5571496619653
 20
143.2270597299109
 30
0.0
 10
-118.2979298114037
 20
143.213888235574
 30
0.0
 10
-118.0404553098048
 20
143.2001584407303
 30
0.0
 10
-117.7847960693984
 20
143.1858735215088
 30
0.0
 10
-117.5310212323337
 20
143.1710367456463
 30
0.0
 10
-117.2791991310879
 20
143.155651465521
 30
0.0
 10
-117.0293972475286
 20
143.1397211104943
 30
0.0
 10
-116.7816821704721
 20
143.1232491784832
 30
0.0
 10
-116.5361195515554
 20
143.106239226671
 30
0.0
 10
-116.2927740592214
 20
143.0886948612549
 30
0.0
 10
-116.051709330588
 20
143.0706197261101
 30
0.0
 10
-115.8129879209429
 20
143.0520174902335
 30
0.0
 10
-115.576671250573
 20
143.0328918338101
 30
0.0
 10
-115.3428195485965
 20
143.0132464327195
 30
0.0
 10
-115.1114917934239
 20
142.9930849412708
 30
0.0
 10
-114.8786318830356
 20
142.9720322954776
 30
0.0
 10
-114.6485072028067
 20
142.9504522104683
 30
0.0
 10
-114.4211755677808
 20
142.9283483390529
 30
0.0
 10
-114.1966931438554
 20
142.905724210547
 30
0.0
 10
-113.9751143554357
 20
142.8825831969954
 30
0.0
 10
-113.7564917852109
 20
142.8589284748946
 30
0.0
 10
-113.5408760649621
 20
142.8347629816983
 30
0.0
 10
-113.3283157561442
 20
142.8100893662493
 30
0.0
 10
-113.1188572187842
 20
142.784909932125
 30
0.0
 10
-112.9125444670093
 20
142.7592265726882
 30
0.0
 10
-112.7094190092454
 20
142.7330406963959
 30
0.0
 10
-112.5095196708055
 20
142.706353140632
 30
0.0
 10
-112.312882396208
 20
142.6791640719725
 30
0.0
 10
-112.1195400281153
 20
142.6514728703591
 30
0.0
 10
-111.929522059251
 20
142.6232779941156
 30
0.0
 10
-111.7428543530197
 20
142.5945768220762
 30
0.0
 10
-111.5595588277988
 20
142.5653654682631
 30
0.0
 10
-111.3796530989724
 20
142.5356385635129
 30
0.0
 10
-111.2031500717031
 20
142.5053889971441
 30
0.0
 10
-111.0245768579677
 20
142.473614063558
 30
0.0
 10
-110.8496378335344
 20
142.441259957118
 30
0.0
 10
-110.6783279194929
 20
142.4083106535884
 30
0.0
 10
-110.5106340155667
 20
142.3747462510128
 30
0.0
 10
-110.3465340366175
 20
142.3405422111515
 30
0.0
 10
-110.185995790973
 20
142.3056684317894
 30
0.0
 10
-110.0289756711456
 20
142.2700881061515
 30
0.0
 10
-109.8754171219632
 20
142.233756312828
 30
0.0
 10
-109.7252488447704
 20
142.1966182625777
 30
0.0
 10
-109.5783826892664
 20
142.1586071056642
 30
0.0
 10
-109.434711177017
 20
142.1196411729192
 30
0.0
 10
-109.2941045934085
 20
142.0796204826917
 30
0.0
 10
-109.1564075791779
 20
142.0384222903033
 30
0.0
 10
-109.0214351512954
 20
141.9958953812247
 30
0.0
 10
-108.8889680907034
 20
141.9518527065864
 30
0.0
 10
-108.7587476598594
 20
141.9060618200549
 30
0.0
 10
-108.6304696714186
 20
141.8582323858292
 30
0.0
 10
-108.5667868067467
 20
141.8329824396933
 30
0.0
  0
ELLIPSE
  5
17C
330
2
100
AcDbEntity
  8
AM_VIS
100
AcDbEllipse
 10
-124.5666130255936
 20
-151.3376581656361
 30
0.0
 11
20.0
 21
0.0000000000000033
 31
0.0
210
0.0
220
0.0
230
1.0
 40
0.1246951652765545
 41
4.712388980384689
 42
6.123905728572555
  0
ELLIPSE
  5
17D
330
2
100
AcDbEntity
  8
AM_VIS
100
AcDbEllipse
 10
-124.5666130255936
 20
-151.3376581656361
 30
0.0
 11
20.0
 21
0.0000000000000033
 31
0.0
210
0.0
220
0.0
230
1.0
 40
0.1246951652765545
 41
3.300872232196824
 42
4.712388980384689
  0
ELLIPSE
  5
17E
330
2
100
AcDbEntity
  8
AM_VIS
100
AcDbEllipse
 10
-101.316613025594
 20
-150.2680403597418
 30
0.0
 11
11.75
 21
0.0000000000000019
 31
0.0
210
0.0
220
0.0
230
1.0
 40
0.1246951652765544
 41
4.712388980384689
 42
6.283185307179586
  0
LINE
  5
17F
330
2
100
AcDbEntity
  8
AM_VIS
100
AcDbLine
 10
-101.316613025594
 20
-151.7332085517413
 30
0.0
 11
-147.816613025594
 21
-151.7332085517413
 31
0.0
  0
ELLIPSE
  5
180
330
2
100
AcDbEntity
  8
AM_VIS
100
AcDbEllipse
 10
-147.816613025594
 20
-150.2680403597418
 30
0.0
 11
11.75
 21
0.0000000000000019
 31
0.0
210
0.0
220
0.0
230
1.0
 40
0.1246951652765544
 41
3.141592653589794
 42
4.712388980384689
  0
LINE
  5
181
330
2
100
AcDbEntity
  8
AM_VIS
100
AcDbLine
 10
-89.56661302559401
 20
-150.2680403597418
 30
0.0
 11
-89.56661302559401
 21
-120.5333611617548
 31
0.0
  0
LINE
  5
182
330
2
100
AcDbEntity
  8
AM_VIS
100
AcDbLine
 10
-101.316613025594
 20
-121.9673555624352
 30
0.0
 11
-147.816613025594
 21
-121.9673555624352
 31
0.0
  0
LINE
  5
183
330
2
100
AcDbEntity
  8
AM_VIS
100
AcDbLine
 10
-159.566613025594
 20
-120.5333611617548
 30
0.0
 11
-159.566613025594
 21
-150.2680403597418
 31
0.0
  0
LINE
  5
184
330
2
100
AcDbEntity
  8
AM_VIS
100
AcDbLine
 10
-159.566613025592
 20
82.89780805648986
 30
0.0
 11
-159.566613025592
 21
82.86663426517071
 31
0.0
  0
ELLIPSE
  5
185
330
2
100
AcDbEntity
  8
AM_VIS
100
AcDbEllipse
 10
-148.066613025592
 20
82.86663426517071
 30
0.0
 11
11.5
 21
0.0000000000000019
 31
0.0
210
0.0
220
0.0
230
1.0
 40
0.1246951652765545
 41
3.141592653589794
 42
4.712388980384689
  0
LINE
  5
186
330
2
100
AcDbEntity
  8
AM_VIS
100
AcDbLine
 10
-148.066613025592
 20
81.43263986449033
 30
0.0
 11
-141.066613025592
 21
81.43263986449033
 31
0.0
  0
LINE
  5
187
330
2
100
AcDbEntity
  8
AM_VIS
100
AcDbLine
 10
-128.066613025592
 20
81.43263986449033
 30
0.0
 11
-121.066613025592
 21
81.43263986449033
 31
0.0
  0
LINE
  5
188
330
2
100
AcDbEntity
  8
AM_VIS
100
AcDbLine
 10
-108.066613025592
 20
81.43263986449033
 30
0.0
 11
-101.066613025592
 21
81.43263986449033
 31
0.0
  0
ELLIPSE
  5
189
330
2
100
AcDbEntity
  8
AM_VIS
100
AcDbEllipse
 10
-101.066613025592
 20
82.86663426517071
 30
0.0
 11
11.5
 21
0.0000000000000019
 31
0.0
210
0.0
220
0.0
230
1.0
 40
0.1246951652765545
 41
4.712388980384689
 42
6.283185307179586
  0
LINE
  5
18A
330
2
100
AcDbEntity
  8
AM_VIS
100
AcDbLine
 10
-89.56661302559206
 20
82.86663426517071
 30
0.0
 11
-89.56661302559206
 21
82.89780805648986
 31
0.0
  0
ELLIPSE
  5
18B
330
2
100
AcDbEntity
  8
AM_VIS
100
AcDbEllipse
 10
-141.066613025592
 20
-121.7803128145204
 30
0.0
 11
1.5
 21
0.0000000000000002
 31
0.0
210
0.0
220
0.0
230
1.0
 40
0.1246951652765545
 41
4.712388980384689
 42
6.283185307179586
  0
LINE
  5
18C
330
2
100
AcDbEntity
  8
AM_VIS
100
AcDbLine
 10
-139.566613025592
 20
-121.7803128145204
 30
0.0
 11
-139.5666130255921
 21
81.4326398644904
 31
0.0
  0
ELLIPSE
  5
18D
330
2
100
AcDbEntity
  8
AM_VIS
100
AcDbEllipse
 10
-138.066613025592
 20
-121.5309224839672
 30
0.0
 11
1.5
 21
0.0000000000000002
 31
0.0
210
0.0
220
0.0
230
1.0
 40
0.1246951652765545
 41
1.570796326794896
 42
3.141592653589792
  0
ELLIPSE
  5
18E
330
2
100
AcDbEntity
  8
AM_VIS
100
AcDbEllipse
 10
-131.066613025592
 20
-121.5309224839672
 30
0.0
 11
1.5
 21
0.0000000000000002
 31
0.0
210
0.0
220
0.0
230
1.0
 40
0.1246951652765545
 41
0.0
 42
1.570796326794896
  0
LINE
  5
18F
330
2
100
AcDbEntity
  8
AM_VIS
100
AcDbLine
 10
-138.066613025592
 20
-121.3438797360524
 30
0.0
 11
-131.066613025592
 21
-121.3438797360524
 31
0.0
  0
ELLIPSE
  5
190
330
2
100
AcDbEntity
  8
AM_VIS
100
AcDbEllipse
 10
-128.066613025592
 20
-121.7803128145204
 30
0.0
 11
1.5
 21
0.0000000000000002
 31
0.0
210
0.0
220
0.0
230
1.0
 40
0.1246951652765545
 41
3.141592653589794
 42
4.712388980384689
  0
LINE
  5
191
330
2
100
AcDbEntity
  8
AM_VIS
100
AcDbLine
 10
-129.566613025592
 20
81.43263986449033
 30
0.0
 11
-129.566613025592
 21
-121.7803128145204
 31
0.0
  0
LINE
  5
192
330
2
100
AcDbEntity
  8
AM_VIS
100
AcDbLine
 10
-128.066613025592
 20
-121.9673555624352
 30
0.0
 11
-121.066613025592
 21
-121.9673555624352
 31
0.0
  0
ELLIPSE
  5
193
330
2
100
AcDbEntity
  8
AM_VIS
100
AcDbEllipse
 10
-118.066613025592
 20
-121.5309224839672
 30
0.0
 11
1.5
 21
0.0000000000000002
 31
0.0
210
0.0
220
0.0
230
1.0
 40
0.1246951652765545
 41
1.570796326794896
 42
3.141592653589792
  0
LINE
  5
194
330
2
100
AcDbEntity
  8
AM_VIS
100
AcDbLine
 10
-119.566613025592
 20
-121.7803128145204
 30
0.0
 11
-119.566613025592
 21
81.43263986449037
 31
0.0
  0
ELLIPSE
  5
195
330
2
100
AcDbEntity
  8
AM_VIS
100
AcDbEllipse
 10
-121.066613025592
 20
-121.7803128145204
 30
0.0
 11
1.5
 21
0.0000000000000002
 31
0.0
210
0.0
220
0.0
230
1.0
 40
0.1246951652765545
 41
4.712388980384689
 42
6.283185307179586
  0
ELLIPSE
  5
196
330
2
100
AcDbEntity
  8
AM_VIS
100
AcDbEllipse
 10
-111.066613025592
 20
-121.5309224839672
 30
0.0
 11
1.5
 21
0.0000000000000002
 31
0.0
210
0.0
220
0.0
230
1.0
 40
0.1246951652765545
 41
0.0
 42
1.570796326794896
  0
LINE
  5
197
330
2
100
AcDbEntity
  8
AM_VIS
100
AcDbLine
 10
-118.066613025592
 20
-121.3438797360524
 30
0.0
 11
-111.066613025592
 21
-121.3438797360524
 31
0.0
  0
ELLIPSE
  5
198
330
2
100
AcDbEntity
  8
AM_VIS
100
AcDbEllipse
 10
-108.066613025592
 20
-121.7803128145204
 30
0.0
 11
1.5
 21
0.0000000000000002
 31
0.0
210
0.0
220
0.0
230
1.0
 40
0.1246951652765545
 41
3.141592653589794
 42
4.712388980384689
  0
LINE
  5
199
330
2
100
AcDbEntity
  8
AM_VIS
100
AcDbLine
 10
-109.566613025592
 20
81.43263986449033
 30
0.0
 11
-109.566613025592
 21
-121.7803128145203
 31
0.0
  0
ELLIPSE
  5
19A
330
2
100
AcDbEntity
  8
AM_VIS
100
AcDbEllipse
 10
-148.066613025592
 20
-120.5333611617548
 30
0.0
 11
11.5
 21
0.0000000000000019
 31
0.0
210
0.0
220
0.0
230
1.0
 40
0.1246951652765545
 41
3.141592653589794
 42
4.712388980384689
  0
LINE
  5
19B
330
2
100
AcDbEntity
  8
AM_VIS
100
AcDbLine
 10
-159.566613025592
 20
82.86663426517069
 30
0.0
 11
-159.566613025592
 21
-120.5333611617548
 31
0.0
  0
ELLIPSE
  5
19C
330
2
100
AcDbEntity
  8
AM_VIS
100
AcDbEllipse
 10
-101.066613025592
 20
-120.5333611617548
 30
0.0
 11
11.5
 21
0.0000000000000019
 31
0.0
210
0.0
220
0.0
230
1.0
 40
0.1246951652765545
 41
4.712388980384689
 42
6.283185307179586
  0
LINE
  5
19D
330
2
100
AcDbEntity
  8
AM_VIS
100
AcDbLine
 10
-89.56661302559203
 20
-120.5333611617548
 30
0.0
 11
-89.56661302559206
 21
82.86663426517071
 31
0.0
  0
LINE
  5
19E
330
2
100
AcDbEntity
  8
AM_VIS
100
AcDbLine
 10
-108.066613025592
 20
-121.9673555624352
 30
0.0
 11
-101.066613025592
 21
-121.9673555624352
 31
0.0
  0
LINE
  5
19F
330
2
100
AcDbEntity
  8
AM_VIS
100
AcDbLine
 10
-148.066613025592
 20
-121.9673555624352
 30
0.0
 11
-141.066613025592
 21
-121.9673555624352
 31
0.0
  0
LINE
  5
1A0
330
2
100
AcDbEntity
  8
AM_VIS
100
AcDbLine
 10
-154.8166130255914
 20
135.3520913288515
 30
0.0
 11
-154.8166130255914
 21
141.4792251719156
 31
0.0
  0
LINE
  5
1A1
330
2
100
AcDbEntity
  8
AM_VIS
100
AcDbLine
 10
-154.8166130255914
 20
141.4792251719156
 30
0.0
 11
-154.8166130255914
 21
149.3520913288515
 31
0.0
  0
LINE
  5
1A2
330
2
100
AcDbEntity
  8
AM_VIS
100
AcDbLine
 10
-154.8166130255914
 20
149.3520913288515
 30
0.0
 11
-154.5666130255922
 21
149.6020913288508
 31
0.0
  0
LINE
  5
1A3
330
2
100
AcDbEntity
  8
AM_VIS
100
AcDbLine
 10
-154.8166130255914
 20
135.3520913288515
 30
0.0
 11
-154.5666130255922
 21
135.1020913288522
 31
0.0
  0
LINE
  5
1A4
330
2
100
AcDbEntity
  8
AM_VIS
100
AcDbLine
 10
-94.31661302559131
 20
149.3520913288515
 30
0.0
 11
-94.31661302559131
 21
141.4792251719156
 31
0.0
  0
LINE
  5
1A5
330
2
100
AcDbEntity
  8
AM_VIS
100
AcDbLine
 10
-94.31661302559131
 20
141.4792251719156
 30
0.0
 11
-94.31661302559131
 21
135.3520913288514
 31
0.0
  0
LINE
  5
1A6
330
2
100
AcDbEntity
  8
AM_VIS
100
AcDbLine
 10
-94.31661302559129
 20
135.3520913288514
 30
0.0
 11
-94.56661302559218
 21
135.1020913288505
 31
0.0
  0
LINE
  5
1A7
330
2
100
AcDbEntity
  8
AM_VIS
100
AcDbLine
 10
-94.31661302559129
 20
149.3520913288514
 30
0.0
 11
-94.5666130255922
 21
149.6020913288523
 31
0.0
  0
ELLIPSE
  5
1A8
330
2
100
AcDbEntity
  8
AM_VIS
100
AcDbEllipse
 10
-151.5666130255922
 20
122.1180051724443
 30
0.0
 11
3.0
 21
0.0000000000000009
 31
0.0
210
0.0
220
0.0
230
1.0
 40
0.1246951652765545
 41
3.141592653589794
 42
4.712388980384689
  0
LINE
  5
1A9
330
2
100
AcDbEntity
  8
AM_VIS
100
AcDbLine
 10
-154.5666130255922
 20
122.1180051724443
 30
0.0
 11
-154.5666130255922
 21
112.1960541760089
 31
0.0
  0
ELLIPSE
  5
1AA
330
2
100
AcDbEntity
  8
AM_VIS
100
AcDbEllipse
 10
-151.5666130255922
 20
112.1960541760089
 30
0.0
 11
3.0
 21
0.0000000000000009
 31
0.0
210
0.0
220
0.0
230
1.0
 40
0.1246951652765545
 41
3.141592653589794
 42
4.712388980384689
  0
ELLIPSE
  5
1AB
330
2
100
AcDbEntity
  8
AM_VIS
100
AcDbEllipse
 10
-101.3166130255922
 20
122.5856120422314
 30
0.0
 11
4.1
 21
0.0000000000000012
 31
0.0
210
0.0
220
0.0
230
1.0
 40
0.1246951652765545
 41
4.712388980384689
 42
10.99557428756427
  0
ELLIPSE
  5
1AC
330
2
100
AcDbEntity
  8
AM_VIS
100
AcDbEllipse
 10
-147.8166130255922
 20
122.5856120422314
 30
0.0
 11
4.1
 21
0.0000000000000012
 31
0.0
210
0.0
220
0.0
230
1.0
 40
0.1246951652765545
 41
4.712388980384689
 42
10.99557428756427
  0
LINE
  5
1AD
330
2
100
AcDbEntity
  8
AM_VIS
100
AcDbLine
 10
-97.56661302559221
 20
121.7439196766147
 30
0.0
 11
-151.5666130255922
 21
121.7439196766146
 31
0.0
  0
ELLIPSE
  5
1AE
330
2
100
AcDbEntity
  8
AM_VIS
100
AcDbEllipse
 10
-97.56661302559221
 20
122.1180051724443
 30
0.0
 11
3.0
 21
0.0000000000000009
 31
0.0
210
0.0
220
0.0
230
1.0
 40
0.1246951652765545
 41
4.712388980384689
 42
6.283185307179586
  0
LINE
  5
1AF
330
2
100
AcDbEntity
  8
AM_VIS
100
AcDbLine
 10
-94.5666130255922
 20
123.614347155763
 30
0.0
 11
-94.5666130255922
 21
122.1180051724443
 31
0.0
  0
LINE
  5
1B0
330
2
100
AcDbEntity
  8
AM_VIS
100
AcDbLine
 10
-154.5666130255922
 20
122.1180051724443
 30
0.0
 11
-154.5666130255922
 21
123.614347155763
 31
0.0
  0
LINE
  5
1B1
330
2
100
AcDbEntity
  8
AM_VIS
100
AcDbLine
 10
-97.56661302559221
 20
111.8219686801793
 30
0.0
 11
-151.5666130255922
 21
111.8219686801793
 31
0.0
  0
ELLIPSE
  5
1B2
330
2
100
AcDbEntity
  8
AM_VIS
100
AcDbEllipse
 10
-97.56661302559221
 20
112.1960541760089
 30
0.0
 11
3.0
 21
0.0000000000000009
 31
0.0
210
0.0
220
0.0
230
1.0
 40
0.1246951652765545
 41
4.712388980384689
 42
6.283185307179586
  0
LINE
  5
1B3
330
2
100
AcDbEntity
  8
AM_VIS
100
AcDbLine
 10
-94.5666130255922
 20
112.1960541760089
 30
0.0
 11
-94.5666130255922
 21
122.1180051724443
 31
0.0
  0
LINE
  5
1B4
330
2
100
AcDbEntity
  8
AM_VIS
100
AcDbLine
 10
-108.5666130255922
 20
125.8481276856032
 30
0.0
 11
-108.5666130255922
 21
123.614347155763
 31
0.0
  0
LINE
  5
1B5
330
2
100
AcDbEntity
  8
AM_VIS
100
AcDbLine
 10
-94.5666130255922
 20
123.614347155763
 30
0.0
 11
-94.5666130255922
 21
125.8481276856032
 31
0.0
  0
LINE
  5
1B6
330
2
100
AcDbEntity
  8
AM_VIS
100
AcDbLine
 10
-140.5666130255922
 20
123.614347155763
 30
0.0
 11
-140.5666130255922
 21
125.8481276856032
 31
0.0
  0
LINE
  5
1B7
330
2
100
AcDbEntity
  8
AM_VIS
100
AcDbLine
 10
-154.5666130255922
 20
125.8481276856032
 30
0.0
 11
-154.5666130255922
 21
123.614347155763
 31
0.0
  0
LINE
  5
1B8
330
2
100
AcDbEntity
  8
AM_VIS
100
AcDbLine
 10
-140.5666130255922
 20
125.8481276856032
 30
0.0
 11
-140.5666130255922
 21
140.7310541802563
 31
0.0
  0
LINE
  5
1B9
330
2
100
AcDbEntity
  8
AM_VIS
100
AcDbLine
 10
-154.5666130255922
 20
125.8481276856032
 30
0.0
 11
-154.5666130255922
 21
140.7310541802563
 31
0.0
  0
ELLIPSE
  5
1BA
330
2
100
AcDbEntity
  8
AM_VIS
100
AcDbEllipse
 10
-124.5666130255922
 20
141.3598962292079
 30
0.0
 11
10.0
 21
0.0000000000000029
 31
0.0
210
0.0
220
0.0
230
1.0
 40
0.1246951652765545
 41
2.214297435588202
 42
4.712388980384689
  0
ELLIPSE
  5
1BB
330
2
100
AcDbEntity
  8
AM_VIS
100
AcDbEllipse
 10
-124.5666130255922
 20
141.3598962292079
 30
0.0
 11
10.0
 21
0.0000000000000029
 31
0.0
210
0.0
220
0.0
230
1.0
 40
0.1246951652765545
 41
4.712388980384689
 42
7.210480525181216
  0
LINE
  5
1BC
330
2
100
AcDbEntity
  8
AM_VIS
100
AcDbLine
 10
-108.5666130255922
 20
140.7310541802563
 30
0.0
 11
-108.5666130255922
 21
125.8481276856032
 31
0.0
  0
LINE
  5
1BD
330
2
100
AcDbEntity
  8
AM_VIS
100
AcDbLine
 10
-108.5666130255922
 20
140.7310541802563
 30
0.0
 11
-108.5666130255922
 21
152.0034016510557
 31
0.0
  0
LINE
  5
1BE
330
2
100
AcDbEntity
  8
AM_VIS
100
AcDbLine
 10
-140.5666130255922
 20
152.0034016510557
 30
0.0
 11
-140.5666130255922
 21
140.7310541802562
 31
0.0
  0
LINE
  5
1BF
330
2
100
AcDbEntity
  8
AM_VIS
100
AcDbLine
 10
-94.5666130255922
 20
140.7310541802563
 30
0.0
 11
-94.5666130255922
 21
125.8481276856032
 31
0.0
  0
LINE
  5
1C0
330
2
100
AcDbEntity
  8
AM_VIS
100
AcDbLine
 10
-154.5666130255922
 20
151.2912278145291
 30
0.0
 11
-154.5666130255922
 21
140.7310541802562
 31
0.0
  0
LINE
  5
1C1
330
2
100
AcDbEntity
  8
AM_VIS
100
AcDbLine
 10
-94.5666130255922
 20
140.7310541802563
 30
0.0
 11
-94.5666130255922
 21
151.2912278145284
 31
0.0
  0
LINE
  5
1C2
330
2
100
AcDbEntity
  8
AM_VIS
100
AcDbLine
 10
-132.4166130255925
 20
354.9334540984725
 30
0.0
 11
-132.4166130255925
 21
386.9334540984725
 31
0.0
  0
LINE
  5
1C3
330
2
100
AcDbEntity
  8
AM_VIS
100
AcDbLine
 10
-132.4166130255925
 20
386.9334540984725
 30
0.0
 11
-116.5666130255926
 21
386.9334540984725
 31
0.0
  0
LINE
  5
1C4
330
2
100
AcDbEntity
  8
AM_VIS
100
AcDbLine
 10
-132.4166130255925
 20
354.9334540984725
 30
0.0
 11
-116.5666130255926
 21
354.9334540984725
 31
0.0
  0
LINE
  5
1C5
330
2
100
AcDbEntity
  8
AM_VIS
100
AcDbLine
 10
602.3071731196795
 20
276.8897849817779
 30
0.0
 11
602.3071731196795
 21
303.1455691238334
 31
0.0
  0
LINE
  5
1C6
330
2
100
AcDbEntity
  8
AM_VIS
100
AcDbLine
 10
610.3071731196795
 20
276.8897849817779
 30
0.0
 11
610.3071731196795
 21
303.1455691238334
 31
0.0
  0
LINE
  5
1C7
330
2
100
AcDbEntity
  8
AM_VIS
100
AcDbLine
 10
602.3071731196795
 20
276.8897849817779
 30
0.0
 11
602.3071731196795
 21
273.0328389025785
 31
0.0
  0
LINE
  5
1C8
330
2
100
AcDbEntity
  8
AM_VIS
100
AcDbLine
 10
610.3071731196795
 20
276.8897849817779
 30
0.0
 11
610.3071731196795
 21
273.0328389025785
 31
0.0
  0
LINE
  5
1C9
330
2
100
AcDbEntity
  8
AM_VIS
100
AcDbLine
 10
602.3071731196795
 20
273.0328389025785
 30
0.0
 11
602.3071731196795
 21
194.8935400612468
 31
0.0
  0
LINE
  5
1CA
330
2
100
AcDbEntity
  8
AM_VIS
100
AcDbLine
 10
610.3071731196795
 20
194.8935400612468
 30
0.0
 11
602.3071731196795
 21
194.8935400612468
 31
0.0
  0
LINE
  5
1CB
330
2
100
AcDbEntity
  8
AM_VIS
100
AcDbLine
 10
610.3071731196795
 20
273.0328389025785
 30
0.0
 11
610.3071731196795
 21
194.8935400612468
 31
0.0
  0
LINE
  5
1CC
330
2
100
AcDbEntity
  8
AM_VIS
100
AcDbLine
 10
602.3071731196795
 20
194.8935400612468
 30
0.0
 11
602.3071731196795
 21
192.1746167001369
 31
0.0
  0
LINE
  5
1CD
330
2
100
AcDbEntity
  8
AM_VIS
100
AcDbLine
 10
610.3071731196795
 20
152.0034016510557
 30
0.0
 11
602.3071731196795
 21
152.0034016510557
 31
0.0
  0
LINE
  5
1CE
330
2
100
AcDbEntity
  8
AM_VIS
100
AcDbLine
 10
610.3071731196795
 20
194.8935400612468
 30
0.0
 11
610.3071731196795
 21
192.1746167001369
 31
0.0
  0
LINE
  5
1CF
330
2
100
AcDbEntity
  8
AM_VIS
100
AcDbLine
 10
610.3071731196795
 20
153.2429054392348
 30
0.0
 11
610.3071731196795
 21
152.0034016510557
 31
0.0
  0
LINE
  5
1D0
330
2
100
AcDbEntity
  8
AM_VIS
100
AcDbLine
 10
602.3071731196795
 20
319.1225173201998
 30
0.0
 11
602.3071731196795
 21
321.8456932217685
 31
0.0
  0
LINE
  5
1D1
330
2
100
AcDbEntity
  8
AM_VIS
100
AcDbLine
 10
610.3071731196795
 20
319.1225173201998
 30
0.0
 11
610.3071731196795
 21
319.6883630546383
 31
0.0
  0
LINE
  5
1D2
330
2
100
AcDbEntity
  8
AM_VIS
100
AcDbLine
 10
602.3071731196795
 20
319.1225173201999
 30
0.0
 11
602.3071731196795
 21
303.1455691238335
 31
0.0
  0
LINE
  5
1D3
330
2
100
AcDbEntity
  8
AM_VIS
100
AcDbLine
 10
610.3071731196795
 20
319.1225173201999
 30
0.0
 11
610.3071731196795
 21
303.1455691238335
 31
0.0
  0
LINE
  5
1D4
330
2
100
AcDbEntity
  8
AM_VIS
100
AcDbLine
 10
609.039779124566
 20
321.8456932217685
 30
0.0
 11
602.3071731196795
 21
321.8456932217685
 31
0.0
  0
LINE
  5
1D5
330
2
100
AcDbEntity
  8
AM_VIS
100
AcDbLine
 10
626.3071731196795
 20
276.8897849817779
 30
0.0
 11
626.3071731196795
 21
303.1455691238334
 31
0.0
  0
LINE
  5
1D6
330
2
100
AcDbEntity
  8
AM_VIS
100
AcDbLine
 10
634.3071731196795
 20
276.8897849817779
 30
0.0
 11
634.3071731196795
 21
303.1455691238334
 31
0.0
  0
LINE
  5
1D7
330
2
100
AcDbEntity
  8
AM_VIS
100
AcDbLine
 10
626.3071731196795
 20
276.8897849817779
 30
0.0
 11
626.3071731196795
 21
273.0328389025785
 31
0.0
  0
LINE
  5
1D8
330
2
100
AcDbEntity
  8
AM_VIS
100
AcDbLine
 10
634.3071731196795
 20
276.8897849817779
 30
0.0
 11
634.3071731196795
 21
273.0328389025785
 31
0.0
  0
LINE
  5
1D9
330
2
100
AcDbEntity
  8
AM_VIS
100
AcDbLine
 10
626.3071731196795
 20
273.0328389025785
 30
0.0
 11
626.3071731196795
 21
194.8935400612468
 31
0.0
  0
LINE
  5
1DA
330
2
100
AcDbEntity
  8
AM_VIS
100
AcDbLine
 10
634.3071731196795
 20
194.8935400612468
 30
0.0
 11
626.3071731196795
 21
194.8935400612468
 31
0.0
  0
LINE
  5
1DB
330
2
100
AcDbEntity
  8
AM_VIS
100
AcDbLine
 10
634.3071731196795
 20
273.0328389025785
 30
0.0
 11
634.3071731196795
 21
194.8935400612468
 31
0.0
  0
LINE
  5
1DC
330
2
100
AcDbEntity
  8
AM_VIS
100
AcDbLine
 10
626.3071731196795
 20
194.8935400612468
 30
0.0
 11
626.3071731196795
 21
192.1746167001369
 31
0.0
  0
LINE
  5
1DD
330
2
100
AcDbEntity
  8
AM_VIS
100
AcDbLine
 10
626.3071731196795
 20
153.2429054392348
 30
0.0
 11
626.3071731196795
 21
152.0034016510557
 31
0.0
  0
LINE
  5
1DE
330
2
100
AcDbEntity
  8
AM_VIS
100
AcDbLine
 10
634.3071731196795
 20
152.0034016510557
 30
0.0
 11
626.3071731196795
 21
152.0034016510557
 31
0.0
  0
LINE
  5
1DF
330
2
100
AcDbEntity
  8
AM_VIS
100
AcDbLine
 10
634.3071731196795
 20
194.8935400612468
 30
0.0
 11
634.3071731196795
 21
192.1746167001369
 31
0.0
  0
LINE
  5
1E0
330
2
100
AcDbEntity
  8
AM_VIS
100
AcDbLine
 10
626.3071731196795
 20
319.1225173201998
 30
0.0
 11
626.3071731196795
 21
319.6883630546383
 31
0.0
  0
LINE
  5
1E1
330
2
100
AcDbEntity
  8
AM_VIS
100
AcDbLine
 10
634.3071731196795
 20
319.1225173201998
 30
0.0
 11
634.3071731196795
 21
321.8456932217685
 31
0.0
  0
LINE
  5
1E2
330
2
100
AcDbEntity
  8
AM_VIS
100
AcDbLine
 10
626.3071731196795
 20
319.1225173201999
 30
0.0
 11
626.3071731196795
 21
303.1455691238335
 31
0.0
  0
LINE
  5
1E3
330
2
100
AcDbEntity
  8
AM_VIS
100
AcDbLine
 10
634.3071731196795
 20
319.1225173201999
 30
0.0
 11
634.3071731196795
 21
303.1455691238335
 31
0.0
  0
LINE
  5
1E4
330
2
100
AcDbEntity
  8
AM_VIS
100
AcDbLine
 10
634.3071731196795
 20
321.8456932217685
 30
0.0
 11
627.5745682994958
 21
321.8456932217685
 31
0.0
  0
ARC
  5
1E5
330
2
100
AcDbEntity
  8
AM_VIS
100
AcDbCircle
 10
655.8071731196796
 20
264.0034016510556
 30
0.0
 40
5.15
100
AcDbArc
 50
233.0903707686752
 51
0.0
  0
ARC
  5
1E6
330
2
100
AcDbEntity
  8
AM_VIS
100
AcDbCircle
 10
655.8071731196796
 20
264.0034016510556
 30
0.0
 40
5.15
100
AcDbArc
 50
0.0
 51
117.149297417011
  0
ARC
  5
1E7
330
2
100
AcDbEntity
  8
AM_VIS
100
AcDbCircle
 10
655.8071731196796
 20
164.0034016510555
 30
0.0
 40
5.15
100
AcDbArc
 50
265.4337562500883
 51
0.0
  0
ARC
  5
1E8
330
2
100
AcDbEntity
  8
AM_VIS
100
AcDbCircle
 10
655.8071731196796
 20
164.0034016510555
 30
0.0
 40
5.15
100
AcDbArc
 50
0.0
 51
94.5662437499117
  0
CIRCLE
  5
1E9
330
2
100
AcDbEntity
  8
AM_VIS
100
AcDbCircle
 10
580.8071731196796
 20
264.0034016510556
 30
0.0
 40
5.15
  0
ARC
  5
1EA
330
2
100
AcDbEntity
  8
AM_VIS
100
AcDbCircle
 10
580.8071731196796
 20
164.0034016510556
 30
0.0
 40
5.15
100
AcDbArc
 50
84.54029817418449
 51
275.4597018258155
  0
LINE
  5
1EB
330
2
100
AcDbEntity
  8
AM_VIS
100
AcDbLine
 10
570.8071731196796
 20
287.0034016510556
 30
0.0
 11
592.8071731196795
 21
287.0034016510556
 31
0.0
  0
LINE
  5
1EC
330
2
100
AcDbEntity
  8
AM_VIS
100
AcDbLine
 10
643.8071731196796
 20
287.0034016510556
 30
0.0
 11
665.8071731196797
 21
287.0034016510556
 31
0.0
  0
ARC
  5
1ED
330
2
100
AcDbEntity
  8
AM_VIS
100
AcDbCircle
 10
665.8071731196796
 20
282.0034016510555
 30
0.0
 40
5.0
100
AcDbArc
 50
0.0
 51
90.0
  0
LINE
  5
1EE
330
2
100
AcDbEntity
  8
AM_VIS
100
AcDbLine
 10
670.8071731196797
 20
282.0034016510555
 30
0.0
 11
670.8071731196797
 21
157.0034016510556
 31
0.0
  0
ARC
  5
1EF
330
2
100
AcDbEntity
  8
AM_VIS
100
AcDbCircle
 10
665.8071731196796
 20
157.0034016510556
 30
0.0
 40
5.0
100
AcDbArc
 50
270.0
 51
0.0
  0
LINE
  5
1F0
330
2
100
AcDbEntity
  8
AM_VIS
100
AcDbLine
 10
665.8071731196796
 20
152.0034016510555
 30
0.0
 11
661.8971731196795
 21
152.0034016510555
 31
0.0
  0
LINE
  5
1F1
330
2
100
AcDbEntity
  8
AM_VIS
100
AcDbLine
 10
626.3071731196795
 20
152.0034016510556
 30
0.0
 11
624.3071731196793
 21
152.0034016510556
 31
0.0
  0
LINE
  5
1F2
330
2
100
AcDbEntity
  8
AM_VIS
100
AcDbLine
 10
612.3071731196793
 20
152.0034016510556
 30
0.0
 11
610.3071731196795
 21
152.0034016510556
 31
0.0
  0
LINE
  5
1F3
330
2
100
AcDbEntity
  8
AM_VIS
100
AcDbLine
 10
574.7971731196795
 20
152.0034016510556
 30
0.0
 11
570.8071731196796
 21
152.0034016510556
 31
0.0
  0
ARC
  5
1F4
330
2
100
AcDbEntity
  8
AM_VIS
100
AcDbCircle
 10
570.8071731196796
 20
157.0034016510556
 30
0.0
 40
5.0
100
AcDbArc
 50
180.0
 51
270.0
  0
LINE
  5
1F5
330
2
100
AcDbEntity
  8
AM_VIS
100
AcDbLine
 10
565.8071731196796
 20
157.0034016510556
 30
0.0
 11
565.8071731196796
 21
282.0034016510555
 31
0.0
  0
ARC
  5
1F6
330
2
100
AcDbEntity
  8
AM_VIS
100
AcDbCircle
 10
570.8071731196796
 20
282.0034016510555
 30
0.0
 40
5.0
100
AcDbArc
 50
90.0
 51
180.0
  0
ELLIPSE
  5
1F7
330
2
100
AcDbEntity
  8
AM_VIS
100
AcDbEllipse
 10
595.6371731196795
 20
186.1142708267752
 30
0.0
 11
-14.34
 21
0.0
 31
0.0
210
0.0
220
0.0
230
1.0
 40
0.4226182617406992
 41
4.712388980384689
 42
6.283185307179586
  0
LINE
  5
1F8
330
2
100
AcDbEntity
  8
AM_VIS
100
AcDbLine
 10
641.0571731196795
 20
192.1746167001369
 30
0.0
 11
624.3071731196793
 21
192.1746167001369
 31
0.0
  0
LINE
  5
1F9
330
2
100
AcDbEntity
  8
AM_VIS
100
AcDbLine
 10
612.3071731196793
 20
192.1746167001369
 30
0.0
 11
595.6371731196795
 21
192.1746167001369
 31
0.0
  0
LINE
  5
1FA
330
2
100
AcDbEntity
  8
AM_VIS
100
AcDbLine
 10
581.2971731196795
 20
186.1142708267752
 30
0.0
 11
581.2971731196795
 21
160.4782470695844
 31
0.0
  0
LINE
  5
1FB
330
2
100
AcDbEntity
  8
AM_VIS
100
AcDbLine
 10
587.5571731196795
 20
160.4782470695844
 30
0.0
 11
587.5571731196795
 21
186.1142708267752
 31
0.0
  0
ELLIPSE
  5
1FC
330
2
100
AcDbEntity
  8
AM_VIS
100
AcDbEllipse
 10
595.5571731196795
 20
186.1142708267752
 30
0.0
 11
-7.999999999999999
 21
0.0
 31
0.0
210
0.0
220
0.0
230
1.0
 40
0.4226182617406992
 41
4.712388980384689
 42
6.283185307179586
  0
LINE
  5
1FD
330
2
100
AcDbEntity
  8
AM_VIS
100
AcDbLine
 10
595.5571731196795
 20
189.4952169207008
 30
0.0
 11
612.3071731196793
 21
189.4952169207008
 31
0.0
  0
LINE
  5
1FE
330
2
100
AcDbEntity
  8
AM_VIS
100
AcDbLine
 10
624.3071731196793
 20
189.4952169207008
 30
0.0
 11
641.0571731196795
 21
189.4952169207008
 31
0.0
  0
ELLIPSE
  5
1FF
330
2
100
AcDbEntity
  8
AM_VIS
100
AcDbEllipse
 10
641.0571731196795
 20
186.1142708267752
 30
0.0
 11
-7.999999999999999
 21
0.0
 31
0.0
210
0.0
220
0.0
230
1.0
 40
0.4226182617406992
 41
3.141592653589793
 42
4.712388980384689
  0
LINE
  5
200
330
2
100
AcDbEntity
  8
AM_VIS
100
AcDbLine
 10
649.0571731196795
 20
186.1142708267752
 30
0.0
 11
649.0571731196795
 21
160.4782470695844
 31
0.0
  0
LINE
  5
201
330
2
100
AcDbEntity
  8
AM_VIS
100
AcDbLine
 10
655.3971731196796
 20
186.1142708267752
 30
0.0
 11
655.3971731196796
 21
160.4782470695844
 31
0.0
  0
ELLIPSE
  5
202
330
2
100
AcDbEntity
  8
AM_VIS
100
AcDbEllipse
 10
641.0571731196795
 20
186.1142708267752
 30
0.0
 11
-14.34
 21
0.0
 31
0.0
210
0.0
220
0.0
230
1.0
 40
0.4226182617406992
 41
3.141592653589793
 42
4.712388980384689
  0
LINE
  5
203
330
2
100
AcDbEntity
  8
AM_VIS
100
AcDbLine
 10
655.3971731196796
 20
122.3520913288514
 30
0.0
 11
655.3971731196796
 21
160.4782470695844
 31
0.0
  0
ELLIPSE
  5
204
330
2
100
AcDbEntity
  8
AM_VIS
100
AcDbEllipse
 10
641.0571731196795
 20
149.8619593453092
 30
0.0
 11
-7.999999999999999
 21
0.0
 31
0.0
210
0.0
220
0.0
230
1.0
 40
0.4226182617406992
 41
3.141592653589792
 42
3.578061682324829
  0
LINE
  5
205
330
2
100
AcDbEntity
  8
AM_VIS
100
AcDbLine
 10
634.3071731196792
 20
153.2429054392348
 30
0.0
 11
624.3071731196793
 21
153.2429054392348
 31
0.0
  0
LINE
  5
206
330
2
100
AcDbEntity
  8
AM_VIS
100
AcDbLine
 10
612.3071731196793
 20
153.2429054392348
 30
0.0
 11
602.3071731196791
 21
153.2429054392348
 31
0.0
  0
ELLIPSE
  5
207
330
2
100
AcDbEntity
  8
AM_VIS
100
AcDbEllipse
 10
595.5571731196795
 20
149.8619593453092
 30
0.0
 11
-7.999999999999999
 21
0.0
 31
0.0
210
0.0
220
0.0
230
1.0
 40
0.4226182617406992
 41
5.846716278444777
 42
6.283185307179586
  0
LINE
  5
208
330
2
100
AcDbEntity
  8
AM_VIS
100
AcDbLine
 10
649.0571731196795
 20
122.3520913288514
 30
0.0
 11
649.0571731196795
 21
160.4782470695844
 31
0.0
  0
LINE
  5
209
330
2
100
AcDbEntity
  8
AM_VIS
100
AcDbLine
 10
587.5571731196795
 20
160.4782470695844
 30
0.0
 11
587.5571731196795
 21
122.3520913288514
 31
0.0
  0
LINE
  5
20A
330
2
100
AcDbEntity
  8
AM_VIS
100
AcDbLine
 10
581.2971731196795
 20
122.3520913288514
 30
0.0
 11
581.2971731196795
 21
160.4782470695844
 31
0.0
  0
LINE
  5
20B
330
2
100
AcDbEntity
  8
AM_VIS
100
AcDbLine
 10
655.3971731196796
 20
122.3520913288515
 30
0.0
 11
649.0571731196795
 21
122.3520913288515
 31
0.0
  0
LINE
  5
20C
330
2
100
AcDbEntity
  8
AM_VIS
100
AcDbLine
 10
587.5571731196795
 20
122.3520913288515
 30
0.0
 11
581.2971731196795
 21
122.3520913288515
 31
0.0
  0
LINE
  5
20D
330
2
100
AcDbEntity
  8
AM_VIS
100
AcDbLine
 10
612.3071731196795
 20
354.8115775846773
 30
0.0
 11
612.3071731196795
 21
353.1663032588173
 31
0.0
  0
LINE
  5
20E
330
2
100
AcDbEntity
  8
AM_VIS
100
AcDbLine
 10
612.3071731196795
 20
354.8115775846773
 30
0.0
 11
612.3071731196795
 21
378.8022781007053
 31
0.0
  0
LINE
  5
20F
330
2
100
AcDbEntity
  8
AM_VIS
100
AcDbLine
 10
612.3071731196795
 20
382.5295416223026
 30
0.0
 11
612.3071731196795
 21
378.8022781007054
 31
0.0
  0
LINE
  5
210
330
2
100
AcDbEntity
  8
AM_VIS
100
AcDbLine
 10
612.3071731196795
 20
386.526441794312
 30
0.0
 11
612.3071731196795
 21
382.5295416223027
 31
0.0
  0
LINE
  5
211
330
2
100
AcDbEntity
  8
AM_VIS
100
AcDbLine
 10
612.3071731196795
 20
389.4060329661837
 30
0.0
 11
612.3071731196795
 21
386.526441794312
 31
0.0
  0
LINE
  5
212
330
2
100
AcDbEntity
  8
AM_VIS
100
AcDbLine
 10
624.3071731196795
 20
386.526441794312
 30
0.0
 11
624.3071731196795
 21
389.4060329661837
 31
0.0
  0
LINE
  5
213
330
2
100
AcDbEntity
  8
AM_VIS
100
AcDbLine
 10
624.3071731196795
 20
389.4060329661838
 30
0.0
 11
612.3071731196795
 21
389.4060329661838
 31
0.0
  0
LINE
  5
214
330
2
100
AcDbEntity
  8
AM_VIS
100
AcDbLine
 10
612.3071731196795
 20
386.526441794312
 30
0.0
 11
624.3071731196795
 21
386.526441794312
 31
0.0
  0
LINE
  5
215
330
2
100
AcDbEntity
  8
AM_VIS
100
AcDbLine
 10
624.3071731196795
 20
382.5295416223027
 30
0.0
 11
624.3071731196795
 21
386.526441794312
 31
0.0
  0
LINE
  5
216
330
2
100
AcDbEntity
  8
AM_VIS
100
AcDbLine
 10
624.3071731196795
 20
378.8022781007054
 30
0.0
 11
624.3071731196795
 21
382.5295416223026
 31
0.0
  0
LINE
  5
217
330
2
100
AcDbEntity
  8
AM_VIS
100
AcDbLine
 10
624.3071731196795
 20
378.8022781007053
 30
0.0
 11
624.3071731196795
 21
354.8115775846773
 31
0.0
  0
LINE
  5
218
330
2
100
AcDbEntity
  8
AM_VIS
100
AcDbLine
 10
624.3071731196795
 20
353.1663032588173
 30
0.0
 11
624.3071731196795
 21
354.8115775846773
 31
0.0
  0
ELLIPSE
  5
219
330
2
100
AcDbEntity
  8
AM_VIS
100
AcDbEllipse
 10
618.3071731196795
 20
354.8378735722012
 30
0.0
 11
0.0
 21
35.06132380808762
 31
0.0
210
0.0
220
0.0
230
1.0
 40
0.4278218381628801
 41
5.495833269417813
 42
5.871668461112097
  0
ELLIPSE
  5
21A
330
2
100
AcDbEntity
  8
AM_VIS
100
AcDbEllipse
 10
618.3071731196795
 20
389.3087775946126
 30
0.0
 11
-15.0
 21
0.0
 31
0.0
210
0.0
220
0.0
230
1.0
 40
0.0393613190450799
 41
3.665191429188087
 42
4.712388980384689
  0
ELLIPSE
  5
21B
330
2
100
AcDbEntity
  8
AM_VIS
100
AcDbEllipse
 10
618.3071731196795
 20
354.8378735722012
 30
0.0
 11
0.0
 21
35.06132380808762
 31
0.0
210
0.0
220
0.0
230
1.0
 40
0.4278218381628801
 41
6.115263506199524
 42
6.283185307179585
  0
ELLIPSE
  5
21C
330
2
100
AcDbEntity
  8
AM_VIS
100
AcDbEllipse
 10
618.3071731196795
 20
354.8378735722012
 30
0.0
 11
0.0
 21
35.06132380808762
 31
0.0
210
0.0
220
0.0
230
1.0
 40
0.4278218381628801
 41
0.4115168460674882
 42
0.7873520377617716
  0
LINE
  5
21D
330
2
100
AcDbEntity
  8
AM_VIS
100
AcDbLine
 10
602.8484355937751
 20
362.3753129841519
 30
0.0
 11
598.6027714083768
 21
345.1866016444895
 31
0.0
  0
LINE
  5
21E
330
2
100
AcDbEntity
  8
AM_VIS
100
AcDbLine
 10
638.0115748309823
 20
345.1866016444894
 30
0.0
 11
633.765910645584
 21
362.3753129841518
 31
0.0
  0
ELLIPSE
  5
21F
330
2
100
AcDbEntity
  8
AM_VIS
100
AcDbEllipse
 10
618.3071731196795
 20
354.8378735722012
 30
0.0
 11
0.0
 21
35.06132380808762
 31
0.0
210
0.0
220
0.0
230
1.0
 40
0.4278218381628801
 41
0.0
 42
0.1679218009800604
  0
LINE
  5
220
330
2
100
AcDbEntity
  8
AM_VIS
100
AcDbLine
 10
643.8071731196795
 20
388.7511341527703
 30
0.0
 11
643.8071731196795
 21
341.7875571316603
 31
0.0
  0
LINE
  5
221
330
2
100
AcDbEntity
  8
AM_VIS
100
AcDbLine
 10
632.0093330122333
 20
389.5554613927383
 30
0.0
 11
643.8071731196795
 21
388.7511341527703
 31
0.0
  0
LINE
  5
222
330
2
100
AcDbEntity
  8
AM_VIS
100
AcDbLine
 10
632.0093330122333
 20
389.5554613927383
 30
0.0
 11
631.297554176446
 21
389.6039874874507
 31
0.0
  0
ELLIPSE
  5
223
330
2
100
AcDbEntity
  8
AM_VIS
100
AcDbEllipse
 10
640.6588992350288
 20
346.9983184513524
 30
0.0
 11
-0.1702091396897822
 21
4.999037188838014
 31
0.0
210
0.0
220
0.0
230
0.9999999999999998
 40
0.5764568091075001
 41
1.921952307841866
 42
3.082596260418093
  0
LINE
  5
224
330
2
100
AcDbEntity
  8
AM_VIS
100
AcDbLine
 10
643.8071731196795
 20
341.7875571316603
 30
0.0
 11
640.6588992350288
 21
342.0021932363407
 31
0.0
  0
ELLIPSE
  5
225
330
2
100
AcDbEntity
  8
AM_VIS
100
AcDbEllipse
 10
618.3071731196795
 20
389.3087775946126
 30
0.0
 11
-15.0
 21
0.0
 31
0.0
210
0.0
220
0.0
230
1.0
 40
0.0393613190450799
 41
4.712388980384689
 42
5.759586531581287
  0
LINE
  5
226
330
2
100
AcDbEntity
  8
AM_VIS
100
AcDbLine
 10
605.316792062913
 20
389.6039874874507
 30
0.0
 11
604.6050132271258
 21
389.5554613927383
 31
0.0
  0
LINE
  5
227
330
2
100
AcDbEntity
  8
AM_VIS
100
AcDbLine
 10
592.8071731196795
 20
388.7511341527704
 30
0.0
 11
604.6050132271257
 21
389.5554613927383
 31
0.0
  0
LINE
  5
228
330
2
100
AcDbEntity
  8
AM_VIS
100
AcDbLine
 10
592.8071731196795
 20
341.7875571316603
 30
0.0
 11
592.8071731196795
 21
388.7511341527704
 31
0.0
  0
LINE
  5
229
330
2
100
AcDbEntity
  8
AM_VIS
100
AcDbLine
 10
595.9554470043302
 20
342.0021932363407
 30
0.0
 11
592.8071731196795
 21
341.7875571316603
 31
0.0
  0
ELLIPSE
  5
22A
330
2
100
AcDbEntity
  8
AM_VIS
100
AcDbEllipse
 10
595.9554470043302
 20
346.9983184513524
 30
0.0
 11
-0.1702091396897821
 21
-4.999037188838014
 31
0.0
210
0.0
220
0.0
230
0.9999999999999998
 40
0.5764568091075004
 41
0.0589963931716993
 42
1.219640345747928
  0
LINE
  5
22B
330
2
100
AcDbEntity
  8
AM_VIS
100
AcDbLine
 10
592.8071731196795
 20
341.7875571316603
 30
0.0
 11
592.8071731196795
 21
341.6825062571323
 31
0.0
  0
LINE
  5
22C
330
2
100
AcDbEntity
  8
AM_VIS
100
AcDbLine
 10
643.8071731196795
 20
341.6825062571323
 30
0.0
 11
643.8071731196795
 21
341.7875571316603
 31
0.0
  0
ELLIPSE
  5
22D
330
2
100
AcDbEntity
  8
AM_VIS
100
AcDbEllipse
 10
618.3071731196795
 20
389.3152257020087
 30
0.0
 11
-15.0
 21
0.0
 31
0.0
210
0.0
220
0.0
230
1.0
 40
0.0393613190450799
 41
3.560639150154382
 42
5.864138810614999
  0
LINE
  5
22E
330
2
100
AcDbEntity
  8
AM_VIS
100
AcDbLine
 10
592.8071731196795
 20
250.9534016510551
 30
0.0
 11
592.8071731196795
 21
266.5438214367313
 31
0.0
  0
LINE
  5
22F
330
2
100
AcDbEntity
  8
AM_VIS
100
AcDbLine
 10
643.8071731196795
 20
266.5438214367313
 30
0.0
 11
643.8071731196795
 21
250.9534016510551
 31
0.0
  0
LINE
  5
230
330
2
100
AcDbEntity
  8
AM_VIS
100
AcDbLine
 10
592.8071731196795
 20
336.4895744468952
 30
0.0
 11
592.8071731196795
 21
266.5438214367313
 31
0.0
  0
LINE
  5
231
330
2
100
AcDbEntity
  8
AM_VIS
100
AcDbLine
 10
643.8071731196795
 20
336.4895744468952
 30
0.0
 11
643.8071731196795
 21
341.6825062571323
 31
0.0
  0
LINE
  5
232
330
2
100
AcDbEntity
  8
AM_VIS
100
AcDbLine
 10
643.8071731196795
 20
266.5438214367313
 30
0.0
 11
643.8071731196795
 21
336.4895744468952
 31
0.0
  0
LINE
  5
233
330
2
100
AcDbEntity
  8
AM_VIS
100
AcDbLine
 10
592.8071731196795
 20
341.6825062571323
 30
0.0
 11
592.8071731196795
 21
336.4895744468952
 31
0.0
  0
LINE
  5
234
330
2
100
AcDbEntity
  8
AM_VIS
100
AcDbLine
 10
612.3071731196795
 20
378.8022781007053
 30
0.0
 11
624.3071731196795
 21
378.8022781007053
 31
0.0
  0
ARC
  5
235
330
2
100
AcDbEntity
  8
AM_VIS
100
AcDbCircle
 10
618.3071731196795
 20
396.3098010030251
 30
0.0
 40
15.0
100
AcDbArc
 50
0.0
 51
180.0
  0
LINE
  5
236
330
2
100
AcDbEntity
  8
AM_VIS
100
AcDbLine
 10
633.3071731196795
 20
396.309801003025
 30
0.0
 11
633.3071731196795
 21
389.4669800993799
 31
0.0
  0
LINE
  5
237
330
2
100
AcDbEntity
  8
AM_VIS
100
AcDbLine
 10
603.3071731196795
 20
396.309801003025
 30
0.0
 11
603.3071731196795
 21
389.4669800993799
 31
0.0
  0
LINE
  5
238
330
2
100
AcDbEntity
  8
AM_VIS
100
AcDbLine
 10
602.3071731196795
 20
250.9534016510551
 30
0.0
 11
592.8071731196795
 21
250.9534016510551
 31
0.0
  0
LINE
  5
239
330
2
100
AcDbEntity
  8
AM_VIS
100
AcDbLine
 10
643.8071731196795
 20
250.9534016510551
 30
0.0
 11
634.3071731196795
 21
250.9534016510551
 31
0.0
  0
LINE
  5
23A
330
2
100
AcDbEntity
  8
AM_VIS
100
AcDbLine
 10
610.3071731196795
 20
321.5146260070749
 30
0.0
 11
610.3071731196795
 21
319.6883630546383
 31
0.0
  0
LINE
  5
23B
330
2
100
AcDbEntity
  8
AM_VIS
100
AcDbLine
 10
626.3071731196795
 20
321.5146260070743
 30
0.0
 11
626.3071731196795
 21
319.6883630546383
 31
0.0
  0
LINE
  5
23C
330
2
100
AcDbEntity
  8
AM_VIS
100
AcDbLine
 10
610.3071731196795
 20
276.8897849817779
 30
0.0
 11
610.3071731196795
 21
303.1455691238334
 31
0.0
  0
LINE
  5
23D
330
2
100
AcDbEntity
  8
AM_VIS
100
AcDbLine
 10
626.3071731196795
 20
276.8897849817779
 30
0.0
 11
626.3071731196795
 21
303.1455691238334
 31
0.0
  0
LINE
  5
23E
330
2
100
AcDbEntity
  8
AM_VIS
100
AcDbLine
 10
626.3071731196795
 20
273.0034016510558
 30
0.0
 11
624.3071731196793
 21
273.0034016510558
 31
0.0
  0
LINE
  5
23F
330
2
100
AcDbEntity
  8
AM_VIS
100
AcDbLine
 10
612.3071731196793
 20
273.0034016510558
 30
0.0
 11
610.3071731196795
 21
273.0034016510558
 31
0.0
  0
LINE
  5
240
330
2
100
AcDbEntity
  8
AM_VIS
100
AcDbLine
 10
602.3071731196795
 20
321.8456932217685
 30
0.0
 11
602.3071731196795
 21
327.5795623943489
 31
0.0
  0
LINE
  5
241
330
2
100
AcDbEntity
  8
AM_VIS
100
AcDbLine
 10
602.3071731196795
 20
341.5805838042107
 30
0.0
 11
602.3071731196795
 21
327.5795623943489
 31
0.0
  0
LINE
  5
242
330
2
100
AcDbEntity
  8
AM_VIS
100
AcDbLine
 10
634.3071731196795
 20
321.8456932217685
 30
0.0
 11
634.3071731196795
 21
327.579562394349
 31
0.0
  0
LINE
  5
243
330
2
100
AcDbEntity
  8
AM_VIS
100
AcDbLine
 10
634.3071731196795
 20
341.5805838042107
 30
0.0
 11
634.3071731196795
 21
327.579562394349
 31
0.0
  0
ELLIPSE
  5
244
330
2
100
AcDbEntity
  8
AM_VIS
100
AcDbEllipse
 10
618.3071731196792
 20
303.3017917235184
 30
0.0
 11
-6.0
 21
-0.0000000000000013
 31
0.0
210
0.0
220
0.0
230
1.0
 40
0.1246951652765545
 41
4.12670343692753
 42
5.298074523841846
  0
LINE
  5
245
330
2
100
AcDbEntity
  8
AM_VIS
100
AcDbLine
 10
621.6237979100347
 20
309.8784381477624
 30
0.0
 11
621.6237979100347
 21
303.9252675499012
 31
0.0
  0
LINE
  5
246
330
2
100
AcDbEntity
  8
AM_VIS
100
AcDbLine
 10
620.5984609671572
 20
309.8784381477624
 30
0.0
 11
621.6237979100347
 21
309.8784381477624
 31
0.0
  0
SPLINE
  5
247
330
2
100
AcDbEntity
  8
AM_VIS
100
AcDbSpline
210
0.0
220
0.0
230
1.0
 70
     8
 71
     3
 72
    10
 73
     6
 74
     0
 42
0.0000000001
 43
0.0000000001
 40
0.0
 40
0.0
 40
0.0
 40
0.0
 40
1.110902832752599
 40
1.110902832752599
 40
2.221805665505198
 40
2.221805665505198
 40
2.221805665505198
 40
2.221805665505198
 10
618.3071731196792
 20
310.3745356975843
 30
0.0
 10
618.6602412167848
 20
310.2637571786069
 30
0.0
 10
619.0481907833125
 20
310.1408489657039
 30
0.0
 10
619.832106733356
 20
309.9480154663608
 30
0.0
 10
620.2281600229063
 20
309.8784381477624
 30
0.0
 10
620.5984609671572
 20
309.8784381477624
 30
0.0
  0
SPLINE
  5
248
330
2
100
AcDbEntity
  8
AM_VIS
100
AcDbSpline
210
0.0
220
0.0
230
1.0
 70
     8
 71
     3
 72
    10
 73
     6
 74
     0
 42
0.0000000001
 43
0.0000000001
 40
4.564540839656428
 40
4.564540839656428
 40
4.564540839656428
 40
4.564540839656428
 40
5.675443672409028
 40
5.675443672409028
 40
6.786346505161628
 40
6.786346505161628
 40
6.786346505161628
 40
6.786346505161628
 10
616.0158852722013
 20
309.8784381477624
 30
0.0
 10
616.3861862164521
 20
309.8784381477624
 30
0.0
 10
616.7822395060024
 20
309.9480154663608
 30
0.0
 10
617.5661554560461
 20
310.1408489657039
 30
0.0
 10
617.9541050225737
 20
310.2637571786069
 30
0.0
 10
618.3071731196792
 20
310.3745356975843
 30
0.0
  0
LINE
  5
249
330
2
100
AcDbEntity
  8
AM_VIS
100
AcDbLine
 10
614.9905483293239
 20
309.8784381477624
 30
0.0
 11
616.0158852722014
 21
309.8784381477624
 31
0.0
  0
LINE
  5
24A
330
2
100
AcDbEntity
  8
AM_VIS
100
AcDbLine
 10
614.9905483293239
 20
303.9252675499012
 30
0.0
 11
614.9905483293239
 21
309.8784381477624
 31
0.0
  0
ELLIPSE
  5
24B
330
2
100
AcDbEntity
  8
AM_VIS
100
AcDbEllipse
 10
618.3071731196792
 20
309.2549623213797
 30
0.0
 11
-6.0
 21
-0.0000000000000013
 31
0.0
210
0.0
220
0.0
230
1.0
 40
0.1246951652765544
 41
3.141592653589794
 42
4.126703436927531
  0
ELLIPSE
  5
24C
330
2
100
AcDbEntity
  8
AM_VIS
100
AcDbEllipse
 10
618.3071731196792
 20
309.2549623213797
 30
0.0
 11
-6.0
 21
-0.0000000000000013
 31
0.0
210
0.0
220
0.0
230
1.0
 40
0.1246951652765544
 41
5.298074523841846
 42
6.283185307179586
  0
LINE
  5
24D
330
2
100
AcDbEntity
  8
AM_VIS
100
AcDbLine
 10
612.3071731196793
 20
143.2275283909562
 30
0.0
 11
612.3071731196793
 21
309.2549623213798
 31
0.0
  0
LINE
  5
24E
330
2
100
AcDbEntity
  8
AM_VIS
100
AcDbLine
 10
624.3071731196793
 20
143.2275283909562
 30
0.0
 11
624.3071731196793
 21
309.2549623213797
 31
0.0
  0
SPLINE
  5
24F
330
2
100
AcDbEntity
  8
AM_VIS
100
AcDbSpline
210
0.0
220
0.0
230
1.0
 70
     8
 71
     1
 72
     6
 73
     4
 74
     0
 42
0.0000000001
 43
0.0000000001
 40
3.141592653589793
 40
3.141592653589793
 40
3.154376865614348
 40
3.167161077638902
 40
3.1675634083727
 40
3.1675634083727
 10
623.3071731196793
 20
309.7510598712015
 30
0.0
 10
623.3093312008345
 20
309.7088300397783
 30
0.0
 10
623.3155705926816
 20
309.668138268146
 30
0.0
 10
623.3158749940969
 20
309.6669474840536
 30
0.0
  0
SPLINE
  5
250
330
2
100
AcDbEntity
  8
AM_VIS
100
AcDbSpline
210
0.0
220
0.0
230
1.0
 70
     8
 71
     1
 72
     6
 73
     4
 74
     0
 42
0.0000000001
 43
0.0000000001
 40
6.257214552396661
 40
6.257214552396661
 40
6.258674262755391
 40
6.270929784967488
 40
6.283185307179586
 40
6.283185307179586
 10
613.2983643226499
 20
309.6670512530752
 30
0.0
 10
613.2994330509339
 20
309.6714114539766
 30
0.0
 10
613.3051883468506
 20
309.7105560721414
 30
0.0
 10
613.3071731196793
 20
309.7510598712015
 30
0.0
  0
LINE
  5
251
330
2
100
AcDbEntity
  8
AM_VIS
100
AcDbLine
 10
623.3071731196793
 20
322.2788157069053
 30
0.0
 11
623.3071731196793
 21
309.7510598712015
 31
0.0
  0
LINE
  5
252
330
2
100
AcDbEntity
  8
AM_VIS
100
AcDbLine
 10
613.3071731196793
 20
322.2788157069027
 30
0.0
 11
613.3071731196793
 21
309.7510598712015
 31
0.0
  0
SPLINE
  5
253
330
2
100
AcDbEntity
  8
AM_VIS
100
AcDbSpline
210
0.0
220
0.0
230
1.0
 70
    12
 71
     2
 72
     6
 73
     3
 74
     0
 42
0.0000000001
 43
0.0000000001
 40
6.12747856521644
 40
6.12747856521644
 40
6.12747856521644
 40
12.57487745172843
 40
12.57487745172843
 40
12.57487745172843
 10
629.2768307915856
 20
322.5442186833802
 30
0.0
 41
1.24726503856845
 10
627.8977442816493
 20
321.8797248283822
 30
0.0
 41
1.337366386237155
 10
626.7026712916099
 20
321.5991204539737
 30
0.0
 41
1.343320083249175
  0
LINE
  5
254
330
2
100
AcDbEntity
  8
AM_VIS
100
AcDbLine
 10
629.2768307915856
 20
322.5442186833802
 30
0.0
 11
629.2768307915856
 21
328.7081442476158
 31
0.0
  0
SPLINE
  5
255
330
2
100
AcDbEntity
  8
AM_VIS
100
AcDbSpline
210
0.0
220
0.0
230
1.0
 70
    12
 71
     2
 72
     6
 73
     3
 74
     0
 42
0.0000000001
 43
0.0000000001
 40
6.127481352770829
 40
6.127481352770829
 40
6.127481352770829
 40
19.93462170228486
 40
19.93462170228486
 40
19.93462170228486
 10
623.7920032342842
 20
323.7288224135681
 30
0.0
 41
1.24726511647967
 10
626.5344168531036
 20
322.4074284090339
 30
0.0
 41
1.440217572580999
 10
629.2768307915856
 20
322.5442186833802
 30
0.0
 41
1.247265038568449
  0
SPLINE
  5
256
330
2
100
AcDbEntity
  8
AM_VIS
100
AcDbSpline
210
0.0
220
0.0
230
1.0
 70
    12
 71
     2
 72
     6
 73
     3
 74
     0
 42
0.0000000001
 43
0.0000000001
 40
6.127478565216442
 40
6.127478565216442
 40
6.127478565216442
 40
19.9346189147304
 40
19.9346189147304
 40
19.9346189147304
 10
629.2768307915856
 20
328.7081442476158
 30
0.0
 41
1.24726503856845
 10
626.5344168531036
 20
330.0295386611294
 30
0.0
 41
1.440217572580998
 10
623.7920032342842
 20
329.8927486576824
 30
0.0
 41
1.247265116479671
  0
LINE
  5
257
330
2
100
AcDbEntity
  8
AM_VIS
100
AcDbLine
 10
623.7920032342842
 20
323.7288224135681
 30
0.0
 11
623.7920032342842
 21
329.8927486576824
 31
0.0
  0
SPLINE
  5
258
330
2
100
AcDbEntity
  8
AM_VIS
100
AcDbSpline
210
0.0
220
0.0
230
1.0
 70
    12
 71
     2
 72
     6
 73
     3
 74
     0
 42
0.0000000001
 43
0.0000000001
 40
13.04984894672373
 40
13.04984894672373
 40
13.04984894672373
 40
19.48188764778955
 40
19.48188764778955
 40
19.48188764778955
 10
618.3071731196813
 20
323.3381026868729
 30
0.0
 41
1.0
 10
620.8526914756172
 20
323.3381026868728
 30
0.0
 41
1.078466188711203
 10
623.7920032342842
 20
323.7288224135681
 30
0.0
 41
1.079583196665444
  0
SPLINE
  5
259
330
2
100
AcDbEntity
  8
AM_VIS
100
AcDbSpline
210
0.0
220
0.0
230
1.0
 70
    12
 71
     2
 72
     6
 73
     3
 74
     0
 42
0.0000000001
 43
0.0000000001
 40
6.617810245657917
 40
6.617810245657917
 40
6.617810245657917
 40
13.04984894672373
 40
13.04984894672373
 40
13.04984894672373
 10
623.7920032342842
 20
329.8927486576823
 30
0.0
 41
1.079583196665445
 10
620.8526914756172
 20
330.2834683843776
 30
0.0
 41
1.078466188711203
 10
618.3071731196813
 20
330.2834683843776
 30
0.0
 41
1.0
  0
SPLINE
  5
25A
330
2
100
AcDbEntity
  8
AM_VIS
100
AcDbSpline
210
0.0
220
0.0
230
1.0
 70
    12
 71
     2
 72
     6
 73
     3
 74
     0
 42
0.0000000001
 43
0.0000000001
 40
13.04984894672373
 40
13.04984894672373
 40
13.04984894672373
 40
19.48188204589988
 40
19.48188204589988
 40
19.48188204589988
 10
618.3071731196813
 20
330.2834683843776
 30
0.0
 41
1.0
 10
615.7616568194261
 20
330.2834683843776
 30
0.0
 41
1.078466120372243
 10
612.8223481196813
 20
329.892749337561
 30
0.0
 41
1.079583194719717
  0
LINE
  5
25B
330
2
100
AcDbEntity
  8
AM_VIS
100
AcDbLine
 10
612.8223481196813
 20
323.7288217336894
 30
0.0
 11
612.8223481196813
 21
329.892749337561
 31
0.0
  0
SPLINE
  5
25C
330
2
100
AcDbEntity
  8
AM_VIS
100
AcDbSpline
210
0.0
220
0.0
230
1.0
 70
    12
 71
     2
 72
     6
 73
     3
 74
     0
 42
0.0000000001
 43
0.0000000001
 40
6.617815847547618
 40
6.617815847547618
 40
6.617815847547618
 40
13.04984894672373
 40
13.04984894672373
 40
13.04984894672373
 10
612.8223481196813
 20
323.7288217336894
 30
0.0
 41
1.079583194719703
 10
615.7616568194261
 20
323.3381026868729
 30
0.0
 41
1.078466120372228
 10
618.3071731196813
 20
323.3381026868729
 30
0.0
 41
1.0
  0
SPLINE
  5
25D
330
2
100
AcDbEntity
  8
AM_VIS
100
AcDbSpline
210
0.0
220
0.0
230
1.0
 70
    12
 71
     2
 72
     6
 73
     3
 74
     0
 42
0.0000000001
 43
0.0000000001
 40
0.0
 40
0.0
 40
0.0
 40
6.424690970355181
 40
6.424690970355181
 40
6.424690970355181
 10
610.0831771207033
 20
322.7465010220504
 30
0.0
 41
1.0
 10
611.3544308848773
 20
323.0215258799875
 30
0.0
 41
1.078316916438947
 10
612.8223481196813
 20
323.7288217336894
 30
0.0
 41
1.07948173344588
  0
SPLINE
  5
25E
330
2
100
AcDbEntity
  8
AM_VIS
100
AcDbSpline
210
0.0
220
0.0
230
1.0
 70
    12
 71
     2
 72
     6
 73
     3
 74
     0
 42
0.0000000001
 43
0.0000000001
 40
6.618686710241831
 40
6.618686710241831
 40
6.618686710241831
 40
13.043377680597
 40
13.043377680597
 40
13.043377680597
 10
612.8223481196813
 20
329.892749337561
 30
0.0
 41
1.079481733445879
 10
611.3544308848773
 20
329.9659684722441
 30
0.0
 41
1.078316916438945
 10
610.0831771207033
 20
329.6918667195551
 30
0.0
 41
1.0
  0
LINE
  5
25F
330
2
100
AcDbEntity
  8
AM_VIS
100
AcDbLine
 10
610.0831771207108
 20
329.6918667195567
 30
0.0
 11
610.0766902826996
 21
329.6904657029104
 31
0.0
  0
SPLINE
  5
260
330
2
100
AcDbEntity
  8
AM_VIS
100
AcDbSpline
210
0.0
220
0.0
230
1.0
 70
    12
 71
     2
 72
     6
 73
     3
 74
     0
 42
0.0000000001
 43
0.0000000001
 40
0.0
 40
0.0
 40
0.0
 40
6.424688169171937
 40
6.424688169171937
 40
6.424688169171937
 10
610.0766902827071
 20
329.690465702912
 30
0.0
 41
1.0
 10
608.8054370325474
 20
329.4154409561774
 30
0.0
 41
1.078316882292519
 10
607.3375205623799
 20
328.7081456073732
 30
0.0
 41
1.079481732430106
  0
LINE
  5
261
330
2
100
AcDbEntity
  8
AM_VIS
100
AcDbLine
 10
607.3375205623799
 20
322.5442173236227
 30
0.0
 11
607.3375205623799
 21
328.7081456073733
 31
0.0
  0
SPLINE
  5
262
330
2
100
AcDbEntity
  8
AM_VIS
100
AcDbSpline
210
0.0
220
0.0
230
1.0
 70
    12
 71
     2
 72
     6
 73
     3
 74
     0
 42
0.0000000001
 43
0.0000000001
 40
6.618689511425067
 40
6.618689511425067
 40
6.618689511425067
 40
13.043377680597
 40
13.043377680597
 40
13.043377680597
 10
607.3375205623799
 20
322.5442173236227
 30
0.0
 41
1.079481732430125
 10
608.8054370325474
 20
322.4709983635475
 30
0.0
 41
1.078316882292539
 10
610.0766902827071
 20
322.7451000054072
 30
0.0
 41
1.0
  0
LINE
  5
263
330
2
100
AcDbEntity
  8
AM_VIS
100
AcDbLine
 10
610.0766902826997
 20
322.7451000054056
 30
0.0
 11
610.083177120711
 21
322.746501022052
 31
0.0
  0
SPLINE
  5
264
330
2
100
AcDbEntity
  8
AM_VIS
100
AcDbSpline
210
0.0
220
0.0
230
1.0
 70
    12
 71
     2
 72
     6
 73
     3
 74
     0
 42
0.0000000001
 43
0.0000000001
 40
0.3883942477598782
 40
0.3883942477598782
 40
0.3883942477598782
 40
6.424688169162345
 40
6.424688169162345
 40
6.424688169162345
 10
609.9116788621538
 20
321.5991195348683
 30
0.0
 41
1.009187082851739
 10
608.7166064293171
 20
321.879723778445
 30
0.0
 41
1.078387301444393
 10
607.3375205623799
 20
322.5442173236227
 30
0.0
 41
1.079481732430007
  0
LINE
  5
265
330
2
100
AcDbEntity
  8
AM_VIS
100
AcDbLine
 10
610.0831771207135
 20
321.5604962114386
 30
0.0
 11
610.0766902826968
 21
321.5618972280862
 31
0.0
  0
ELLIPSE
  5
266
330
2
100
AcDbEntity
  8
AM_VIS
100
AcDbEllipse
 10
618.3071731196813
 20
322.1534986167456
 30
0.0
 11
-9.5
 21
-0.0000000000000041
 31
0.0
210
0.0
220
0.0
230
1.0
 40
0.1246951652765542
 41
0.5242816007057507
 42
1.016534492342317
  0
ELLIPSE
  5
267
330
2
100
AcDbEntity
  8
AM_VIS
100
AcDbEllipse
 10
618.3071731196813
 20
322.1534986167456
 30
0.0
 11
-9.5
 21
-0.0000000000000041
 31
0.0
210
0.0
220
0.0
230
1.0
 40
0.1246951652765542
 41
5.760269356688163
 42
6.806101257670428
  0
ELLIPSE
  5
268
330
2
100
AcDbEntity
  8
AM_VIS
100
AcDbEllipse
 10
618.3071731196813
 20
322.1534986167456
 30
0.0
 11
-9.5
 21
-0.0000000000000041
 31
0.0
210
0.0
220
0.0
230
1.0
 40
0.1246951652765542
 41
4.712388980384687
 42
5.758903706474407
  0
ELLIPSE
  5
269
330
2
100
AcDbEntity
  8
AM_VIS
100
AcDbEllipse
 10
618.3071731196813
 20
322.1534986167456
 30
0.0
 11
-9.5
 21
-0.0000000000000041
 31
0.0
210
0.0
220
0.0
230
1.0
 40
0.1246951652765542
 41
2.125058161246969
 42
4.712388980384687
  0
ELLIPSE
  5
26A
330
2
100
AcDbEntity
  8
AM_VIS
100
AcDbEllipse
 10
618.3071731196813
 20
322.1534986167456
 30
0.0
 11
-5.099999999999999
 21
-0.0000000000000022
 31
0.0
210
0.0
220
0.0
230
1.0
 40
0.1246951652765542
 41
2.943238131428939
 42
3.141592653589792
  0
ELLIPSE
  5
26B
330
2
100
AcDbEntity
  8
AM_VIS
100
AcDbEllipse
 10
618.3071731196813
 20
322.1534986167456
 30
0.0
 11
-5.099999999999999
 21
-0.0000000000000022
 31
0.0
210
0.0
220
0.0
230
1.0
 40
0.1246951652765542
 41
3.141592653589794
 42
6.481539829336365
  0
ELLIPSE
  5
26C
330
2
100
AcDbEntity
  8
AM_VIS
100
AcDbEllipse
 10
618.3071731196813
 20
329.0988643142503
 30
0.0
 11
-9.5
 21
-0.0000000000000041
 31
0.0
210
0.0
220
0.0
230
1.0
 40
0.1246951652765542
 41
5.760269356688163
 42
5.794993807492091
  0
ELLIPSE
  5
26D
330
2
100
AcDbEntity
  8
AM_VIS
100
AcDbEllipse
 10
618.3071731196813
 20
329.0988643142503
 30
0.0
 11
-9.5
 21
-0.0000000000000041
 31
0.0
210
0.0
220
0.0
230
1.0
 40
0.1246951652765542
 41
3.629784153277287
 42
4.712388980384687
  0
ELLIPSE
  5
26E
330
2
100
AcDbEntity
  8
AM_VIS
100
AcDbEllipse
 10
618.3071731196813
 20
329.0988643142503
 30
0.0
 11
-9.5
 21
-0.0000000000000041
 31
0.0
210
0.0
220
0.0
230
1.0
 40
0.1246951652765542
 41
4.712388980384687
 42
5.758903706474407
  0
LINE
  5
26F
330
2
100
AcDbEntity
  8
AM_VIS
100
AcDbLine
 10
609.916938967821
 20
321.5978844566159
 30
0.0
 11
609.9116788621538
 21
321.5991195348683
 31
0.0
  0
LINE
  5
270
330
2
100
AcDbEntity
  8
AM_VIS
100
AcDbLine
 10
609.916938967821
 20
329.6544784743799
 30
0.0
 11
609.9116788621538
 21
329.6532433961275
 31
0.0
  0
LINE
  5
271
330
2
100
AcDbEntity
  8
AM_VIS
100
AcDbLine
 10
626.6974072715417
 20
329.6544784743799
 30
0.0
 11
626.7026712916098
 21
329.6532424770221
 31
0.0
  0
LINE
  5
272
330
2
100
AcDbEntity
  8
AM_VIS
100
AcDbLine
 10
626.6974072715417
 20
321.5978844566159
 30
0.0
 11
626.7026712916098
 21
321.5991204539737
 31
0.0
  0
LINE
  5
273
330
2
100
AcDbEntity
  8
AM_VIS
100
AcDbLine
 10
611.3071731196818
 20
376.9789856502622
 30
0.0
 11
611.3071731196818
 21
379.5814854533632
 31
0.0
  0
LINE
  5
274
330
2
100
AcDbEntity
  8
AM_VIS
100
AcDbLine
 10
611.3071731196818
 20
353.1663032588173
 30
0.0
 11
611.3071731196818
 21
376.9789856502622
 31
0.0
  0
LINE
  5
275
330
2
100
AcDbEntity
  8
AM_VIS
100
AcDbLine
 10
611.3071731196818
 20
379.5814854533632
 30
0.0
 11
605.8071731196818
 21
379.5814854533632
 31
0.0
  0
LINE
  5
276
330
2
100
AcDbEntity
  8
AM_VIS
100
AcDbLine
 10
605.8071731196818
 20
379.5814854533631
 30
0.0
 11
605.8071731196818
 21
376.9789856502622
 31
0.0
  0
LINE
  5
277
330
2
100
AcDbEntity
  8
AM_VIS
100
AcDbLine
 10
605.8071731196818
 20
376.9789856502622
 30
0.0
 11
611.3071731196818
 21
376.9789856502622
 31
0.0
  0
LINE
  5
278
330
2
100
AcDbEntity
  8
AM_VIS
100
AcDbLine
 10
630.8071731196818
 20
376.9789856502622
 30
0.0
 11
630.8071731196818
 21
379.5814854533632
 31
0.0
  0
LINE
  5
279
330
2
100
AcDbEntity
  8
AM_VIS
100
AcDbLine
 10
630.8071731196818
 20
379.5814854533632
 30
0.0
 11
625.3071731196818
 21
379.5814854533632
 31
0.0
  0
LINE
  5
27A
330
2
100
AcDbEntity
  8
AM_VIS
100
AcDbLine
 10
625.3071731196818
 20
379.5814854533632
 30
0.0
 11
625.3071731196818
 21
376.9789856502622
 31
0.0
  0
LINE
  5
27B
330
2
100
AcDbEntity
  8
AM_VIS
100
AcDbLine
 10
625.3071731196818
 20
376.9789856502622
 30
0.0
 11
630.8071731196818
 21
376.9789856502622
 31
0.0
  0
LINE
  5
27C
330
2
100
AcDbEntity
  8
AM_VIS
100
AcDbLine
 10
625.3071731196818
 20
376.9789856502622
 30
0.0
 11
625.3071731196818
 21
353.1663032588173
 31
0.0
  0
LINE
  5
27D
330
2
100
AcDbEntity
  8
AM_VIS
100
AcDbLine
 10
625.3071731196818
 20
353.1663032588173
 30
0.0
 11
611.3071731196818
 21
353.1663032588173
 31
0.0
  0
LINE
  5
27E
330
2
100
AcDbEntity
  8
AM_VIS
100
AcDbLine
 10
605.8071731196818
 20
330.3458159670159
 30
0.0
 11
605.8071731196818
 21
376.9789856502622
 31
0.0
  0
LINE
  5
27F
330
2
100
AcDbEntity
  8
AM_VIS
100
AcDbLine
 10
630.8071731196818
 20
330.3458159670159
 30
0.0
 11
605.8071731196818
 21
330.3458159670159
 31
0.0
  0
LINE
  5
280
330
2
100
AcDbEntity
  8
AM_VIS
100
AcDbLine
 10
630.8071731196818
 20
330.3458159670159
 30
0.0
 11
630.8071731196818
 21
376.9789856502622
 31
0.0
  0
LINE
  5
281
330
2
100
AcDbEntity
  8
AM_VIS
100
AcDbLine
 10
605.8071731196818
 20
330.3458159670159
 30
0.0
 11
605.8071731196818
 21
327.8519126614848
 31
0.0
  0
LINE
  5
282
330
2
100
AcDbEntity
  8
AM_VIS
100
AcDbLine
 10
605.8071731196818
 20
327.8519126614848
 30
0.0
 11
607.3375205623799
 21
327.8519126614848
 31
0.0
  0
LINE
  5
283
330
2
100
AcDbEntity
  8
AM_VIS
100
AcDbLine
 10
629.2768307915856
 20
327.8519126614848
 30
0.0
 11
630.8071731196816
 21
327.8519126614848
 31
0.0
  0
LINE
  5
284
330
2
100
AcDbEntity
  8
AM_VIS
100
AcDbLine
 10
630.8071731196818
 20
327.8519126614849
 30
0.0
 11
630.8071731196818
 21
330.345815967016
 31
0.0
  0
SPLINE
  5
285
330
2
100
AcDbEntity
  8
AM_VIS
100
AcDbSpline
210
0.0
220
0.0
230
1.0
 70
    12
 71
     2
 72
     6
 73
     3
 74
     0
 42
0.0000000001
 43
0.0000000001
 40
6.12747856521644
 40
6.12747856521644
 40
6.12747856521644
 40
19.93461891473044
 40
19.93461891473044
 40
19.93461891473044
 10
644.2009667060164
 20
265.9534016510556
 30
0.0
 41
1.24726503856845
 10
643.4661391058884
 20
261.2034013742197
 30
0.0
 41
1.440217572580998
 10
644.2009663634031
 20
256.4534016510557
 30
0.0
 41
1.24726511647967
  0
LINE
  5
286
330
2
100
AcDbEntity
  8
AM_VIS
100
AcDbLine
 10
644.2009663634031
 20
256.4534016510557
 30
0.0
 11
650.413379875956
 21
256.4534016510557
 31
0.0
  0
SPLINE
  5
287
330
2
100
AcDbEntity
  8
AM_VIS
100
AcDbSpline
210
0.0
220
0.0
230
1.0
 70
    12
 71
     2
 72
     6
 73
     3
 74
     0
 42
0.0000000001
 43
0.0000000001
 40
6.127481352770836
 40
6.127481352770836
 40
6.127481352770836
 40
19.93462170228476
 40
19.93462170228476
 40
19.93462170228476
 10
650.413379875956
 20
256.4534016510557
 30
0.0
 41
1.24726511647967
 10
651.1482071334707
 20
261.2034013742197
 30
0.0
 41
1.440217572580997
 10
650.4133795333425
 20
265.9534016510556
 30
0.0
 41
1.247265038568452
  0
LINE
  5
288
330
2
100
AcDbEntity
  8
AM_VIS
100
AcDbLine
 10
644.2009667060164
 20
265.9534016510556
 30
0.0
 11
650.4133795333425
 21
265.9534016510556
 31
0.0
  0
SPLINE
  5
289
330
2
100
AcDbEntity
  8
AM_VIS
100
AcDbSpline
210
0.0
220
0.0
230
1.0
 70
    28
 71
     2
 72
     6
 73
     3
 74
     0
 42
0.0000000001
 43
0.0000000001
 40
6.617810245657909
 40
6.617810245657909
 40
6.617810245657909
 40
13.04984894672373
 40
13.04984894672373
 40
13.04984894672373
 10
644.2009663634031
 20
256.4534016510557
 30
0.0
 41
1.079583196665445
 10
643.8071731196795
 20
256.4534016510557
 30
0.0
 41
1.078466188711204
 10
643.8071731196795
 20
256.4534016510557
 30
0.0
 41
1.0
  0
SPLINE
  5
28A
330
2
100
AcDbEntity
  8
AM_VIS
100
AcDbSpline
210
0.0
220
0.0
230
1.0
 70
    28
 71
     2
 72
     6
 73
     3
 74
     0
 42
0.0000000001
 43
0.0000000001
 40
13.04984894672373
 40
13.04984894672373
 40
13.04984894672373
 40
19.48188764778955
 40
19.48188764778955
 40
19.48188764778955
 10
650.8071731196795
 20
256.4534016510557
 30
0.0
 41
1.0
 10
650.8071731196795
 20
256.4534016510557
 30
0.0
 41
1.078466188711203
 10
650.413379875956
 20
256.4534016510557
 30
0.0
 41
1.079583196665444
  0
SPLINE
  5
28B
330
2
100
AcDbEntity
  8
AM_VIS
100
AcDbSpline
210
0.0
220
0.0
230
1.0
 70
    12
 71
     2
 72
     6
 73
     3
 74
     0
 42
0.0000000001
 43
0.0000000001
 40
6.127481352770829
 40
6.127481352770829
 40
6.127481352770829
 40
19.93462170228486
 40
19.93462170228486
 40
19.93462170228486
 10
644.2009663634031
 20
275.4534016510556
 30
0.0
 41
1.24726511647967
 10
643.4661391058884
 20
270.7034019278915
 30
0.0
 41
1.440217572580999
 10
644.2009667060164
 20
265.9534016510556
 30
0.0
 41
1.247265038568449
  0
SPLINE
  5
28C
330
2
100
AcDbEntity
  8
AM_VIS
100
AcDbSpline
210
0.0
220
0.0
230
1.0
 70
    12
 71
     2
 72
     6
 73
     3
 74
     0
 42
0.0000000001
 43
0.0000000001
 40
6.127478565216442
 40
6.127478565216442
 40
6.127478565216442
 40
19.9346189147304
 40
19.9346189147304
 40
19.9346189147304
 10
650.4133795333425
 20
265.9534016510556
 30
0.0
 41
1.24726503856845
 10
651.1482071334707
 20
270.7034019278915
 30
0.0
 41
1.440217572580998
 10
650.413379875956
 20
275.4534016510556
 30
0.0
 41
1.247265116479671
  0
LINE
  5
28D
330
2
100
AcDbEntity
  8
AM_VIS
100
AcDbLine
 10
644.2009663634031
 20
275.4534016510556
 30
0.0
 11
650.413379875956
 21
275.4534016510556
 31
0.0
  0
SPLINE
  5
28E
330
2
100
AcDbEntity
  8
AM_VIS
100
AcDbSpline
210
0.0
220
0.0
230
1.0
 70
    28
 71
     2
 72
     6
 73
     3
 74
     0
 42
0.0000000001
 43
0.0000000001
 40
13.04984894672373
 40
13.04984894672373
 40
13.04984894672373
 40
19.48188764778955
 40
19.48188764778955
 40
19.48188764778955
 10
643.8071731196795
 20
275.4534016510556
 30
0.0
 41
1.0
 10
643.8071731196795
 20
275.4534016510556
 30
0.0
 41
1.078466188711203
 10
644.2009663634031
 20
275.4534016510556
 30
0.0
 41
1.079583196665444
  0
SPLINE
  5
28F
330
2
100
AcDbEntity
  8
AM_VIS
100
AcDbSpline
210
0.0
220
0.0
230
1.0
 70
    28
 71
     2
 72
     6
 73
     3
 74
     0
 42
0.0000000001
 43
0.0000000001
 40
6.617810245657917
 40
6.617810245657917
 40
6.617810245657917
 40
13.04984894672373
 40
13.04984894672373
 40
13.04984894672373
 10
650.413379875956
 20
275.4534016510556
 30
0.0
 41
1.079583196665445
 10
650.8071731196795
 20
275.4534016510556
 30
0.0
 41
1.078466188711203
 10
650.8071731196795
 20
275.4534016510556
 30
0.0
 41
1.0
  0
LINE
  5
290
330
2
100
AcDbEntity
  8
AM_VIS
100
AcDbLine
 10
650.8071731196795
 20
275.4534016510556
 30
0.0
 11
650.8071731196795
 21
256.4534016510557
 31
0.0
  0
LINE
  5
291
330
2
100
AcDbEntity
  8
AM_VIS
100
AcDbLine
 10
589.3071731196796
 20
258.4534016510544
 30
0.0
 11
589.3071731196796
 21
273.4534016510544
 31
0.0
  0
LINE
  5
292
330
2
100
AcDbEntity
  8
AM_VIS
100
AcDbLine
 10
589.8071731196796
 20
273.9534016510544
 30
0.0
 11
589.8071731196796
 21
257.9534016510544
 31
0.0
  0
LINE
  5
293
330
2
100
AcDbEntity
  8
AM_VIS
100
AcDbLine
 10
652.4571731196796
 20
259.6284016510544
 30
0.0
 11
652.4571731196796
 21
272.2784016510544
 31
0.0
  0
LINE
  5
294
330
2
100
AcDbEntity
  8
AM_VIS
100
AcDbLine
 10
653.4571731196796
 20
271.2784016510544
 30
0.0
 11
653.4571731196796
 21
260.6284016510544
 31
0.0
  0
LINE
  5
295
330
2
100
AcDbEntity
  8
AM_VIS
100
AcDbLine
 10
589.3071731196796
 20
273.4534016510544
 30
0.0
 11
589.8071731196796
 21
273.9534016510544
 31
0.0
  0
LINE
  5
296
330
2
100
AcDbEntity
  8
AM_VIS
100
AcDbLine
 10
589.3071731196796
 20
258.4534016510544
 30
0.0
 11
589.8071731196796
 21
257.9534016510544
 31
0.0
  0
LINE
  5
297
330
2
100
AcDbEntity
  8
AM_VIS
100
AcDbLine
 10
589.8071731196796
 20
273.9534016510544
 30
0.0
 11
592.8071731196796
 21
273.9534016510544
 31
0.0
  0
LINE
  5
298
330
2
100
AcDbEntity
  8
AM_VIS
100
AcDbLine
 10
589.8071731196796
 20
257.9534016510544
 30
0.0
 11
592.8071731196796
 21
257.9534016510544
 31
0.0
  0
LINE
  5
299
330
2
100
AcDbEntity
  8
AM_VIS
100
AcDbLine
 10
653.4571731196796
 20
260.6284016510544
 30
0.0
 11
652.4571731196796
 21
259.6284016510544
 31
0.0
  0
LINE
  5
29A
330
2
100
AcDbEntity
  8
AM_VIS
100
AcDbLine
 10
653.4571731196796
 20
271.2784016510544
 30
0.0
 11
652.4571731196796
 21
272.2784016510544
 31
0.0
  0
LINE
  5
29B
330
2
100
AcDbEntity
  8
AM_VIS
100
AcDbLine
 10
650.8071731196795
 20
272.2784016510544
 30
0.0
 11
652.4571731196795
 21
272.2784016510544
 31
0.0
  0
LINE
  5
29C
330
2
100
AcDbEntity
  8
AM_VIS
100
AcDbLine
 10
650.8071731196795
 20
259.6284016510544
 30
0.0
 11
652.4571731196795
 21
259.6284016510544
 31
0.0
  0
LINE
  5
29D
330
2
100
AcDbEntity
  8
AM_VIS
100
AcDbLine
 10
610.3071731196795
 20
272.2784016510544
 30
0.0
 11
610.4571731196795
 21
272.2784016510544
 31
0.0
  0
LINE
  5
29E
330
2
100
AcDbEntity
  8
AM_VIS
100
AcDbLine
 10
610.3071731196795
 20
259.6284016510544
 30
0.0
 11
610.4571731196795
 21
259.6284016510544
 31
0.0
  0
SPLINE
  5
29F
330
2
100
AcDbEntity
  8
AM_VIS
100
AcDbSpline
210
0.0
220
0.0
230
1.0
 70
    28
 71
     2
 72
     6
 73
     3
 74
     0
 42
0.0000000001
 43
0.0000000001
 40
0.0
 40
0.0
 40
0.0
 40
4.489288544457886
 40
4.489288544457886
 40
4.489288544457886
 10
575.5681017013887
 20
130.3520969238606
 30
0.0
 41
1.0
 10
574.962198558935
 20
130.3520969238606
 30
0.0
 41
1.015279817641361
 10
574.7971731196795
 20
130.3520969238606
 30
0.0
 41
1.0
  0
LINE
  5
2A0
330
2
100
AcDbEntity
  8
AM_VIS
100
AcDbLine
 10
575.5681017013887
 20
131.0937029096207
 30
0.0
 11
575.5681017013887
 21
130.3520969238606
 31
0.0
  0
SPLINE
  5
2A1
330
2
100
AcDbEntity
  8
AM_VIS
100
AcDbSpline
210
0.0
220
0.0
230
1.0
 70
    12
 71
     2
 72
     6
 73
     3
 74
     0
 42
0.0000000001
 43
0.0000000001
 40
0.0
 40
0.0
 40
0.0
 40
4.489317750108253
 40
4.489317750108253
 40
4.489317750108253
 10
574.7971731196795
 20
134.9199348096293
 30
0.0
 41
1.0
 10
574.9621956110171
 20
133.1067542526324
 30
0.0
 41
1.015280026684792
 10
575.5681017013887
 20
131.0937029096207
 30
0.0
 41
1.0
  0
LINE
  5
2A2
330
2
100
AcDbEntity
  8
AM_VIS
100
AcDbLine
 10
574.7971731196795
 20
134.9199348096291
 30
0.0
 11
574.7971731196795
 21
130.3520969238606
 31
0.0
  0
SPLINE
  5
2A3
330
2
100
AcDbEntity
  8
AM_VIS
100
AcDbSpline
210
0.0
220
0.0
230
1.0
 70
    12
 71
     2
 72
     6
 73
     3
 74
     0
 42
0.0000000001
 43
0.0000000001
 40
0.0
 40
0.0
 40
0.0
 40
4.489317750108252
 40
4.489317750108252
 40
4.489317750108252
 10
575.5681017013887
 20
141.6104797480822
 30
0.0
 41
1.0
 10
574.9621956110171
 20
139.5974284050705
 30
0.0
 41
1.015280026685218
 10
574.7971731196795
 20
137.7842478480736
 30
0.0
 41
1.0
  0
LINE
  5
2A4
330
2
100
AcDbEntity
  8
AM_VIS
100
AcDbLine
 10
575.5681017013887
 20
143.0936781623857
 30
0.0
 11
575.5681017013887
 21
141.6104797480822
 31
0.0
  0
SPLINE
  5
2A5
330
2
100
AcDbEntity
  8
AM_VIS
100
AcDbSpline
210
0.0
220
0.0
230
1.0
 70
    12
 71
     2
 72
     6
 73
     3
 74
     0
 42
0.0000000001
 43
0.0000000001
 40
0.0
 40
0.0
 40
0.0
 40
4.489259339835413
 40
4.489259339835413
 40
4.489259339835413
 10
574.7971731196795
 20
146.9198588957914
 30
0.0
 41
1.0
 10
574.9622015067301
 20
145.1067025857016
 30
0.0
 41
1.015279608607052
 10
575.5681017013887
 20
143.0936781623856
 30
0.0
 41
1.0
  0
LINE
  5
2A6
330
2
100
AcDbEntity
  8
AM_VIS
100
AcDbLine
 10
574.7971731196795
 20
146.9198588957913
 30
0.0
 11
574.7971731196795
 21
137.7842478480737
 31
0.0
  0
SPLINE
  5
2A7
330
2
100
AcDbEntity
  8
AM_VIS
100
AcDbSpline
210
0.0
220
0.0
230
1.0
 70
    12
 71
     2
 72
     6
 73
     3
 74
     0
 42
0.0000000001
 43
0.0000000001
 40
0.0
 40
0.0
 40
0.0
 40
4.489259339835388
 40
4.489259339835388
 40
4.489259339835388
 10
575.5681017013887
 20
153.6104933053069
 30
0.0
 41
1.0
 10
574.9622015067301
 20
151.5974688819908
 30
0.0
 41
1.01527960860693
 10
574.7971731196795
 20
149.784312571901
 30
0.0
 41
1.0
  0
LINE
  5
2A8
330
2
100
AcDbEntity
  8
AM_VIS
100
AcDbLine
 10
575.5681017013887
 20
154.3520969238606
 30
0.0
 11
575.5681017013887
 21
153.6104933053068
 31
0.0
  0
SPLINE
  5
2A9
330
2
100
AcDbEntity
  8
AM_VIS
100
AcDbSpline
210
0.0
220
0.0
230
1.0
 70
    28
 71
     2
 72
     6
 73
     3
 74
     0
 42
0.0000000001
 43
0.0000000001
 40
0.0
 40
0.0
 40
0.0
 40
4.489346956745006
 40
4.489346956745006
 40
4.489346956745006
 10
574.7971731196795
 20
154.3520969238606
 30
0.0
 41
1.0
 10
574.9621926629807
 20
154.3520969238606
 30
0.0
 41
1.01528023573722
 10
575.5681017013887
 20
154.3520969238606
 30
0.0
 41
1.0
  0
LINE
  5
2AA
330
2
100
AcDbEntity
  8
AM_VIS
100
AcDbLine
 10
574.7971731196795
 20
154.3520969238606
 30
0.0
 11
574.7971731196795
 21
149.7843125719011
 31
0.0
  0
LINE
  5
2AB
330
2
100
AcDbEntity
  8
AM_VIS
100
AcDbLine
 10
578.9681017013887
 20
130.3520969238606
 30
0.0
 11
575.5681017013887
 21
130.3520969238606
 31
0.0
  0
LINE
  5
2AC
330
2
100
AcDbEntity
  8
AM_VIS
100
AcDbLine
 10
578.9681017013887
 20
131.0937029096207
 30
0.0
 11
578.9681017013887
 21
130.3520969238606
 31
0.0
  0
LINE
  5
2AD
330
2
100
AcDbEntity
  8
AM_VIS
100
AcDbLine
 10
575.5681017013887
 20
131.0937029096207
 30
0.0
 11
578.9681017013887
 21
131.0937029096207
 31
0.0
  0
LINE
  5
2AE
330
2
100
AcDbEntity
  8
AM_VIS
100
AcDbLine
 10
578.9681017013887
 20
141.6104797480822
 30
0.0
 11
575.5681017013887
 21
141.6104797480822
 31
0.0
  0
LINE
  5
2AF
330
2
100
AcDbEntity
  8
AM_VIS
100
AcDbLine
 10
578.9681017013887
 20
143.0936781623857
 30
0.0
 11
578.9681017013887
 21
141.6104797480822
 31
0.0
  0
LINE
  5
2B0
330
2
100
AcDbEntity
  8
AM_VIS
100
AcDbLine
 10
575.5681017013887
 20
143.0936781623857
 30
0.0
 11
578.9681017013887
 21
143.0936781623857
 31
0.0
  0
SPLINE
  5
2B1
330
2
100
AcDbEntity
  8
AM_VIS
100
AcDbSpline
210
0.0
220
0.0
230
1.0
 70
    28
 71
     2
 72
     6
 73
     3
 74
     0
 42
0.0000000001
 43
0.0000000001
 40
0.0
 40
0.0
 40
0.0
 40
5.59061555148098
 40
5.59061555148098
 40
5.59061555148098
 10
579.7971731196795
 20
130.3520969238606
 30
0.0
 41
1.0
 10
579.7280264343506
 20
130.3520969238606
 30
0.0
 41
1.024357497129432
 10
578.9681017013887
 20
130.3520969238606
 30
0.0
 41
1.0
  0
SPLINE
  5
2B2
330
2
100
AcDbEntity
  8
AM_VIS
100
AcDbSpline
210
0.0
220
0.0
230
1.0
 70
    12
 71
     2
 72
     6
 73
     3
 74
     0
 42
0.0000000001
 43
0.0000000001
 40
0.0
 40
0.0
 40
0.0
 40
5.590725438793462
 40
5.590725438793462
 40
5.590725438793462
 10
578.9681017013887
 20
131.0937029096207
 30
0.0
 41
1.0
 10
579.7280402614443
 20
133.6185089203808
 30
0.0
 41
1.024358508160214
 10
579.7971731196795
 20
135.8737271027932
 30
0.0
 41
1.0
  0
SPLINE
  5
2B3
330
2
100
AcDbEntity
  8
AM_VIS
100
AcDbSpline
210
0.0
220
0.0
230
1.0
 70
    12
 71
     2
 72
     6
 73
     3
 74
     0
 42
0.0000000001
 43
0.0000000001
 40
0.0
 40
0.0
 40
0.0
 40
5.590725438793505
 40
5.590725438793505
 40
5.590725438793505
 10
579.7971731196795
 20
136.8304555549097
 30
0.0
 41
1.0
 10
579.7280402614443
 20
139.0856737373221
 30
0.0
 41
1.02435850816068
 10
578.9681017013887
 20
141.6104797480822
 30
0.0
 41
1.0
  0
SPLINE
  5
2B4
330
2
100
AcDbEntity
  8
AM_VIS
100
AcDbSpline
210
0.0
220
0.0
230
1.0
 70
    12
 71
     2
 72
     6
 73
     3
 74
     0
 42
0.0000000001
 43
0.0000000001
 40
0.0
 40
0.0
 40
0.0
 40
5.590505691017647
 40
5.590505691017647
 40
5.590505691017647
 10
578.9681017013887
 20
143.0936781623857
 30
0.0
 41
1.0
 10
579.7280126109025
 20
145.6183831119485
 30
0.0
 41
1.024356486367967
 10
579.7971731196795
 20
147.8735110240399
 30
0.0
 41
1.0
  0
LINE
  5
2B5
330
2
100
AcDbEntity
  8
AM_VIS
100
AcDbLine
 10
578.9681017013887
 20
153.6104933053068
 30
0.0
 11
575.5681017013887
 21
153.6104933053068
 31
0.0
  0
LINE
  5
2B6
330
2
100
AcDbEntity
  8
AM_VIS
100
AcDbLine
 10
578.9681017013887
 20
154.3520969238606
 30
0.0
 11
578.9681017013887
 21
153.6104933053068
 31
0.0
  0
LINE
  5
2B7
330
2
100
AcDbEntity
  8
AM_VIS
100
AcDbLine
 10
575.5681017013887
 20
154.3520969238606
 30
0.0
 11
578.9681017013887
 21
154.3520969238606
 31
0.0
  0
SPLINE
  5
2B8
330
2
100
AcDbEntity
  8
AM_VIS
100
AcDbSpline
210
0.0
220
0.0
230
1.0
 70
    12
 71
     2
 72
     6
 73
     3
 74
     0
 42
0.0000000001
 43
0.0000000001
 40
0.0
 40
0.0
 40
0.0
 40
5.590505691017647
 40
5.590505691017647
 40
5.590505691017647
 10
579.7971731196795
 20
148.8306604436525
 30
0.0
 41
1.0
 10
579.7280126109025
 20
151.0857883557439
 30
0.0
 41
1.024356486368036
 10
578.9681017013887
 20
153.6104933053068
 30
0.0
 41
1.0
  0
SPLINE
  5
2B9
330
2
100
AcDbEntity
  8
AM_VIS
100
AcDbSpline
210
0.0
220
0.0
230
1.0
 70
    28
 71
     2
 72
     6
 73
     3
 74
     0
 42
0.0000000001
 43
0.0000000001
 40
0.0
 40
0.0
 40
0.0
 40
5.590835352818166
 40
5.590835352818166
 40
5.590835352818166
 10
578.9681017013887
 20
154.3520969238606
 30
0.0
 41
1.0
 10
579.7280540921662
 20
154.3520969238606
 30
0.0
 41
1.02435951945957
 10
579.7971731196795
 20
154.3520969238606
 30
0.0
 41
1.0
  0
LINE
  5
2BA
330
2
100
AcDbEntity
  8
AM_VIS
100
AcDbLine
 10
574.7971731196795
 20
134.9199348096292
 30
0.0
 11
574.7971731196795
 21
137.7842478480737
 31
0.0
  0
LINE
  5
2BB
330
2
100
AcDbEntity
  8
AM_VIS
100
AcDbLine
 10
574.7971731196795
 20
146.9198588957913
 30
0.0
 11
574.7971731196795
 21
149.7843125719011
 31
0.0
  0
LINE
  5
2BC
330
2
100
AcDbEntity
  8
AM_VIS
100
AcDbLine
 10
588.0571731196782
 20
136.3520913288514
 30
0.0
 11
587.5571731196795
 21
136.3520913288514
 31
0.0
  0
LINE
  5
2BD
330
2
100
AcDbEntity
  8
AM_VIS
100
AcDbLine
 10
588.0571731196782
 20
148.3520913288514
 30
0.0
 11
587.5571731196795
 21
148.3520913288514
 31
0.0
  0
SPLINE
  5
2BE
330
2
100
AcDbEntity
  8
AM_VIS
100
AcDbSpline
210
0.0
220
0.0
230
1.0
 70
    28
 71
     2
 72
     6
 73
     3
 74
     0
 42
0.0000000001
 43
0.0000000001
 40
0.0
 40
0.0
 40
0.0
 40
4.489288544457886
 40
4.489288544457886
 40
4.489288544457886
 10
661.1262445379704
 20
154.3520857338423
 30
0.0
 41
1.0
 10
661.7321476804241
 20
154.3520857338423
 30
0.0
 41
1.015279817641361
 10
661.8971731196795
 20
154.3520857338423
 30
0.0
 41
1.0
  0
LINE
  5
2BF
330
2
100
AcDbEntity
  8
AM_VIS
100
AcDbLine
 10
661.1262445379704
 20
153.6104797480822
 30
0.0
 11
661.1262445379704
 21
154.3520857338422
 31
0.0
  0
SPLINE
  5
2C0
330
2
100
AcDbEntity
  8
AM_VIS
100
AcDbSpline
210
0.0
220
0.0
230
1.0
 70
    12
 71
     2
 72
     6
 73
     3
 74
     0
 42
0.0000000001
 43
0.0000000001
 40
0.0
 40
0.0
 40
0.0
 40
4.489317750108253
 40
4.489317750108253
 40
4.489317750108253
 10
661.8971731196795
 20
149.7842478480736
 30
0.0
 41
1.0
 10
661.732150628342
 20
151.5974284050704
 30
0.0
 41
1.015280026684792
 10
661.1262445379704
 20
153.6104797480822
 30
0.0
 41
1.0
  0
LINE
  5
2C1
330
2
100
AcDbEntity
  8
AM_VIS
100
AcDbLine
 10
661.8971731196795
 20
149.7842478480738
 30
0.0
 11
661.8971731196795
 21
154.3520857338423
 31
0.0
  0
SPLINE
  5
2C2
330
2
100
AcDbEntity
  8
AM_VIS
100
AcDbSpline
210
0.0
220
0.0
230
1.0
 70
    12
 71
     2
 72
     6
 73
     3
 74
     0
 42
0.0000000001
 43
0.0000000001
 40
0.0
 40
0.0
 40
0.0
 40
4.489317750108252
 40
4.489317750108252
 40
4.489317750108252
 10
661.1262445379704
 20
143.0937029096207
 30
0.0
 41
1.0
 10
661.732150628342
 20
145.1067542526324
 30
0.0
 41
1.015280026685218
 10
661.8971731196795
 20
146.9199348096293
 30
0.0
 41
1.0
  0
LINE
  5
2C3
330
2
100
AcDbEntity
  8
AM_VIS
100
AcDbLine
 10
661.1262445379704
 20
141.6105044953172
 30
0.0
 11
661.1262445379704
 21
143.0937029096207
 31
0.0
  0
SPLINE
  5
2C4
330
2
100
AcDbEntity
  8
AM_VIS
100
AcDbSpline
210
0.0
220
0.0
230
1.0
 70
    12
 71
     2
 72
     6
 73
     3
 74
     0
 42
0.0000000001
 43
0.0000000001
 40
0.0
 40
0.0
 40
0.0
 40
4.489259339835413
 40
4.489259339835413
 40
4.489259339835413
 10
661.8971731196795
 20
137.7843237619115
 30
0.0
 41
1.0
 10
661.732144732629
 20
139.5974800720013
 30
0.0
 41
1.015279608607052
 10
661.1262445379704
 20
141.6105044953173
 30
0.0
 41
1.0
  0
LINE
  5
2C5
330
2
100
AcDbEntity
  8
AM_VIS
100
AcDbLine
 10
661.8971731196795
 20
137.7843237619115
 30
0.0
 11
661.8971731196795
 21
146.9199348096292
 31
0.0
  0
SPLINE
  5
2C6
330
2
100
AcDbEntity
  8
AM_VIS
100
AcDbSpline
210
0.0
220
0.0
230
1.0
 70
    12
 71
     2
 72
     6
 73
     3
 74
     0
 42
0.0000000001
 43
0.0000000001
 40
0.0
 40
0.0
 40
0.0
 40
4.489259339835388
 40
4.489259339835388
 40
4.489259339835388
 10
661.1262445379704
 20
131.093689352396
 30
0.0
 41
1.0
 10
661.7321447326291
 20
133.1067137757121
 30
0.0
 41
1.01527960860693
 10
661.8971731196795
 20
134.9198700858019
 30
0.0
 41
1.0
  0
LINE
  5
2C7
330
2
100
AcDbEntity
  8
AM_VIS
100
AcDbLine
 10
661.1262445379704
 20
130.3520857338422
 30
0.0
 11
661.1262445379704
 21
131.0936893523961
 31
0.0
  0
SPLINE
  5
2C8
330
2
100
AcDbEntity
  8
AM_VIS
100
AcDbSpline
210
0.0
220
0.0
230
1.0
 70
    28
 71
     2
 72
     6
 73
     3
 74
     0
 42
0.0000000001
 43
0.0000000001
 40
0.0
 40
0.0
 40
0.0
 40
4.489346956745006
 40
4.489346956745006
 40
4.489346956745006
 10
661.8971731196795
 20
130.3520857338422
 30
0.0
 41
1.0
 10
661.7321535763784
 20
130.3520857338422
 30
0.0
 41
1.01528023573722
 10
661.1262445379704
 20
130.3520857338422
 30
0.0
 41
1.0
  0
LINE
  5
2C9
330
2
100
AcDbEntity
  8
AM_VIS
100
AcDbLine
 10
661.8971731196795
 20
130.3520857338422
 30
0.0
 11
661.8971731196795
 21
134.9198700858017
 31
0.0
  0
LINE
  5
2CA
330
2
100
AcDbEntity
  8
AM_VIS
100
AcDbLine
 10
657.7262445379704
 20
154.3520857338423
 30
0.0
 11
661.1262445379704
 21
154.3520857338423
 31
0.0
  0
LINE
  5
2CB
330
2
100
AcDbEntity
  8
AM_VIS
100
AcDbLine
 10
657.7262445379704
 20
153.6104797480822
 30
0.0
 11
657.7262445379704
 21
154.3520857338422
 31
0.0
  0
LINE
  5
2CC
330
2
100
AcDbEntity
  8
AM_VIS
100
AcDbLine
 10
661.1262445379704
 20
153.6104797480822
 30
0.0
 11
657.7262445379704
 21
153.6104797480822
 31
0.0
  0
LINE
  5
2CD
330
2
100
AcDbEntity
  8
AM_VIS
100
AcDbLine
 10
657.7262445379704
 20
143.0937029096207
 30
0.0
 11
661.1262445379704
 21
143.0937029096207
 31
0.0
  0
LINE
  5
2CE
330
2
100
AcDbEntity
  8
AM_VIS
100
AcDbLine
 10
657.7262445379704
 20
141.6105044953172
 30
0.0
 11
657.7262445379704
 21
143.0937029096207
 31
0.0
  0
LINE
  5
2CF
330
2
100
AcDbEntity
  8
AM_VIS
100
AcDbLine
 10
661.1262445379704
 20
141.6105044953172
 30
0.0
 11
657.7262445379704
 21
141.6105044953172
 31
0.0
  0
SPLINE
  5
2D0
330
2
100
AcDbEntity
  8
AM_VIS
100
AcDbSpline
210
0.0
220
0.0
230
1.0
 70
    28
 71
     2
 72
     6
 73
     3
 74
     0
 42
0.0000000001
 43
0.0000000001
 40
0.0
 40
0.0
 40
0.0
 40
5.59061555148098
 40
5.59061555148098
 40
5.59061555148098
 10
656.8971731196795
 20
154.3520857338423
 30
0.0
 41
1.0
 10
656.9663198050085
 20
154.3520857338423
 30
0.0
 41
1.024357497129432
 10
657.7262445379704
 20
154.3520857338423
 30
0.0
 41
1.0
  0
SPLINE
  5
2D1
330
2
100
AcDbEntity
  8
AM_VIS
100
AcDbSpline
210
0.0
220
0.0
230
1.0
 70
    12
 71
     2
 72
     6
 73
     3
 74
     0
 42
0.0000000001
 43
0.0000000001
 40
0.0
 40
0.0
 40
0.0
 40
5.590725438793462
 40
5.590725438793462
 40
5.590725438793462
 10
657.7262445379704
 20
153.6104797480822
 30
0.0
 41
1.0
 10
656.9663059779148
 20
151.0856737373221
 30
0.0
 41
1.024358508160214
 10
656.8971731196795
 20
148.8304555549097
 30
0.0
 41
1.0
  0
SPLINE
  5
2D2
330
2
100
AcDbEntity
  8
AM_VIS
100
AcDbSpline
210
0.0
220
0.0
230
1.0
 70
    12
 71
     2
 72
     6
 73
     3
 74
     0
 42
0.0000000001
 43
0.0000000001
 40
0.0
 40
0.0
 40
0.0
 40
5.590725438793505
 40
5.590725438793505
 40
5.590725438793505
 10
656.8971731196795
 20
147.8737271027932
 30
0.0
 41
1.0
 10
656.9663059779148
 20
145.6185089203807
 30
0.0
 41
1.02435850816068
 10
657.7262445379704
 20
143.0937029096207
 30
0.0
 41
1.0
  0
SPLINE
  5
2D3
330
2
100
AcDbEntity
  8
AM_VIS
100
AcDbSpline
210
0.0
220
0.0
230
1.0
 70
    12
 71
     2
 72
     6
 73
     3
 74
     0
 42
0.0000000001
 43
0.0000000001
 40
0.0
 40
0.0
 40
0.0
 40
5.590505691017647
 40
5.590505691017647
 40
5.590505691017647
 10
657.7262445379704
 20
141.6105044953172
 30
0.0
 41
1.0
 10
656.9663336284565
 20
139.0857995457543
 30
0.0
 41
1.024356486367967
 10
656.8971731196795
 20
136.830671633663
 30
0.0
 41
1.0
  0
LINE
  5
2D4
330
2
100
AcDbEntity
  8
AM_VIS
100
AcDbLine
 10
657.7262445379704
 20
131.0936893523961
 30
0.0
 11
661.1262445379704
 21
131.0936893523961
 31
0.0
  0
LINE
  5
2D5
330
2
100
AcDbEntity
  8
AM_VIS
100
AcDbLine
 10
657.7262445379704
 20
130.3520857338422
 30
0.0
 11
657.7262445379704
 21
131.0936893523961
 31
0.0
  0
LINE
  5
2D6
330
2
100
AcDbEntity
  8
AM_VIS
100
AcDbLine
 10
661.1262445379704
 20
130.3520857338422
 30
0.0
 11
657.7262445379704
 21
130.3520857338422
 31
0.0
  0
SPLINE
  5
2D7
330
2
100
AcDbEntity
  8
AM_VIS
100
AcDbSpline
210
0.0
220
0.0
230
1.0
 70
    12
 71
     2
 72
     6
 73
     3
 74
     0
 42
0.0000000001
 43
0.0000000001
 40
0.0
 40
0.0
 40
0.0
 40
5.590505691017647
 40
5.590505691017647
 40
5.590505691017647
 10
656.8971731196795
 20
135.8735222140503
 30
0.0
 41
1.0
 10
656.9663336284565
 20
133.618394301959
 30
0.0
 41
1.024356486368036
 10
657.7262445379703
 20
131.0936893523961
 30
0.0
 41
1.0
  0
SPLINE
  5
2D8
330
2
100
AcDbEntity
  8
AM_VIS
100
AcDbSpline
210
0.0
220
0.0
230
1.0
 70
    28
 71
     2
 72
     6
 73
     3
 74
     0
 42
0.0000000001
 43
0.0000000001
 40
0.0
 40
0.0
 40
0.0
 40
5.590835352818166
 40
5.590835352818166
 40
5.590835352818166
 10
657.7262445379704
 20
130.3520857338422
 30
0.0
 41
1.0
 10
656.9662921471928
 20
130.3520857338422
 30
0.0
 41
1.02435951945957
 10
656.8971731196795
 20
130.3520857338422
 30
0.0
 41
1.0
  0
LINE
  5
2D9
330
2
100
AcDbEntity
  8
AM_VIS
100
AcDbLine
 10
661.8971731196795
 20
149.7842478480737
 30
0.0
 11
661.8971731196795
 21
146.9199348096292
 31
0.0
  0
LINE
  5
2DA
330
2
100
AcDbEntity
  8
AM_VIS
100
AcDbLine
 10
661.8971731196795
 20
137.7843237619115
 30
0.0
 11
661.8971731196795
 21
134.9198700858017
 31
0.0
  0
LINE
  5
2DB
330
2
100
AcDbEntity
  8
AM_VIS
100
AcDbLine
 10
648.5571731196785
 20
148.3520913288514
 30
0.0
 11
649.0571731196796
 21
148.3520913288514
 31
0.0
  0
LINE
  5
2DC
330
2
100
AcDbEntity
  8
AM_VIS
100
AcDbLine
 10
648.5571731196785
 20
136.3520913288514
 30
0.0
 11
649.0571731196796
 21
136.3520913288514
 31
0.0
  0
LINE
  5
2DD
330
2
100
AcDbEntity
  8
AM_VIS
100
AcDbLine
 10
656.8971731196795
 20
155.8520913288514
 30
0.0
 11
656.8971731196795
 21
142.3520913288514
 31
0.0
  0
LINE
  5
2DE
330
2
100
AcDbEntity
  8
AM_VIS
100
AcDbLine
 10
656.8971731196795
 20
142.3520913288514
 30
0.0
 11
656.8971731196795
 21
128.8520913288514
 31
0.0
  0
LINE
  5
2DF
330
2
100
AcDbEntity
  8
AM_VIS
100
AcDbLine
 10
656.8971731196795
 20
128.8520913288514
 30
0.0
 11
655.3971731196796
 21
128.8520913288514
 31
0.0
  0
LINE
  5
2E0
330
2
100
AcDbEntity
  8
AM_VIS
100
AcDbLine
 10
656.8971731196795
 20
155.8520913288514
 30
0.0
 11
655.3971731196796
 21
155.8520913288514
 31
0.0
  0
LINE
  5
2E1
330
2
100
AcDbEntity
  8
AM_VIS
100
AcDbLine
 10
579.7971731196795
 20
128.8520913288514
 30
0.0
 11
579.7971731196795
 21
142.3520913288514
 31
0.0
  0
LINE
  5
2E2
330
2
100
AcDbEntity
  8
AM_VIS
100
AcDbLine
 10
579.7971731196795
 20
142.3520913288514
 30
0.0
 11
579.7971731196795
 21
155.8520913288514
 31
0.0
  0
LINE
  5
2E3
330
2
100
AcDbEntity
  8
AM_VIS
100
AcDbLine
 10
581.2971731196795
 20
128.8520913288514
 30
0.0
 11
579.7971731196795
 21
128.8520913288514
 31
0.0
  0
LINE
  5
2E4
330
2
100
AcDbEntity
  8
AM_VIS
100
AcDbLine
 10
581.2971731196795
 20
155.8520913288514
 30
0.0
 11
579.7971731196795
 21
155.8520913288514
 31
0.0
  0
LINE
  5
2E5
330
2
100
AcDbEntity
  8
AM_VIS
100
AcDbLine
 10
625.3071731196796
 20
361.3753129841518
 30
0.0
 11
624.3071731196796
 21
361.3753129841518
 31
0.0
  0
LINE
  5
2E6
330
2
100
AcDbEntity
  8
AM_VIS
100
AcDbLine
 10
612.3071731196795
 20
361.3753129841518
 30
0.0
 11
611.3071731196795
 21
361.3753129841518
 31
0.0
  0
LINE
  5
2E7
330
2
100
AcDbEntity
  8
AM_VIS
100
AcDbLine
 10
625.3071731196796
 20
373.3753129841518
 30
0.0
 11
624.3071731196796
 21
373.3753129841518
 31
0.0
  0
LINE
  5
2E8
330
2
100
AcDbEntity
  8
AM_VIS
100
AcDbLine
 10
612.3071731196795
 20
373.3753129841518
 30
0.0
 11
611.3071731196795
 21
373.3753129841518
 31
0.0
  0
LINE
  5
2E9
330
2
100
AcDbEntity
  8
AM_VIS
100
AcDbLine
 10
639.2071731196796
 20
371.2753129841518
 30
0.0
 11
639.2071731196796
 21
367.3753129841518
 31
0.0
  0
LINE
  5
2EA
330
2
100
AcDbEntity
  8
AM_VIS
100
AcDbLine
 10
639.2071731196796
 20
367.3753129841518
 30
0.0
 11
639.2071731196796
 21
363.4753129841518
 31
0.0
  0
LINE
  5
2EB
330
2
100
AcDbEntity
  8
AM_VIS
100
AcDbLine
 10
601.2071731196796
 20
362.3753129841518
 30
0.0
 11
601.2071731196796
 21
367.3753129841518
 31
0.0
  0
LINE
  5
2EC
330
2
100
AcDbEntity
  8
AM_VIS
100
AcDbLine
 10
601.2071731196796
 20
367.3753129841518
 30
0.0
 11
601.2071731196796
 21
372.3753129841518
 31
0.0
  0
LINE
  5
2ED
330
2
100
AcDbEntity
  8
AM_VIS
100
AcDbLine
 10
636.4071731196795
 20
371.2753129841518
 30
0.0
 11
639.2071731196795
 21
371.2753129841518
 31
0.0
  0
LINE
  5
2EE
330
2
100
AcDbEntity
  8
AM_VIS
100
AcDbLine
 10
636.4071731196795
 20
363.4753129841518
 30
0.0
 11
639.2071731196795
 21
363.4753129841518
 31
0.0
  0
LINE
  5
2EF
330
2
100
AcDbEntity
  8
AM_VIS
100
AcDbLine
 10
604.2071731196796
 20
362.3753129841518
 30
0.0
 11
601.2071731196796
 21
362.3753129841518
 31
0.0
  0
LINE
  5
2F0
330
2
100
AcDbEntity
  8
AM_VIS
100
AcDbLine
 10
604.2071731196796
 20
372.3753129841518
 30
0.0
 11
601.2071731196796
 21
372.3753129841518
 31
0.0
  0
LINE
  5
2F1
330
2
100
AcDbEntity
  8
AM_VIS
100
AcDbLine
 10
632.4071731196795
 20
375.8753129841518
 30
0.0
 11
632.4071731196795
 21
367.3753129841518
 31
0.0
  0
LINE
  5
2F2
330
2
100
AcDbEntity
  8
AM_VIS
100
AcDbLine
 10
632.4071731196795
 20
367.3753129841518
 30
0.0
 11
632.4071731196795
 21
358.8753129841518
 31
0.0
  0
LINE
  5
2F3
330
2
100
AcDbEntity
  8
AM_VIS
100
AcDbLine
 10
630.8071731196796
 20
375.8753129841518
 30
0.0
 11
632.4071731196796
 21
375.8753129841518
 31
0.0
  0
LINE
  5
2F4
330
2
100
AcDbEntity
  8
AM_VIS
100
AcDbLine
 10
630.8071731196796
 20
358.8753129841518
 30
0.0
 11
632.4071731196796
 21
358.8753129841518
 31
0.0
  0
LINE
  5
2F5
330
2
100
AcDbEntity
  8
AM_VIS
100
AcDbLine
 10
604.2071731196796
 20
358.8753129841518
 30
0.0
 11
604.2071731196796
 21
367.3753129841518
 31
0.0
  0
LINE
  5
2F6
330
2
100
AcDbEntity
  8
AM_VIS
100
AcDbLine
 10
604.2071731196796
 20
367.3753129841518
 30
0.0
 11
604.2071731196796
 21
375.8753129841518
 31
0.0
  0
LINE
  5
2F7
330
2
100
AcDbEntity
  8
AM_VIS
100
AcDbLine
 10
605.8071731196796
 20
358.8753129841518
 30
0.0
 11
604.2071731196796
 21
358.8753129841518
 31
0.0
  0
LINE
  5
2F8
330
2
100
AcDbEntity
  8
AM_VIS
100
AcDbLine
 10
605.8071731196796
 20
375.8753129841518
 30
0.0
 11
604.2071731196796
 21
375.8753129841518
 31
0.0
  0
SPLINE
  5
2F9
330
2
100
AcDbEntity
  8
AM_VIS
100
AcDbSpline
210
0.0
220
0.0
230
1.0
 70
    12
 71
     2
 72
     6
 73
     3
 74
     0
 42
0.0000000001
 43
0.0000000001
 40
3.513108976624989
 40
3.513108976624989
 40
3.513108976624989
 40
10.94354183627146
 40
10.94354183627146
 40
10.94354183627146
 10
632.6144329019622
 20
367.3753129841518
 30
0.0
 41
1.27461320283873
 10
632.2276815334737
 20
364.8753128384487
 30
0.0
 41
1.471796511733411
 10
632.6144327216393
 20
362.3753129841518
 30
0.0
 41
1.274613282458267
  0
LINE
  5
2FA
330
2
100
AcDbEntity
  8
AM_VIS
100
AcDbLine
 10
632.6144327216393
 20
362.3753129841518
 30
0.0
 11
636.1999135177198
 21
362.3753129841518
 31
0.0
  0
SPLINE
  5
2FB
330
2
100
AcDbEntity
  8
AM_VIS
100
AcDbSpline
210
0.0
220
0.0
230
1.0
 70
    12
 71
     2
 72
     6
 73
     3
 74
     0
 42
0.0000000001
 43
0.0000000001
 40
3.513110476771645
 40
3.513110476771645
 40
3.513110476771645
 40
10.94354333641804
 40
10.94354333641804
 40
10.94354333641804
 10
636.1999135177198
 20
362.3753129841518
 30
0.0
 41
1.27461328245827
 10
636.5866647058854
 20
364.8753128384487
 30
0.0
 41
1.471796511733409
 10
636.199913337397
 20
367.3753129841518
 30
0.0
 41
1.274613202838732
  0
LINE
  5
2FC
330
2
100
AcDbEntity
  8
AM_VIS
100
AcDbLine
 10
632.6144329019622
 20
367.3753129841518
 30
0.0
 11
636.199913337397
 21
367.3753129841518
 31
0.0
  0
SPLINE
  5
2FD
330
2
100
AcDbEntity
  8
AM_VIS
100
AcDbSpline
210
0.0
220
0.0
230
1.0
 70
    28
 71
     2
 72
     6
 73
     3
 74
     0
 42
0.0000000001
 43
0.0000000001
 40
3.805110778761538
 40
3.805110778761538
 40
3.805110778761538
 40
7.239048164719875
 40
7.239048164719875
 40
7.239048164719875
 10
632.6144327216393
 20
362.3753129841518
 30
0.0
 41
1.08569328537088
 10
632.4071731196795
 20
362.3753129841518
 30
0.0
 41
1.081513766124148
 10
632.4071731196795
 20
362.3753129841518
 30
0.0
 41
1.0
  0
SPLINE
  5
2FE
330
2
100
AcDbEntity
  8
AM_VIS
100
AcDbSpline
210
0.0
220
0.0
230
1.0
 70
    28
 71
     2
 72
     6
 73
     3
 74
     0
 42
0.0000000001
 43
0.0000000001
 40
7.239048164719878
 40
7.239048164719878
 40
7.239048164719878
 40
10.67298555067823
 40
10.67298555067823
 40
10.67298555067823
 10
636.4071731196795
 20
362.3753129841518
 30
0.0
 41
1.0
 10
636.4071731196795
 20
362.3753129841518
 30
0.0
 41
1.081513766124174
 10
636.1999135177198
 20
362.3753129841518
 30
0.0
 41
1.085693285370906
  0
SPLINE
  5
2FF
330
2
100
AcDbEntity
  8
AM_VIS
100
AcDbSpline
210
0.0
220
0.0
230
1.0
 70
    12
 71
     2
 72
     6
 73
     3
 74
     0
 42
0.0000000001
 43
0.0000000001
 40
3.513110476771637
 40
3.513110476771637
 40
3.513110476771637
 40
10.9435433364181
 40
10.9435433364181
 40
10.9435433364181
 10
632.6144327216393
 20
372.3753129841518
 30
0.0
 41
1.27461328245827
 10
632.2276815334737
 20
369.8753131298549
 30
0.0
 41
1.471796511733411
 10
632.6144329019622
 20
367.3753129841518
 30
0.0
 41
1.274613202838729
  0
SPLINE
  5
300
330
2
100
AcDbEntity
  8
AM_VIS
100
AcDbSpline
210
0.0
220
0.0
230
1.0
 70
    12
 71
     2
 72
     6
 73
     3
 74
     0
 42
0.0000000001
 43
0.0000000001
 40
3.513108976624988
 40
3.513108976624988
 40
3.513108976624988
 40
10.94354183627143
 40
10.94354183627143
 40
10.94354183627143
 10
636.199913337397
 20
367.3753129841518
 30
0.0
 41
1.27461320283873
 10
636.5866647058854
 20
369.8753131298549
 30
0.0
 41
1.47179651173341
 10
636.1999135177198
 20
372.3753129841518
 30
0.0
 41
1.274613282458269
  0
LINE
  5
301
330
2
100
AcDbEntity
  8
AM_VIS
100
AcDbLine
 10
632.6144327216393
 20
372.3753129841518
 30
0.0
 11
636.1999135177198
 21
372.3753129841518
 31
0.0
  0
SPLINE
  5
302
330
2
100
AcDbEntity
  8
AM_VIS
100
AcDbSpline
210
0.0
220
0.0
230
1.0
 70
    28
 71
     2
 72
     6
 73
     3
 74
     0
 42
0.0000000001
 43
0.0000000001
 40
7.239048164719878
 40
7.239048164719878
 40
7.239048164719878
 40
10.67298555067821
 40
10.67298555067821
 40
10.67298555067821
 10
632.4071731196795
 20
372.3753129841518
 30
0.0
 41
1.0
 10
632.4071731196795
 20
372.3753129841518
 30
0.0
 41
1.081513766124147
 10
632.6144327216393
 20
372.3753129841518
 30
0.0
 41
1.085693285370879
  0
SPLINE
  5
303
330
2
100
AcDbEntity
  8
AM_VIS
100
AcDbSpline
210
0.0
220
0.0
230
1.0
 70
    28
 71
     2
 72
     6
 73
     3
 74
     0
 42
0.0000000001
 43
0.0000000001
 40
3.80511077876152
 40
3.80511077876152
 40
3.80511077876152
 40
7.239048164719878
 40
7.239048164719878
 40
7.239048164719878
 10
636.1999135177198
 20
372.3753129841518
 30
0.0
 41
1.085693285370907
 10
636.4071731196795
 20
372.3753129841518
 30
0.0
 41
1.081513766124174
 10
636.4071731196795
 20
372.3753129841518
 30
0.0
 41
1.0
  0
LINE
  5
304
330
2
100
AcDbEntity
  8
AM_VIS
100
AcDbLine
 10
636.4071731196795
 20
372.3753129841518
 30
0.0
 11
636.4071731196795
 21
362.3753129841518
 31
0.0
  0
ELLIPSE
  5
305
330
2
100
AcDbEntity
  8
AM_VIS
100
AcDbEllipse
 10
595.0571731196796
 20
118.4619862311558
 30
0.0
 11
-11.75
 21
0.0000000000000019
 31
0.0
210
0.0
220
0.0
230
1.0
 40
0.1246951652765544
 41
4.712388980384689
 42
6.283185307179586
  0
LINE
  5
306
330
2
100
AcDbEntity
  8
AM_VIS
100
AcDbLine
 10
583.3071731196796
 20
118.4619862311558
 30
0.0
 11
583.3071731196796
 21
88.72730703316877
 31
0.0
  0
LINE
  5
307
330
2
100
AcDbEntity
  8
AM_VIS
100
AcDbLine
 10
641.5571731196796
 20
90.16130143384916
 30
0.0
 11
595.0571731196796
 21
90.16130143384916
 31
0.0
  0
LINE
  5
308
330
2
100
AcDbEntity
  8
AM_VIS
100
AcDbLine
 10
641.5571731196796
 20
119.9271544231553
 30
0.0
 11
595.0571731196796
 21
119.9271544231553
 31
0.0
  0
ELLIPSE
  5
309
330
2
100
AcDbEntity
  8
AM_VIS
100
AcDbEllipse
 10
641.5571731196796
 20
118.4619862311558
 30
0.0
 11
-11.75
 21
0.0000000000000019
 31
0.0
210
0.0
220
0.0
230
1.0
 40
0.1246951652765544
 41
3.141592653589794
 42
4.712388980384689
  0
LINE
  5
30A
330
2
100
AcDbEntity
  8
AM_VIS
100
AcDbLine
 10
653.3071731196796
 20
88.72730703316877
 30
0.0
 11
653.3071731196796
 21
118.4619862311558
 31
0.0
  0
SPLINE
  5
30B
330
2
100
AcDbEntity
  8
AM_VIS
100
AcDbSpline
210
0.0
220
0.0
230
1.0
 70
     8
 71
     1
 72
   146
 73
   144
 74
     0
 42
0.0000000001
 43
0.0000000001
 40
3.446314366438828
 40
3.446314366438828
 40
3.459766285855108
 40
3.474017836213501
 40
3.488269386571894
 40
3.502520936930288
 40
3.516772487288681
 40
3.531024037647075
 40
3.545275588005468
 40
3.559527138363862
 40
3.573778688722255
 40
3.588030239080648
 40
3.609550643283875
 40
3.631071047487101
 40
3.652591451690327
 40
3.674111855893553
 40
3.695632260096779
 40
3.717152664300004
 40
3.738673068503231
 40
3.760193472706457
 40
3.781713876909684
 40
3.803234281112909
 40
3.824754685316135
 40
3.846275089519362
 40
3.867795493722588
 40
3.889315897925814
 40
3.91083630212904
 40
3.932356706332266
 40
3.953877110535492
 40
3.975397514738718
 40
3.996917918941944
 40
4.01843832314517
 40
4.036065898328323
 40
4.053693473511476
 40
4.071321048694628
 40
4.088948623877782
 40
4.106576199060935
 40
4.124203774244088
 40
4.14183134942724
 40
4.159458924610394
 40
4.177086499793547
 40
4.194714074976699
 40
4.212341650159852
 40
4.229969225343006
 40
4.247596800526158
 40
4.265224375709311
 40
4.282851950892464
 40
4.300479526075617
 40
4.318107101258769
 40
4.335734676441922
 40
4.353362251625076
 40
4.370555674788747
 40
4.387749097952416
 40
4.404942521116086
 40
4.422135944279757
 40
4.439329367443427
 40
4.456522790607097
 40
4.473716213770767
 40
4.490909636934437
 40
4.508103060098108
 40
4.525296483261779
 40
4.542489906425449
 40
4.55968332958912
 40
4.57687675275279
 40
4.59407017591646
 40
4.61126359908013
 40
4.6284570222438
 40
4.645650445407471
 40
4.662843868571141
 40
4.680037291734811
 40
4.697138398287427
 40
4.714239504840042
 40
4.731340611392656
 40
4.748441717945272
 40
4.765542824497886
 40
4.782643931050502
 40
4.799745037603116
 40
4.816846144155732
 40
4.833947250708347
 40
4.851048357260962
 40
4.868149463813577
 40
4.885250570366192
 40
4.902351676918807
 40
4.919452783471422
 40
4.936553890024038
 40
4.953654996576653
 40
4.970756103129268
 40
4.987857209681883
 40
5.004958316234498
 40
5.022117739816589
 40
5.039277163398678
 40
5.056436586980767
 40
5.073596010562857
 40
5.090755434144947
 40
5.107914857727037
 40
5.125074281309126
 40
5.142233704891216
 40
5.159393128473308
 40
5.176552552055396
 40
5.193711975637487
 40
5.210871399219576
 40
5.228030822801666
 40
5.245190246383756
 40
5.262349669965846
 40
5.279509093547936
 40
5.296668517130026
 40
5.313827940712116
 40
5.330987364294205
 40
5.348457192230492
 40
5.365927020166777
 40
5.383396848103064
 40
5.400866676039351
 40
5.418336503975637
 40
5.435806331911923
 40
5.45327615984821
 40
5.470745987784496
 40
5.488215815720782
 40
5.505685643657068
 40
5.523155471593355
 40
5.540625299529641
 40
5.558095127465927
 40
5.575564955402214
 40
5.5930347833385
 40
5.610504611274786
 40
5.627974439211073
 40
5.645444267147358
 40
5.662914095083645
 40
5.680942754254059
 40
5.698971413424471
 40
5.717000072594885
 40
5.735028731765298
 40
5.753057390935711
 40
5.771086050106124
 40
5.789114709276538
 40
5.807143368446952
 40
5.825172027617364
 40
5.843200686787778
 40
5.861229345958191
 40
5.879258005128604
 40
5.897286664299017
 40
5.915315323469431
 40
5.933343982639844
 40
5.951372641810257
 40
5.969401300980671
 40
5.978463594330648
 40
5.978463594330648
 10
634.3071485473366
 20
141.8332675921602
 30
0.0
 10
634.2122439180475
 20
141.8700839040322
 30
0.0
 10
634.1106480258491
 20
141.9076491744734
 30
0.0
 10
634.0078303627574
 20
141.9439488823746
 30
0.0
 10
633.9036391143211
 20
141.9791283644788
 30
0.0
 10
633.7979406306966
 20
142.0133094513657
 30
0.0
 10
633.6906175410364
 20
142.0465946017914
 30
0.0
 10
633.5815670209089
 20
142.0790702446628
 30
0.0
 10
633.470699224546
 20
142.1108094902169
 30
0.0
 10
633.3579358807228
 20
142.1418743378348
 30
0.0
 10
633.2432090438434
 20
142.1723174810105
 30
0.0
 10
633.066118054309
 20
142.2172072130429
 30
0.0
 10
632.8842504361958
 20
142.2609071013615
 30
0.0
 10
632.6974750839967
 20
142.3035172888157
 30
0.0
 10
632.5056918976047
 20
142.3451167769094
 30
0.0
 10
632.3088273083893
 20
142.3857678470483
 30
0.0
 10
632.1068305789174
 20
142.4255194671879
 30
0.0
 10
631.8996707340734
 20
142.4644099381261
 30
0.0
 10
631.6873340070915
 20
142.5024689652507
 30
0.0
 10
631.4698217057854
 20
142.5397192926667
 30
0.0
 10
631.2471484222564
 20
142.5761780014181
 30
0.0
 10
631.0193405240136
 20
142.6118575479653
 30
0.0
 10
630.7864348762909
 20
142.6467666003739
 30
0.0
 10
630.5484777548785
 20
142.6809107158887
 30
0.0
 10
630.3055239164415
 20
142.7142928933202
 30
0.0
 10
630.0576357994508
 20
142.7469140260061
 30
0.0
 10
629.8048828337911
 20
142.7787732753335
 30
0.0
 10
629.5473408410887
 20
142.8098683804227
 30
0.0
 10
629.2850915110148
 20
142.8401959162252
 30
0.0
 10
629.0182219414097
 20
142.8697515097155
 30
0.0
 10
628.7468242321878
 20
142.8985300218611
 30
0.0
 10
628.5212137045618
 20
142.921519829176
 30
0.0
 10
628.2926852299547
 20
142.9439810044007
 30
0.0
 10
628.0612959833543
 20
142.9659099664187
 30
0.0
 10
627.827104876766
 20
142.9873029961943
 30
0.0
 10
627.5901724678528
 20
143.0081562691598
 30
0.0
 10
627.3505608752567
 20
143.0284658838949
 30
0.0
 10
627.1083336998085
 20
143.0482278875909
 30
0.0
 10
626.863555950929
 20
143.0674382987159
 30
0.0
 10
626.6162939776205
 20
143.0860931272386
 30
0.0
 10
626.3666154035168
 20
143.1041883927162
 30
0.0
 10
626.1145890655273
 20
143.121720140507
 30
0.0
 10
625.8602849556705
 20
143.1386844563351
 30
0.0
 10
625.6037741657345
 20
143.1550774793999
 30
0.0
 10
625.3451288344523
 20
143.1708954141979
 30
0.0
 10
625.0844220969122
 20
143.1861345412045
 30
0.0
 10
624.8217280359563
 20
143.2007912265377
 30
0.0
 10
624.5571216353509
 20
143.2148619307174
 30
0.0
 10
624.2906787345352
 20
143.2283432166129
 30
0.0
 10
624.0224759847763
 20
143.2412317566618
 30
0.0
 10
623.7592574379207
 20
143.253228766584
 30
0.0
 10
623.4945108200892
 20
143.2646559449902
 30
0.0
 10
623.2283092615027
 20
143.2755105391063
 30
0.0
 10
622.9607264803474
 20
143.2857899158615
 30
0.0
 10
622.6918367484954
 20
143.295491565888
 30
0.0
 10
622.4217148578394
 20
143.3046131071654
 30
0.0
 10
622.1504360871778
 20
143.3131522883425
 30
0.0
 10
621.8780761695885
 20
143.3211069917567
 30
0.0
 10
621.6047112602415
 20
143.3284752361768
 30
0.0
 10
621.3304179045978
 20
143.3352551792855
 30
0.0
 10
621.0552730069548
 20
143.3414451199196
 30
0.0
 10
620.7793537992952
 20
143.3470435000824
 30
0.0
 10
620.5027378104058
 20
143.3520489067421
 30
0.0
 10
620.2255028352302
 20
143.3564600734256
 30
0.0
 10
619.9477269044272
 20
143.360275881619
 30
0.0
 10
619.6694882541049
 20
143.3634953619839
 30
0.0
 10
619.390865295704
 20
143.3661176953936
 30
0.0
 10
619.1119365860082
 20
143.368142213799
 30
0.0
 10
618.832780797254
 20
143.3695684009264
 30
0.0
 10
618.5549766104412
 20
143.370393048862
 30
0.0
 10
618.2771032418725
 20
143.3706252050107
 30
0.0
 10
617.9992382683117
 20
143.370264810719
 30
0.0
 10
617.7214592633957
 20
143.3693119570367
 30
0.0
 10
617.4438437687243
 20
143.3677668846246
 30
0.0
 10
617.166469264931
 20
143.3656299835099
 30
0.0
 10
616.8894131427122
 20
143.362901792689
 30
0.0
 10
616.6127526737948
 20
143.3595829995736
 30
0.0
 10
616.3365649818234
 20
143.3556744392791
 30
0.0
 10
616.0609270131438
 20
143.3511770937499
 30
0.0
 10
615.7859155074609
 20
143.3460920907165
 30
0.0
 10
615.5116069683469
 20
143.3404207024804
 30
0.0
 10
615.2380776335741
 20
143.334164344516
 30
0.0
 10
614.9654034452445
 20
143.3273245738862
 30
0.0
 10
614.6936600196859
 20
143.3199030874566
 30
0.0
 10
614.4229226170828
 20
143.3119017199011
 30
0.0
 10
614.153266110806
 20
143.3033224414854
 30
0.0
 10
613.8847649564024
 20
143.2941673556116
 30
0.0
 10
613.6174931602007
 20
143.2844386961107
 30
0.0
 10
613.3506195710554
 20
143.2741027258693
 30
0.0
 10
613.0851315267571
 20
143.2631941520646
 30
0.0
 10
612.8211022340003
 20
143.251715608093
 30
0.0
 10
612.5586043116556
 20
143.2396698455644
 30
0.0
 10
612.2977097560522
 20
143.2270597299109
 30
0.0
 10
612.0384899054906
 20
143.213888235574
 30
0.0
 10
611.7810154038918
 20
143.2001584407303
 30
0.0
 10
611.5253561634855
 20
143.1858735215088
 30
0.0
 10
611.2715813264208
 20
143.1710367456463
 30
0.0
 10
611.0197592251749
 20
143.155651465521
 30
0.0
 10
610.7699573416156
 20
143.1397211104943
 30
0.0
 10
610.5222422645591
 20
143.1232491784832
 30
0.0
 10
610.2766796456425
 20
143.106239226671
 30
0.0
 10
610.0333341533085
 20
143.0886948612549
 30
0.0
 10
609.792269424675
 20
143.0706197261101
 30
0.0
 10
609.5535480150299
 20
143.0520174902335
 30
0.0
 10
609.3172313446599
 20
143.0328918338101
 30
0.0
 10
609.0833796426835
 20
143.0132464327195
 30
0.0
 10
608.8520518875109
 20
142.9930849412708
 30
0.0
 10
608.6191919771226
 20
142.9720322954776
 30
0.0
 10
608.3890672968938
 20
142.9504522104683
 30
0.0
 10
608.1617356618679
 20
142.9283483390529
 30
0.0
 10
607.9372532379424
 20
142.905724210547
 30
0.0
 10
607.7156744495227
 20
142.8825831969954
 30
0.0
 10
607.4970518792978
 20
142.8589284748946
 30
0.0
 10
607.2814361590491
 20
142.8347629816983
 30
0.0
 10
607.0688758502313
 20
142.8100893662493
 30
0.0
 10
606.8594173128713
 20
142.784909932125
 30
0.0
 10
606.6531045610964
 20
142.7592265726882
 30
0.0
 10
606.4499791033324
 20
142.7330406963959
 30
0.0
 10
606.2500797648925
 20
142.706353140632
 30
0.0
 10
606.053442490295
 20
142.6791640719725
 30
0.0
 10
605.8601001222022
 20
142.6514728703591
 30
0.0
 10
605.6700821533381
 20
142.6232779941156
 30
0.0
 10
605.4834144471067
 20
142.5945768220762
 30
0.0
 10
605.3001189218859
 20
142.5653654682631
 30
0.0
 10
605.1202131930594
 20
142.5356385635129
 30
0.0
 10
604.94371016579
 20
142.5053889971441
 30
0.0
 10
604.7651369520547
 20
142.473614063558
 30
0.0
 10
604.5901979276215
 20
142.441259957118
 30
0.0
 10
604.4188880135799
 20
142.4083106535884
 30
0.0
 10
604.2511941096537
 20
142.3747462510128
 30
0.0
 10
604.0870941307046
 20
142.3405422111515
 30
0.0
 10
603.9265558850599
 20
142.3056684317894
 30
0.0
 10
603.7695357652327
 20
142.2700881061515
 30
0.0
 10
603.6159772160502
 20
142.233756312828
 30
0.0
 10
603.4658089388574
 20
142.1966182625777
 30
0.0
 10
603.3189427833534
 20
142.1586071056642
 30
0.0
 10
603.175271271104
 20
142.1196411729192
 30
0.0
 10
603.0346646874956
 20
142.0796204826917
 30
0.0
 10
602.8969676732649
 20
142.0384222903033
 30
0.0
 10
602.7619952453824
 20
141.9958953812247
 30
0.0
 10
602.6295281847905
 20
141.9518527065864
 30
0.0
 10
602.4993077539464
 20
141.9060618200549
 30
0.0
 10
602.3710297655055
 20
141.8582323858292
 30
0.0
 10
602.3073469008338
 20
141.8329824396933
 30
0.0
  0
ELLIPSE
  5
30C
330
2
100
AcDbEntity
  8
AM_VIS
100
AcDbEllipse
 10
618.3071731196805
 20
-151.3376581656361
 30
0.0
 11
-20.0
 21
0.0000000000000033
 31
0.0
210
0.0
220
0.0
230
1.0
 40
0.1246951652765545
 41
1.570796326794896
 42
7.853981633974482
  0
ELLIPSE
  5
30D
330
2
100
AcDbEntity
  8
AM_VIS
100
AcDbEllipse
 10
618.3071731196805
 20
-147.368877767062
 30
0.0
 11
-20.0
 21
0.0000000000000033
 31
0.0
210
0.0
220
0.0
230
1.0
 40
0.1246951652765545
 41
3.141592653589794
 42
6.283185307179586
  0
LINE
  5
30E
330
2
100
AcDbEntity
  8
AM_VIS
100
AcDbLine
 10
638.3071731196805
 20
-147.368877767062
 30
0.0
 11
638.3071731196805
 21
-151.3376581656361
 31
0.0
  0
LINE
  5
30F
330
2
100
AcDbEntity
  8
AM_VIS
100
AcDbLine
 10
598.3071731196806
 20
-147.3688777670619
 30
0.0
 11
598.3071731196806
 21
-151.3376581656361
 31
0.0
  0
ELLIPSE
  5
310
330
2
100
AcDbEntity
  8
AM_VIS
100
AcDbEllipse
 10
641.557173119681
 20
-150.2680403597418
 30
0.0
 11
-3.0
 21
0.0000000000000005
 31
0.0
210
0.0
220
0.0
230
1.0
 40
0.1246951652765545
 41
1.570796326794896
 42
7.853981633974482
  0
ELLIPSE
  5
311
330
2
100
AcDbEntity
  8
AM_VIS
100
AcDbEllipse
 10
595.0571731196809
 20
-150.2680403597418
 30
0.0
 11
-3.0
 21
0.0000000000000005
 31
0.0
210
0.0
220
0.0
230
1.0
 40
0.1246951652765545
 41
1.570796326794896
 42
7.853981633974482
  0
ELLIPSE
  5
312
330
2
100
AcDbEntity
  8
AM_VIS
100
AcDbEllipse
 10
595.0571731196809
 20
-144.4697151743821
 30
0.0
 11
-3.0
 21
0.0000000000000005
 31
0.0
210
0.0
220
0.0
230
1.0
 40
0.1246951652765545
 41
1.570796326794896
 42
7.853981633974482
  0
ELLIPSE
  5
313
330
2
100
AcDbEntity
  8
AM_VIS
100
AcDbEllipse
 10
641.557173119681
 20
-144.4697151743821
 30
0.0
 11
-3.0
 21
0.0000000000000005
 31
0.0
210
0.0
220
0.0
230
1.0
 40
0.1246951652765545
 41
1.570796326794896
 42
7.853981633974482
  0
ELLIPSE
  5
314
330
2
100
AcDbEntity
  8
AM_VIS
100
AcDbEllipse
 10
595.0571731196809
 20
-114.7038621850759
 30
0.0
 11
-11.75
 21
0.0000000000000019
 31
0.0
210
0.0
220
0.0
230
1.0
 40
0.1246951652765544
 41
4.712388980384689
 42
6.283185307179586
  0
LINE
  5
315
330
2
100
AcDbEntity
  8
AM_VIS
100
AcDbLine
 10
583.307173119681
 20
-114.7038621850759
 30
0.0
 11
583.307173119681
 21
-144.4697151743821
 31
0.0
  0
ELLIPSE
  5
316
330
2
100
AcDbEntity
  8
AM_VIS
100
AcDbEllipse
 10
595.0571731196809
 20
-144.4697151743821
 30
0.0
 11
-11.75
 21
0.0000000000000019
 31
0.0
210
0.0
220
0.0
230
1.0
 40
0.1246951652765544
 41
4.712388980384689
 42
6.283185307179586
  0
LINE
  5
317
330
2
100
AcDbEntity
  8
AM_VIS
100
AcDbLine
 10
641.557173119681
 20
-143.0045469823826
 30
0.0
 11
595.0571731196809
 21
-143.0045469823826
 31
0.0
  0
LINE
  5
318
330
2
100
AcDbEntity
  8
AM_VIS
100
AcDbLine
 10
641.557173119681
 20
-113.2386939930764
 30
0.0
 11
595.0571731196809
 21
-113.2386939930764
 31
0.0
  0
LINE
  5
319
330
2
100
AcDbEntity
  8
AM_VIS
100
AcDbLine
 10
583.307173119681
 20
-144.4697151743821
 30
0.0
 11
583.307173119681
 21
-150.2680403597418
 31
0.0
  0
ELLIPSE
  5
31A
330
2
100
AcDbEntity
  8
AM_VIS
100
AcDbEllipse
 10
595.0571731196809
 20
-150.2680403597418
 30
0.0
 11
-11.75
 21
0.0000000000000019
 31
0.0
210
0.0
220
0.0
230
1.0
 40
0.1246951652765544
 41
0.0
 42
1.570796326794896
  0
LINE
  5
31B
330
2
100
AcDbEntity
  8
AM_VIS
100
AcDbLine
 10
595.0571731196809
 20
-151.7332085517413
 30
0.0
 11
598.5603370512583
 21
-151.7332085517413
 31
0.0
  0
LINE
  5
31C
330
2
100
AcDbEntity
  8
AM_VIS
100
AcDbLine
 10
638.054009188103
 20
-151.7332085517413
 30
0.0
 11
641.557173119681
 21
-151.7332085517413
 31
0.0
  0
ELLIPSE
  5
31D
330
2
100
AcDbEntity
  8
AM_VIS
100
AcDbEllipse
 10
641.557173119681
 20
-150.2680403597418
 30
0.0
 11
-11.75
 21
0.0000000000000019
 31
0.0
210
0.0
220
0.0
230
1.0
 40
0.1246951652765544
 41
1.570796326794896
 42
3.141592653589792
  0
LINE
  5
31E
330
2
100
AcDbEntity
  8
AM_VIS
100
AcDbLine
 10
653.307173119681
 20
-150.2680403597418
 30
0.0
 11
653.307173119681
 21
-144.4697151743821
 31
0.0
  0
ELLIPSE
  5
31F
330
2
100
AcDbEntity
  8
AM_VIS
100
AcDbEllipse
 10
641.557173119681
 20
-144.4697151743821
 30
0.0
 11
-11.75
 21
0.0000000000000019
 31
0.0
210
0.0
220
0.0
230
1.0
 40
0.1246951652765544
 41
3.141592653589792
 42
4.712388980384689
  0
ELLIPSE
  5
320
330
2
100
AcDbEntity
  8
AM_VIS
100
AcDbEllipse
 10
641.557173119681
 20
-114.7038621850759
 30
0.0
 11
-11.75
 21
0.0000000000000019
 31
0.0
210
0.0
220
0.0
230
1.0
 40
0.1246951652765544
 41
3.141592653589794
 42
4.712388980384689
  0
LINE
  5
321
330
2
100
AcDbEntity
  8
AM_VIS
100
AcDbLine
 10
653.307173119681
 20
-144.4697151743821
 30
0.0
 11
653.307173119681
 21
-114.7038621850759
 31
0.0
  0
ELLIPSE
  5
322
330
2
100
AcDbEntity
  8
AM_VIS
100
AcDbEllipse
 10
594.807173119679
 20
88.72730703316879
 30
0.0
 11
-11.5
 21
0.0000000000000019
 31
0.0
210
0.0
220
0.0
230
1.0
 40
0.1246951652765545
 41
4.712388980384689
 42
6.283185307179586
  0
LINE
  5
323
330
2
100
AcDbEntity
  8
AM_VIS
100
AcDbLine
 10
594.807173119679
 20
90.16130143384916
 30
0.0
 11
601.8071731196791
 21
90.16130143384916
 31
0.0
  0
ELLIPSE
  5
324
330
2
100
AcDbEntity
  8
AM_VIS
100
AcDbEllipse
 10
601.8071731196791
 20
89.97425868593433
 30
0.0
 11
-1.5
 21
0.0000000000000002
 31
0.0
210
0.0
220
0.0
230
1.0
 40
0.1246951652765545
 41
3.141592653589794
 42
4.712388980384689
  0
ELLIPSE
  5
325
330
2
100
AcDbEntity
  8
AM_VIS
100
AcDbEllipse
 10
604.8071731196791
 20
89.7248683553812
 30
0.0
 11
-1.5
 21
0.0000000000000002
 31
0.0
210
0.0
220
0.0
230
1.0
 40
0.1246951652765545
 41
0.0
 42
1.570796326794896
  0
LINE
  5
326
330
2
100
AcDbEntity
  8
AM_VIS
100
AcDbLine
 10
604.8071731196791
 20
89.53782560746637
 30
0.0
 11
611.807173119679
 21
89.53782560746637
 31
0.0
  0
ELLIPSE
  5
327
330
2
100
AcDbEntity
  8
AM_VIS
100
AcDbEllipse
 10
611.807173119679
 20
89.7248683553812
 30
0.0
 11
-1.5
 21
0.0000000000000002
 31
0.0
210
0.0
220
0.0
230
1.0
 40
0.1246951652765545
 41
1.570796326794896
 42
3.141592653589792
  0
ELLIPSE
  5
328
330
2
100
AcDbEntity
  8
AM_VIS
100
AcDbEllipse
 10
614.807173119679
 20
89.97425868593433
 30
0.0
 11
-1.5
 21
0.0000000000000002
 31
0.0
210
0.0
220
0.0
230
1.0
 40
0.1246951652765545
 41
4.712388980384689
 42
6.283185307179586
  0
LINE
  5
329
330
2
100
AcDbEntity
  8
AM_VIS
100
AcDbLine
 10
614.807173119679
 20
90.16130143384916
 30
0.0
 11
621.8071731196791
 21
90.16130143384916
 31
0.0
  0
ELLIPSE
  5
32A
330
2
100
AcDbEntity
  8
AM_VIS
100
AcDbEllipse
 10
621.8071731196791
 20
89.97425868593433
 30
0.0
 11
-1.5
 21
0.0000000000000002
 31
0.0
210
0.0
220
0.0
230
1.0
 40
0.1246951652765545
 41
3.141592653589794
 42
4.712388980384689
  0
ELLIPSE
  5
32B
330
2
100
AcDbEntity
  8
AM_VIS
100
AcDbEllipse
 10
624.807173119679
 20
89.7248683553812
 30
0.0
 11
-1.5
 21
0.0000000000000002
 31
0.0
210
0.0
220
0.0
230
1.0
 40
0.1246951652765545
 41
0.0
 42
1.570796326794896
  0
LINE
  5
32C
330
2
100
AcDbEntity
  8
AM_VIS
100
AcDbLine
 10
624.807173119679
 20
89.53782560746637
 30
0.0
 11
631.8071731196791
 21
89.53782560746637
 31
0.0
  0
ELLIPSE
  5
32D
330
2
100
AcDbEntity
  8
AM_VIS
100
AcDbEllipse
 10
631.8071731196791
 20
89.7248683553812
 30
0.0
 11
-1.5
 21
0.0000000000000002
 31
0.0
210
0.0
220
0.0
230
1.0
 40
0.1246951652765545
 41
1.570796326794896
 42
3.141592653589792
  0
ELLIPSE
  5
32E
330
2
100
AcDbEntity
  8
AM_VIS
100
AcDbEllipse
 10
634.8071731196792
 20
89.97425868593433
 30
0.0
 11
-1.5
 21
0.0000000000000002
 31
0.0
210
0.0
220
0.0
230
1.0
 40
0.1246951652765545
 41
4.712388980384689
 42
6.283185307179586
  0
LINE
  5
32F
330
2
100
AcDbEntity
  8
AM_VIS
100
AcDbLine
 10
634.8071731196792
 20
90.16130143384916
 30
0.0
 11
641.8071731196792
 21
90.16130143384916
 31
0.0
  0
ELLIPSE
  5
330
330
2
100
AcDbEntity
  8
AM_VIS
100
AcDbEllipse
 10
641.807173119679
 20
88.72730703316879
 30
0.0
 11
-11.5
 21
0.0000000000000019
 31
0.0
210
0.0
220
0.0
230
1.0
 40
0.1246951652765545
 41
3.141592653589794
 42
4.712388980384689
  0
LINE
  5
331
330
2
100
AcDbEntity
  8
AM_VIS
100
AcDbLine
 10
603.3071731196789
 20
-113.2386939930764
 30
0.0
 11
603.3071731196789
 21
89.97425868593433
 31
0.0
  0
LINE
  5
332
330
2
100
AcDbEntity
  8
AM_VIS
100
AcDbLine
 10
594.807173119679
 20
-113.2386939930764
 30
0.0
 11
601.8071731196791
 21
-113.2386939930764
 31
0.0
  0
LINE
  5
333
330
2
100
AcDbEntity
  8
AM_VIS
100
AcDbLine
 10
613.3071731196791
 20
89.97425868593433
 30
0.0
 11
613.3071731196791
 21
-113.2386939930765
 31
0.0
  0
LINE
  5
334
330
2
100
AcDbEntity
  8
AM_VIS
100
AcDbLine
 10
623.307173119679
 20
-113.2386939930764
 30
0.0
 11
623.307173119679
 21
89.97425868593433
 31
0.0
  0
LINE
  5
335
330
2
100
AcDbEntity
  8
AM_VIS
100
AcDbLine
 10
633.3071731196792
 20
89.97425868593433
 30
0.0
 11
633.3071731196792
 21
-113.2386939930765
 31
0.0
  0
ELLIPSE
  5
336
330
2
100
AcDbEntity
  8
AM_VIS
100
AcDbEllipse
 10
641.807173119679
 20
-114.6726883937567
 30
0.0
 11
-11.5
 21
0.0000000000000019
 31
0.0
210
0.0
220
0.0
230
1.0
 40
0.1246951652765545
 41
3.141592653589792
 42
4.712388980384689
  0
LINE
  5
337
330
2
100
AcDbEntity
  8
AM_VIS
100
AcDbLine
 10
653.307173119679
 20
-114.6726883937567
 30
0.0
 11
653.307173119679
 21
88.72730703316875
 31
0.0
  0
LINE
  5
338
330
2
100
AcDbEntity
  8
AM_VIS
100
AcDbLine
 10
634.8071731196791
 20
-113.2386939930764
 30
0.0
 11
641.807173119679
 21
-113.2386939930764
 31
0.0
  0
ELLIPSE
  5
339
330
2
100
AcDbEntity
  8
AM_VIS
100
AcDbEllipse
 10
594.807173119679
 20
-114.6726883937567
 30
0.0
 11
-11.5
 21
0.0000000000000019
 31
0.0
210
0.0
220
0.0
230
1.0
 40
0.1246951652765545
 41
4.712388980384689
 42
6.283185307179586
  0
LINE
  5
33A
330
2
100
AcDbEntity
  8
AM_VIS
100
AcDbLine
 10
583.307173119679
 20
88.72730703316879
 30
0.0
 11
583.307173119679
 21
-114.6726883937567
 31
0.0
  0
LINE
  5
33B
330
2
100
AcDbEntity
  8
AM_VIS
100
AcDbLine
 10
583.307173119679
 20
-114.7038621850759
 30
0.0
 11
583.307173119679
 21
-114.6726883937567
 31
0.0
  0
LINE
  5
33C
330
2
100
AcDbEntity
  8
AM_VIS
100
AcDbLine
 10
614.807173119679
 20
-113.2386939930764
 30
0.0
 11
621.8071731196791
 21
-113.2386939930764
 31
0.0
  0
LINE
  5
33D
330
2
100
AcDbEntity
  8
AM_VIS
100
AcDbLine
 10
653.307173119679
 20
-114.6726883937567
 30
0.0
 11
653.307173119679
 21
-114.7038621850759
 31
0.0
  0
LINE
  5
33E
330
2
100
AcDbEntity
  8
AM_VIS
100
AcDbLine
 10
648.5571731196785
 20
149.3520913288515
 30
0.0
 11
648.5571731196785
 21
135.3520913288515
 31
0.0
  0
LINE
  5
33F
330
2
100
AcDbEntity
  8
AM_VIS
100
AcDbLine
 10
648.5571731196785
 20
135.3520913288515
 30
0.0
 11
648.3071731196791
 21
135.1020913288522
 31
0.0
  0
LINE
  5
340
330
2
100
AcDbEntity
  8
AM_VIS
100
AcDbLine
 10
648.5571731196785
 20
149.3520913288515
 30
0.0
 11
648.3071731196791
 21
149.6020913288508
 31
0.0
  0
LINE
  5
341
330
2
100
AcDbEntity
  8
AM_VIS
100
AcDbLine
 10
588.0571731196782
 20
135.3520913288514
 30
0.0
 11
588.0571731196782
 21
149.3520913288515
 31
0.0
  0
LINE
  5
342
330
2
100
AcDbEntity
  8
AM_VIS
100
AcDbLine
 10
588.0571731196782
 20
149.3520913288514
 30
0.0
 11
588.3071731196792
 21
149.6020913288523
 31
0.0
  0
LINE
  5
343
330
2
100
AcDbEntity
  8
AM_VIS
100
AcDbLine
 10
588.0571731196782
 20
135.3520913288514
 30
0.0
 11
588.3071731196792
 21
135.1020913288505
 31
0.0
  0
ELLIPSE
  5
344
330
2
100
AcDbEntity
  8
AM_VIS
100
AcDbEllipse
 10
591.3071731196792
 20
128.8515440973783
 30
0.0
 11
-3.0
 21
0.0000000000000009
 31
0.0
210
0.0
220
0.0
230
1.0
 40
0.1246951652765545
 41
4.712388980384689
 42
6.283185307179586
  0
LINE
  5
345
330
2
100
AcDbEntity
  8
AM_VIS
100
AcDbLine
 10
645.3071731196792
 20
129.2256295932079
 30
0.0
 11
591.3071731196792
 21
129.225629593208
 31
0.0
  0
ELLIPSE
  5
346
330
2
100
AcDbEntity
  8
AM_VIS
100
AcDbEllipse
 10
645.3071731196792
 20
128.8515440973783
 30
0.0
 11
-3.0
 21
0.0000000000000009
 31
0.0
210
0.0
220
0.0
230
1.0
 40
0.1246951652765545
 41
3.141592653589794
 42
4.712388980384689
  0
LINE
  5
347
330
2
100
AcDbEntity
  8
AM_VIS
100
AcDbLine
 10
588.3071731196792
 20
128.8515440973783
 30
0.0
 11
588.3071731196792
 21
119.6612659285198
 31
0.0
  0
LINE
  5
348
330
2
100
AcDbEntity
  8
AM_VIS
100
AcDbLine
 10
648.3071731196791
 20
119.6612659285199
 30
0.0
 11
648.3071731196791
 21
128.8515440973783
 31
0.0
  0
LINE
  5
349
330
2
100
AcDbEntity
  8
AM_VIS
100
AcDbLine
 10
588.3071731196792
 20
129.0902019827936
 30
0.0
 11
588.3071731196792
 21
128.8515440973783
 31
0.0
  0
LINE
  5
34A
330
2
100
AcDbEntity
  8
AM_VIS
100
AcDbLine
 10
602.3071731196791
 20
129.225629593208
 30
0.0
 11
602.3071731196791
 21
143.9731284774467
 31
0.0
  0
LINE
  5
34B
330
2
100
AcDbEntity
  8
AM_VIS
100
AcDbLine
 10
588.3071731196792
 20
129.0902019827936
 30
0.0
 11
588.3071731196792
 21
143.9731284774467
 31
0.0
  0
LINE
  5
34C
330
2
100
AcDbEntity
  8
AM_VIS
100
AcDbLine
 10
648.3071731196791
 20
128.8515440973783
 30
0.0
 11
648.3071731196791
 21
129.0902019827935
 31
0.0
  0
LINE
  5
34D
330
2
100
AcDbEntity
  8
AM_VIS
100
AcDbLine
 10
602.3071731196791
 20
155.3520913288515
 30
0.0
 11
602.3071731196791
 21
143.9731284774467
 31
0.0
  0
LINE
  5
34E
330
2
100
AcDbEntity
  8
AM_VIS
100
AcDbLine
 10
634.3071731196792
 20
143.9731284774467
 30
0.0
 11
634.3071731196792
 21
129.225629593208
 31
0.0
  0
LINE
  5
34F
330
2
100
AcDbEntity
  8
AM_VIS
100
AcDbLine
 10
634.3071731196792
 20
143.9731284774467
 30
0.0
 11
634.3071731196792
 21
155.3520913288515
 31
0.0
  0
LINE
  5
350
330
2
100
AcDbEntity
  8
AM_VIS
100
AcDbLine
 10
648.3071731196791
 20
143.9731284774467
 30
0.0
 11
648.3071731196791
 21
129.0902019827936
 31
0.0
  0
LINE
  5
351
330
2
100
AcDbEntity
  8
AM_VIS
100
AcDbLine
 10
648.3071731196791
 20
143.9731284774467
 30
0.0
 11
648.3071731196791
 21
155.3520913288515
 31
0.0
  0
LINE
  5
352
330
2
100
AcDbEntity
  8
AM_VIS
100
AcDbLine
 10
588.3071731196792
 20
155.3520913288515
 30
0.0
 11
588.3071731196792
 21
143.9731284774467
 31
0.0
  0
LINE
  5
353
330
2
100
AcDbEntity
  8
AM_VIS
100
AcDbLine
 10
648.3071731196791
 20
155.3520913288515
 30
0.0
 11
634.3071731196792
 21
155.3520913288515
 31
0.0
  0
LINE
  5
354
330
2
100
AcDbEntity
  8
AM_VIS
100
AcDbLine
 10
602.3071731196791
 20
155.3520913288515
 30
0.0
 11
588.3071731196792
 21
155.3520913288515
 31
0.0
  0
LINE
  5
355
330
2
100
AcDbEntity
  8
AM_VIS
100
AcDbLine
 10
610.4571731196796
 20
249.9534016510557
 30
0.0
 11
610.4571731196796
 21
265.9534016510556
 31
0.0
  0
LINE
  5
356
330
2
100
AcDbEntity
  8
AM_VIS
100
AcDbLine
 10
610.4571731196796
 20
265.9534016510556
 30
0.0
 11
610.4571731196796
 21
273.0034016510558
 31
0.0
  0
LINE
  5
357
330
2
100
AcDbEntity
  8
AM_VIS
100
AcDbLine
 10
626.3071731196795
 20
249.9534016510557
 30
0.0
 11
624.3071731196793
 21
249.9534016510557
 31
0.0
  0
LINE
  5
358
330
2
100
AcDbEntity
  8
AM_VIS
100
AcDbLine
 10
612.3071731196793
 20
249.9534016510557
 30
0.0
 11
610.4571731196795
 21
249.9534016510557
 31
0.0
  0
LINE
  5
359
330
2
100
AcDbEntity
  8
AM_VIS
100
AcDbLine
 10
250.5105728933167
 20
565.1346344501567
 30
0.0
 11
244.2940525783471
 21
565.1346344501567
 31
0.0
  0
LINE
  5
35A
330
2
100
AcDbEntity
  8
AM_VIS
100
AcDbLine
 10
250.5105728933167
 20
573.1346344501567
 30
0.0
 11
244.2940525783471
 21
573.1346344501567
 31
0.0
  0
LINE
  5
35B
330
2
100
AcDbEntity
  8
AM_VIS
100
AcDbLine
 10
157.5105728933167
 20
573.1346344501567
 30
0.0
 11
157.5105728933167
 21
565.1346344501567
 31
0.0
  0
LINE
  5
35C
330
2
100
AcDbEntity
  8
AM_VIS
100
AcDbLine
 10
157.5105728933167
 20
565.1346344501567
 30
0.0
 11
170.149001972015
 21
565.1346344501567
 31
0.0
  0
LINE
  5
35D
330
2
100
AcDbEntity
  8
AM_VIS
100
AcDbLine
 10
224.9023670515576
 20
565.1346344501567
 30
0.0
 11
244.2940525783472
 21
565.1346344501567
 31
0.0
  0
LINE
  5
35E
330
2
100
AcDbEntity
  8
AM_VIS
100
AcDbLine
 10
234.354112714427
 20
573.1346344501567
 30
0.0
 11
244.2940525783472
 21
573.1346344501567
 31
0.0
  0
LINE
  5
35F
330
2
100
AcDbEntity
  8
AM_VIS
100
AcDbLine
 10
250.5105728933167
 20
573.1346344501567
 30
0.0
 11
250.5105728933167
 21
565.1346344501567
 31
0.0
  0
LINE
  5
360
330
2
100
AcDbEntity
  8
AM_VIS
100
AcDbLine
 10
250.5105728933167
 20
589.1346344501568
 30
0.0
 11
244.2940525783471
 21
589.1346344501568
 31
0.0
  0
LINE
  5
361
330
2
100
AcDbEntity
  8
AM_VIS
100
AcDbLine
 10
250.5105728933167
 20
597.1346344501568
 30
0.0
 11
244.2940525783471
 21
597.1346344501568
 31
0.0
  0
LINE
  5
362
330
2
100
AcDbEntity
  8
AM_VIS
100
AcDbLine
 10
157.5105728933167
 20
597.1346344501568
 30
0.0
 11
157.5105728933167
 21
589.1346344501568
 31
0.0
  0
LINE
  5
363
330
2
100
AcDbEntity
  8
AM_VIS
100
AcDbLine
 10
157.5105728933167
 20
597.1346344501568
 30
0.0
 11
170.1490019720148
 21
597.1346344501568
 31
0.0
  0
LINE
  5
364
330
2
100
AcDbEntity
  8
AM_VIS
100
AcDbLine
 10
234.354112714427
 20
589.1346344501568
 30
0.0
 11
244.2940525783472
 21
589.1346344501568
 31
0.0
  0
LINE
  5
365
330
2
100
AcDbEntity
  8
AM_VIS
100
AcDbLine
 10
224.9023670515575
 20
597.1346344501568
 30
0.0
 11
244.2940525783472
 21
597.1346344501568
 31
0.0
  0
LINE
  5
366
330
2
100
AcDbEntity
  8
AM_VIS
100
AcDbLine
 10
250.5105728933167
 20
597.1346344501568
 30
0.0
 11
250.5105728933167
 21
589.1346344501568
 31
0.0
  0
LINE
  5
367
330
2
100
AcDbEntity
  8
AM_VIS
100
AcDbLine
 10
157.5105728933167
 20
533.6346344501569
 30
0.0
 11
157.5105728933167
 21
565.1346344501567
 31
0.0
  0
LINE
  5
368
330
2
100
AcDbEntity
  8
AM_VIS
100
AcDbLine
 10
157.5105728933167
 20
597.1346344501569
 30
0.0
 11
157.5105728933167
 21
628.634634450157
 31
0.0
  0
LINE
  5
369
330
2
100
AcDbEntity
  8
AM_VIS
100
AcDbLine
 10
149.5105728933167
 20
533.6346344501569
 30
0.0
 11
149.5105728933167
 21
573.1346344501567
 31
0.0
  0
LINE
  5
36A
330
2
100
AcDbEntity
  8
AM_VIS
100
AcDbLine
 10
149.5105728933167
 20
589.1346344501569
 30
0.0
 11
149.5105728933167
 21
628.634634450157
 31
0.0
  0
LINE
  5
36B
330
2
100
AcDbEntity
  8
AM_VIS
100
AcDbLine
 10
157.5105728933167
 20
633.6346344501569
 30
0.0
 11
157.5105728933167
 21
628.6346344501569
 31
0.0
  0
LINE
  5
36C
330
2
100
AcDbEntity
  8
AM_VIS
100
AcDbLine
 10
149.5105728933167
 20
633.6346344501569
 30
0.0
 11
157.5105728933167
 21
633.6346344501569
 31
0.0
  0
LINE
  5
36D
330
2
100
AcDbEntity
  8
AM_VIS
100
AcDbLine
 10
149.5105728933167
 20
633.6346344501569
 30
0.0
 11
149.5105728933167
 21
628.6346344501569
 31
0.0
  0
LINE
  5
36E
330
2
100
AcDbEntity
  8
AM_VIS
100
AcDbLine
 10
149.5105728933167
 20
528.6346344501569
 30
0.0
 11
157.5105728933167
 21
528.6346344501569
 31
0.0
  0
LINE
  5
36F
330
2
100
AcDbEntity
  8
AM_VIS
100
AcDbLine
 10
157.5105728933167
 20
533.6346344501569
 30
0.0
 11
157.5105728933167
 21
528.6346344501569
 31
0.0
  0
LINE
  5
370
330
2
100
AcDbEntity
  8
AM_VIS
100
AcDbLine
 10
149.5105728933167
 20
533.6346344501569
 30
0.0
 11
149.5105728933167
 21
528.6346344501569
 31
0.0
  0
ELLIPSE
  5
371
330
2
100
AcDbEntity
  8
AM_VIS
100
AcDbEllipse
 10
254.2391717742002
 20
558.4646344501568
 30
0.0
 11
0.0
 21
-14.34
 31
0.0
210
0.0
220
0.0
230
1.0
 40
0.9063077870366498
 41
4.712388980384689
 42
6.283185307179586
  0
ELLIPSE
  5
372
330
2
100
AcDbEntity
  8
AM_VIS
100
AcDbEllipse
 10
237.3344413045722
 20
558.4646344501568
 30
0.0
 11
0.0
 21
-14.34
 31
0.0
210
0.0
220
0.0
230
1.0
 40
0.9063077870366498
 41
4.712388980384689
 42
6.283185307179586
  0
LINE
  5
373
330
2
100
AcDbEntity
  8
AM_VIS
100
AcDbLine
 10
237.3344413045722
 20
544.1246344501568
 30
0.0
 11
254.2391717742002
 21
544.1246344501568
 31
0.0
  0
LINE
  5
374
330
2
100
AcDbEntity
  8
AM_VIS
100
AcDbLine
 10
241.2427181080946
 20
603.8846344501568
 30
0.0
 11
241.2427181080946
 21
597.1346344501568
 31
0.0
  0
LINE
  5
375
330
2
100
AcDbEntity
  8
AM_VIS
100
AcDbLine
 10
241.2427181080946
 20
565.1346344501567
 30
0.0
 11
241.2427181080946
 21
558.4646344501568
 31
0.0
  0
LINE
  5
376
330
2
100
AcDbEntity
  8
AM_VIS
100
AcDbLine
 10
224.3379876384667
 20
603.8846344501568
 30
0.0
 11
224.3379876384667
 21
597.4932176260531
 31
0.0
  0
LINE
  5
377
330
2
100
AcDbEntity
  8
AM_VIS
100
AcDbLine
 10
224.3379876384667
 20
564.7760512742604
 30
0.0
 11
224.3379876384667
 21
558.4646344501568
 31
0.0
  0
LINE
  5
378
330
2
100
AcDbEntity
  8
AM_VIS
100
AcDbLine
 10
254.2391717742002
 20
544.1246344501568
 30
0.0
 11
309.2158021358434
 21
544.1246344501568
 31
0.0
  0
LINE
  5
379
330
2
100
AcDbEntity
  8
AM_VIS
100
AcDbLine
 10
309.2158021358434
 20
550.3846344501567
 30
0.0
 11
254.2391717742003
 21
550.3846344501567
 31
0.0
  0
ELLIPSE
  5
37A
330
2
100
AcDbEntity
  8
AM_VIS
100
AcDbEllipse
 10
254.2391717742002
 20
558.3846344501568
 30
0.0
 11
0.0
 21
-7.999999999999999
 31
0.0
210
0.0
220
0.0
230
1.0
 40
0.90630778703665
 41
4.712388980384689
 42
6.283185307179586
  0
LINE
  5
37B
330
2
100
AcDbEntity
  8
AM_VIS
100
AcDbLine
 10
246.988709477907
 20
558.3846344501568
 30
0.0
 11
246.988709477907
 21
565.1346344501567
 31
0.0
  0
LINE
  5
37C
330
2
100
AcDbEntity
  8
AM_VIS
100
AcDbLine
 10
246.988709477907
 20
597.1346344501568
 30
0.0
 11
246.988709477907
 21
603.8846344501568
 31
0.0
  0
ELLIPSE
  5
37D
330
2
100
AcDbEntity
  8
AM_VIS
100
AcDbEllipse
 10
254.2391717742002
 20
603.8846344501568
 30
0.0
 11
0.0
 21
-7.999999999999999
 31
0.0
210
0.0
220
0.0
230
1.0
 40
0.90630778703665
 41
3.141592653589793
 42
4.712388980384689
  0
LINE
  5
37E
330
2
100
AcDbEntity
  8
AM_VIS
100
AcDbLine
 10
254.2391717742003
 20
611.8846344501568
 30
0.0
 11
309.2158021358434
 21
611.8846344501568
 31
0.0
  0
LINE
  5
37F
330
2
100
AcDbEntity
  8
AM_VIS
100
AcDbLine
 10
254.2391717742002
 20
618.2246344501568
 30
0.0
 11
309.2158021358434
 21
618.2246344501568
 31
0.0
  0
ELLIPSE
  5
380
330
2
100
AcDbEntity
  8
AM_VIS
100
AcDbEllipse
 10
254.2391717742002
 20
603.8846344501568
 30
0.0
 11
0.0
 21
-14.34
 31
0.0
210
0.0
220
0.0
230
1.0
 40
0.9063077870366498
 41
3.141592653589793
 42
4.712388980384689
  0
LINE
  5
381
330
2
100
AcDbEntity
  8
AM_VIS
100
AcDbLine
 10
254.2391717742002
 20
618.2246344501568
 30
0.0
 11
237.3344413045722
 21
618.2246344501568
 31
0.0
  0
ELLIPSE
  5
382
330
2
100
AcDbEntity
  8
AM_VIS
100
AcDbEllipse
 10
237.3344413045722
 20
603.8846344501568
 30
0.0
 11
0.0
 21
-14.34
 31
0.0
210
0.0
220
0.0
230
1.0
 40
0.9063077870366498
 41
3.141592653589793
 42
4.712388980384689
  0
LINE
  5
383
330
2
100
AcDbEntity
  8
AM_VIS
100
AcDbLine
 10
320.7634369010294
 20
618.2246344501568
 30
0.0
 11
309.2158021358434
 21
618.2246344501568
 31
0.0
  0
LINE
  5
384
330
2
100
AcDbEntity
  8
AM_VIS
100
AcDbLine
 10
320.7634369010294
 20
611.8846344501568
 30
0.0
 11
309.2158021358434
 21
611.8846344501568
 31
0.0
  0
LINE
  5
385
330
2
100
AcDbEntity
  8
AM_VIS
100
AcDbLine
 10
309.2158021358434
 20
550.3846344501567
 30
0.0
 11
320.7634369010294
 21
550.3846344501567
 31
0.0
  0
LINE
  5
386
330
2
100
AcDbEntity
  8
AM_VIS
100
AcDbLine
 10
320.7634369010294
 20
544.1246344501568
 30
0.0
 11
309.2158021358434
 21
544.1246344501568
 31
0.0
  0
LINE
  5
387
330
2
100
AcDbEntity
  8
AM_VIS
100
AcDbLine
 10
320.7634369010293
 20
618.2246344501568
 30
0.0
 11
320.7634369010293
 21
611.8846344501568
 31
0.0
  0
LINE
  5
388
330
2
100
AcDbEntity
  8
AM_VIS
100
AcDbLine
 10
320.7634369010293
 20
550.3846344501567
 30
0.0
 11
320.7634369010293
 21
544.1246344501568
 31
0.0
  0
LINE
  5
389
330
2
100
AcDbEntity
  8
AM_VIS
100
AcDbLine
 10
284.5554230276256
 20
575.1346344501568
 30
0.0
 11
272.0830871990846
 21
575.1346344501568
 31
0.0
  0
LINE
  5
38A
330
2
100
AcDbEntity
  8
AM_VIS
100
AcDbLine
 10
245.1040110380214
 20
575.1346344501568
 30
0.0
 11
272.0830871990846
 21
575.1346344501568
 31
0.0
  0
LINE
  5
38B
330
2
100
AcDbEntity
  8
AM_VIS
100
AcDbLine
 10
239.9110792277842
 20
575.1346344501568
 30
0.0
 11
245.1040110380213
 21
575.1346344501568
 31
0.0
  0
LINE
  5
38C
330
2
100
AcDbEntity
  8
AM_VIS
100
AcDbLine
 10
239.753633951604
 20
575.1346344501568
 30
0.0
 11
239.9110792277843
 21
575.1346344501568
 31
0.0
  0
LINE
  5
38D
330
2
100
AcDbEntity
  8
AM_VIS
100
AcDbLine
 10
236.6378748654617
 20
575.1346344501568
 30
0.0
 11
239.753633951604
 21
575.1346344501568
 31
0.0
  0
LINE
  5
38E
330
2
100
AcDbEntity
  8
AM_VIS
100
AcDbLine
 10
235.3668917484653
 20
575.1346344501568
 30
0.0
 11
236.6378748654617
 21
575.1346344501568
 31
0.0
  0
LINE
  5
38F
330
2
100
AcDbEntity
  8
AM_VIS
100
AcDbLine
 10
239.7536339516039
 20
587.1346344501567
 30
0.0
 11
236.6378748654616
 21
587.1346344501567
 31
0.0
  0
LINE
  5
390
330
2
100
AcDbEntity
  8
AM_VIS
100
AcDbLine
 10
236.6378748654617
 20
587.1346344501567
 30
0.0
 11
236.6378748654617
 21
575.1346344501568
 31
0.0
  0
LINE
  5
391
330
2
100
AcDbEntity
  8
AM_VIS
100
AcDbLine
 10
239.753633951604
 20
575.1346344501568
 30
0.0
 11
239.753633951604
 21
587.1346344501567
 31
0.0
  0
LINE
  5
392
330
2
100
AcDbEntity
  8
AM_VIS
100
AcDbLine
 10
239.9110792277843
 20
587.1346344501567
 30
0.0
 11
239.753633951604
 21
587.1346344501567
 31
0.0
  0
LINE
  5
393
330
2
100
AcDbEntity
  8
AM_VIS
100
AcDbLine
 10
245.1040110380213
 20
587.1346344501567
 30
0.0
 11
239.9110792277842
 21
587.1346344501567
 31
0.0
  0
LINE
  5
394
330
2
100
AcDbEntity
  8
AM_VIS
100
AcDbLine
 10
272.0830871990846
 20
587.1346344501567
 30
0.0
 11
245.1040110380214
 21
587.1346344501567
 31
0.0
  0
LINE
  5
395
330
2
100
AcDbEntity
  8
AM_VIS
100
AcDbLine
 10
272.0830871990846
 20
587.1346344501567
 30
0.0
 11
284.5554230276256
 21
587.1346344501567
 31
0.0
  0
LINE
  5
396
330
2
100
AcDbEntity
  8
AM_VIS
100
AcDbLine
 10
236.6378748654617
 20
587.1346344501567
 30
0.0
 11
235.3668917484653
 21
587.1346344501567
 31
0.0
  0
ELLIPSE
  5
397
330
2
100
AcDbEntity
  8
AM_VIS
100
AcDbEllipse
 10
222.8239996800936
 20
581.1346344501568
 30
0.0
 11
0.0
 21
-14.99999999999999
 31
0.0
210
0.0
220
0.0
230
1.0
 40
0.9087002067471262
 41
2.066887001811204
 42
2.617993877991494
  0
ELLIPSE
  5
398
330
2
100
AcDbEntity
  8
AM_VIS
100
AcDbEllipse
 10
222.8239996800936
 20
581.1346344501568
 30
0.0
 11
0.0
 21
-14.99999999999999
 31
0.0
210
0.0
220
0.0
230
1.0
 40
0.9087002067471262
 41
0.523598775598299
 42
1.074705651778604
  0
LINE
  5
399
330
2
100
AcDbEntity
  8
AM_VIS
100
AcDbLine
 10
229.639251230697
 20
568.1442533933902
 30
0.0
 11
219.0719539027769
 21
561.4302327388541
 31
0.0
  0
LINE
  5
39A
330
2
100
AcDbEntity
  8
AM_VIS
100
AcDbLine
 10
219.0719539027769
 20
600.8390361614596
 30
0.0
 11
229.639251230697
 21
594.1250155069234
 31
0.0
  0
LINE
  5
39B
330
2
100
AcDbEntity
  8
AM_VIS
100
AcDbLine
 10
207.3098105881166
 20
606.6346344501567
 30
0.0
 11
209.1597925832354
 21
606.6346344501567
 31
0.0
  0
LINE
  5
39C
330
2
100
AcDbEntity
  8
AM_VIS
100
AcDbLine
 10
227.7284332471904
 20
594.8367943427106
 30
0.0
 11
207.3098105881166
 21
606.6346344501567
 31
0.0
  0
ELLIPSE
  5
39D
330
2
100
AcDbEntity
  8
AM_VIS
100
AcDbEllipse
 10
214.4117304948564
 20
603.486360565506
 30
0.0
 11
4.999757984364437
 21
-2.885492576244951
 31
0.0
210
0.0
220
0.0
230
0.9999999999999998
 40
0.017048905192669
 41
0.3806199408648585
 42
1.541263893441086
  0
LINE
  5
39E
330
2
100
AcDbEntity
  8
AM_VIS
100
AcDbLine
 10
209.1597925832353
 20
606.6346344501567
 30
0.0
 11
214.6085370900818
 21
603.486360565506
 31
0.0
  0
LINE
  5
39F
330
2
100
AcDbEntity
  8
AM_VIS
100
AcDbLine
 10
207.3098105881167
 20
555.6346344501568
 30
0.0
 11
227.7284332471904
 21
567.4324745576029
 31
0.0
  0
LINE
  5
3A0
330
2
100
AcDbEntity
  8
AM_VIS
100
AcDbLine
 10
209.1597925832354
 20
555.6346344501568
 30
0.0
 11
207.3098105881167
 21
555.6346344501568
 31
0.0
  0
LINE
  5
3A1
330
2
100
AcDbEntity
  8
AM_VIS
100
AcDbLine
 10
214.6085370900818
 20
558.7829083348075
 30
0.0
 11
209.1597925832354
 21
555.6346344501568
 31
0.0
  0
ELLIPSE
  5
3A2
330
2
100
AcDbEntity
  8
AM_VIS
100
AcDbEllipse
 10
214.4117304948564
 20
558.7829083348075
 30
0.0
 11
4.999757984364438
 21
2.885492576244952
 31
0.0
210
0.0
220
0.0
230
1.0
 40
0.017048905192669
 41
4.741921413737999
 42
5.902565366314228
  0
ELLIPSE
  5
3A3
330
2
100
AcDbEntity
  8
AM_VIS
100
AcDbEllipse
 10
221.629818560904
 20
581.1346344501568
 30
0.0
 11
0.0
 21
-15.0
 31
0.0
210
0.0
220
0.0
230
1.0
 40
0.9992250430023416
 41
0.4190464965645868
 42
2.722546157025208
  0
ELLIPSE
  5
3A4
330
2
100
AcDbEntity
  8
AM_VIS
100
AcDbEllipse
 10
221.629818560904
 20
581.1346344501568
 30
0.0
 11
0.0
 21
-15.0
 31
0.0
210
0.0
220
0.0
230
1.0
 40
0.9992250430023416
 41
0.0
 42
0.4190464965645868
  0
ELLIPSE
  5
3A5
330
2
100
AcDbEntity
  8
AM_VIS
100
AcDbEllipse
 10
221.629818560904
 20
581.1346344501568
 30
0.0
 11
0.0
 21
-15.0
 31
0.0
210
0.0
220
0.0
230
1.0
 40
0.9992250430023416
 41
2.722546157025208
 42
3.141592653589793
  0
LINE
  5
3A6
330
2
100
AcDbEntity
  8
AM_VIS
100
AcDbLine
 10
174.0578715656934
 20
565.1346344501567
 30
0.0
 11
186.6569420558221
 21
565.1346344501567
 31
0.0
  0
LINE
  5
3A7
330
2
100
AcDbEntity
  8
AM_VIS
100
AcDbLine
 10
202.6445427438595
 20
565.1346344501567
 30
0.0
 11
186.6569420558221
 21
565.1346344501567
 31
0.0
  0
LINE
  5
3A8
330
2
100
AcDbEntity
  8
AM_VIS
100
AcDbLine
 10
202.6445427438595
 20
597.1346344501568
 30
0.0
 11
202.6445427438595
 21
565.1346344501567
 31
0.0
  0
LINE
  5
3A9
330
2
100
AcDbEntity
  8
AM_VIS
100
AcDbLine
 10
186.6569420558221
 20
597.1346344501568
 30
0.0
 11
174.0578715656946
 21
597.1346344501568
 31
0.0
  0
LINE
  5
3AA
330
2
100
AcDbEntity
  8
AM_VIS
100
AcDbLine
 10
186.6569420558221
 20
597.1346344501568
 30
0.0
 11
202.6445427438595
 21
597.1346344501568
 31
0.0
  0
LINE
  5
3AB
330
2
100
AcDbEntity
  8
AM_VIS
100
AcDbLine
 10
207.3098105881166
 20
606.6346344501567
 30
0.0
 11
186.6569420558221
 21
606.6346344501567
 31
0.0
  0
LINE
  5
3AC
330
2
100
AcDbEntity
  8
AM_VIS
100
AcDbLine
 10
186.6569420558221
 20
555.6346344501568
 30
0.0
 11
207.3098105881167
 21
555.6346344501568
 31
0.0
  0
LINE
  5
3AD
330
2
100
AcDbEntity
  8
AM_VIS
100
AcDbLine
 10
186.6569420558221
 20
555.6346344501568
 30
0.0
 11
170.3260844795884
 21
555.6346344501568
 31
0.0
  0
LINE
  5
3AE
330
2
100
AcDbEntity
  8
AM_VIS
100
AcDbLine
 10
170.3260844795884
 20
606.6346344501567
 30
0.0
 11
186.6569420558221
 21
606.6346344501567
 31
0.0
  0
LINE
  5
3AF
330
2
100
AcDbEntity
  8
AM_VIS
100
AcDbLine
 10
284.5554230276257
 20
575.1346344501568
 30
0.0
 11
284.5554230276257
 21
587.1346344501567
 31
0.0
  0
ARC
  5
3B0
330
2
100
AcDbEntity
  8
AM_VIS
100
AcDbCircle
 10
221.3542893275885
 20
581.1346344501568
 30
0.0
 40
15.0
100
AcDbArc
 50
90.0
 51
270.0
  0
LINE
  5
3B1
330
2
100
AcDbEntity
  8
AM_VIS
100
AcDbLine
 10
221.3542893275885
 20
596.1346344501568
 30
0.0
 11
221.629818560904
 21
596.1346344501568
 31
0.0
  0
LINE
  5
3B2
330
2
100
AcDbEntity
  8
AM_VIS
100
AcDbLine
 10
221.3542893275885
 20
566.1346344501567
 30
0.0
 11
221.629818560904
 21
566.1346344501567
 31
0.0
  0
LINE
  5
3B3
330
2
100
AcDbEntity
  8
AM_VIS
100
AcDbLine
 10
170.3260844795884
 20
565.1346344501567
 30
0.0
 11
170.3260844795884
 21
555.6346344501568
 31
0.0
  0
LINE
  5
3B4
330
2
100
AcDbEntity
  8
AM_VIS
100
AcDbLine
 10
170.3260844795884
 20
606.6346344501567
 30
0.0
 11
170.3260844795884
 21
597.1346344501568
 31
0.0
  0
LINE
  5
3B5
330
2
100
AcDbEntity
  8
AM_VIS
100
AcDbLine
 10
87.51057289331665
 20
589.1346344501568
 30
0.0
 11
87.51057289331665
 21
573.1346344501567
 31
0.0
  0
LINE
  5
3B6
330
2
100
AcDbEntity
  8
AM_VIS
100
AcDbLine
 10
87.51057289331663
 20
573.1346344501567
 30
0.0
 11
170.1490019720149
 21
573.1346344501567
 31
0.0
  0
LINE
  5
3B7
330
2
100
AcDbEntity
  8
AM_VIS
100
AcDbLine
 10
87.51057289331663
 20
589.1346344501568
 30
0.0
 11
170.1490019720148
 21
589.1346344501568
 31
0.0
  0
LINE
  5
3B8
330
2
100
AcDbEntity
  8
AM_VIS
100
AcDbLine
 10
250.5105728933166
 20
573.1346344501567
 30
0.0
 11
244.2940525783471
 21
573.1346344501567
 31
0.0
  0
LINE
  5
3B9
330
2
100
AcDbEntity
  8
AM_VIS
100
AcDbLine
 10
250.5105728933166
 20
589.1346344501568
 30
0.0
 11
244.2940525783471
 21
589.1346344501568
 31
0.0
  0
LINE
  5
3BA
330
2
100
AcDbEntity
  8
AM_VIS
100
AcDbLine
 10
250.5105728933166
 20
589.1346344501568
 30
0.0
 11
250.5105728933166
 21
587.1346344501567
 31
0.0
  0
LINE
  5
3BB
330
2
100
AcDbEntity
  8
AM_VIS
100
AcDbLine
 10
250.5105728933166
 20
575.1346344501568
 30
0.0
 11
250.5105728933166
 21
573.1346344501567
 31
0.0
  0
LINE
  5
3BC
330
2
100
AcDbEntity
  8
AM_VIS
100
AcDbLine
 10
174.0578715656934
 20
565.1346344501567
 30
0.0
 11
170.149001972015
 21
565.1346344501567
 31
0.0
  0
LINE
  5
3BD
330
2
100
AcDbEntity
  8
AM_VIS
100
AcDbLine
 10
202.6445427438595
 20
573.1346344501567
 30
0.0
 11
170.149001972015
 21
573.1346344501567
 31
0.0
  0
LINE
  5
3BE
330
2
100
AcDbEntity
  8
AM_VIS
100
AcDbLine
 10
170.149001972015
 20
573.1346344501567
 30
0.0
 11
170.149001972015
 21
565.1346344501567
 31
0.0
  0
LINE
  5
3BF
330
2
100
AcDbEntity
  8
AM_VIS
100
AcDbLine
 10
202.6445427438595
 20
589.1346344501568
 30
0.0
 11
170.1490019720148
 21
589.1346344501568
 31
0.0
  0
LINE
  5
3C0
330
2
100
AcDbEntity
  8
AM_VIS
100
AcDbLine
 10
174.0578715656946
 20
597.1346344501568
 30
0.0
 11
170.1490019720148
 21
597.1346344501568
 31
0.0
  0
LINE
  5
3C1
330
2
100
AcDbEntity
  8
AM_VIS
100
AcDbLine
 10
170.1490019720148
 20
597.1346344501568
 30
0.0
 11
170.1490019720148
 21
589.1346344501568
 31
0.0
  0
ELLIPSE
  5
3C2
330
2
100
AcDbEntity
  8
AM_VIS
100
AcDbEllipse
 10
303.2304336856594
 20
581.1346344501567
 30
0.0
 11
0.0000000000000002
 21
-6.0
 31
0.0
210
0.0
220
0.0
230
1.0
 40
0.9921950996435391
 41
0.0
 42
3.141592653589793
  0
LINE
  5
3C3
330
2
100
AcDbEntity
  8
AM_VIS
100
AcDbLine
 10
303.2304336856594
 20
575.1346344501566
 30
0.0
 11
287.2157903045705
 21
575.1346344501566
 31
0.0
  0
LINE
  5
3C4
330
2
100
AcDbEntity
  8
AM_VIS
100
AcDbLine
 10
303.2304336856594
 20
587.1346344501566
 30
0.0
 11
287.2157903045703
 21
587.1346344501566
 31
0.0
  0
SPLINE
  5
3C5
330
2
100
AcDbEntity
  8
AM_VIS
100
AcDbSpline
210
0.0
220
0.0
230
1.0
 70
    12
 71
     2
 72
     6
 73
     3
 74
     0
 42
0.0000000001
 43
0.0000000001
 40
6.127481352770829
 40
6.127481352770829
 40
6.127481352770829
 40
6.556899924626338
 40
6.556899924626338
 40
6.556899924626338
 10
287.5434547980738
 20
586.6194645647615
 30
0.0
 41
1.24726511647967
 10
287.3782868560199
 20
586.7174800806512
 30
0.0
 41
1.25326616854676
 10
287.2157903045705
 20
586.8138060931414
 30
0.0
 41
1.258893940750921
  0
LINE
  5
3C6
330
2
100
AcDbEntity
  8
AM_VIS
100
AcDbLine
 10
287.5434547980739
 20
586.6194645647615
 30
0.0
 11
287.2157903045705
 21
586.6194645647615
 31
0.0
  0
SPLINE
  5
3C7
330
2
100
AcDbEntity
  8
AM_VIS
100
AcDbSpline
210
0.0
220
0.0
230
1.0
 70
    12
 71
     2
 72
     6
 73
     3
 74
     0
 42
0.0000000001
 43
0.0000000001
 40
13.04984894672373
 40
13.04984894672373
 40
13.04984894672373
 40
19.48188764778955
 40
19.48188764778955
 40
19.48188764778955
 10
287.5925589116848
 20
581.1346344501585
 30
0.0
 41
1.0
 10
287.5925589116848
 20
583.6801528060944
 30
0.0
 41
1.078466188711203
 10
287.5434547980739
 20
586.6194645647615
 30
0.0
 41
1.079583196665444
  0
LINE
  5
3C8
330
2
100
AcDbEntity
  8
AM_VIS
100
AcDbLine
 10
287.5434548835183
 20
575.6498094501586
 30
0.0
 11
287.2157903045705
 21
575.6498094501586
 31
0.0
  0
SPLINE
  5
3C9
330
2
100
AcDbEntity
  8
AM_VIS
100
AcDbSpline
210
0.0
220
0.0
230
1.0
 70
    12
 71
     2
 72
     6
 73
     3
 74
     0
 42
0.0000000001
 43
0.0000000001
 40
6.617815847547618
 40
6.617815847547618
 40
6.617815847547618
 40
13.04984894672373
 40
13.04984894672373
 40
13.04984894672373
 10
287.5434548835183
 20
575.6498094501586
 30
0.0
 41
1.079583194719703
 10
287.5925589116848
 20
578.5891181499033
 30
0.0
 41
1.078466120372228
 10
287.5925589116848
 20
581.1346344501585
 30
0.0
 41
1.0
  0
SPLINE
  5
3CA
330
2
100
AcDbEntity
  8
AM_VIS
100
AcDbSpline
210
0.0
220
0.0
230
1.0
 70
    12
 71
     2
 72
     6
 73
     3
 74
     0
 42
0.0000000001
 43
0.0000000001
 40
5.995270065336462
 40
5.995270065336462
 40
5.995270065336462
 40
6.424690970355181
 40
6.424690970355181
 40
6.424690970355181
 10
287.2157903045705
 20
575.4554678684137
 30
0.0
 41
1.07898134780433
 10
287.3782868966419
 20
575.5517939063107
 30
0.0
 41
1.079403878063325
 10
287.5434548835183
 20
575.6498094501586
 30
0.0
 41
1.07948173344588
  0
LINE
  5
3CB
330
2
100
AcDbEntity
  8
AM_VIS
100
AcDbLine
 10
261.5112155437017
 20
568.6346344501591
 30
0.0
 11
264.1137153468026
 21
568.6346344501591
 31
0.0
  0
LINE
  5
3CC
330
2
100
AcDbEntity
  8
AM_VIS
100
AcDbLine
 10
264.1137153468026
 20
568.6346344501591
 30
0.0
 11
264.1137153468026
 21
574.134634450159
 31
0.0
  0
LINE
  5
3CD
330
2
100
AcDbEntity
  8
AM_VIS
100
AcDbLine
 10
264.1137153468026
 20
574.1346344501589
 30
0.0
 11
261.5112155437017
 21
574.1346344501589
 31
0.0
  0
LINE
  5
3CE
330
2
100
AcDbEntity
  8
AM_VIS
100
AcDbLine
 10
261.5112155437017
 20
574.1346344501589
 30
0.0
 11
261.5112155437017
 21
568.6346344501589
 31
0.0
  0
LINE
  5
3CF
330
2
100
AcDbEntity
  8
AM_VIS
100
AcDbLine
 10
278.0044467418122
 20
574.134634450159
 30
0.0
 11
264.1137153468026
 21
574.134634450159
 31
0.0
  0
LINE
  5
3D0
330
2
100
AcDbEntity
  8
AM_VIS
100
AcDbLine
 10
281.3551175365724
 20
574.134634450159
 30
0.0
 11
278.0044467418122
 21
574.134634450159
 31
0.0
  0
LINE
  5
3D1
330
2
100
AcDbEntity
  8
AM_VIS
100
AcDbLine
 10
284.3478015032097
 20
574.134634450159
 30
0.0
 11
281.3551175365724
 21
574.134634450159
 31
0.0
  0
LINE
  5
3D2
330
2
100
AcDbEntity
  8
AM_VIS
100
AcDbLine
 10
278.0044467418122
 20
568.6346344501591
 30
0.0
 11
264.1137153468026
 21
568.6346344501591
 31
0.0
  0
LINE
  5
3D3
330
2
100
AcDbEntity
  8
AM_VIS
100
AcDbLine
 10
278.0044467418122
 20
574.134634450159
 30
0.0
 11
278.0044467418122
 21
568.6346344501591
 31
0.0
  0
LINE
  5
3D4
330
2
100
AcDbEntity
  8
AM_VIS
100
AcDbLine
 10
278.0044467418122
 20
568.6346344501591
 30
0.0
 11
281.3551175365724
 21
568.6346344501591
 31
0.0
  0
LINE
  5
3D5
330
2
100
AcDbEntity
  8
AM_VIS
100
AcDbLine
 10
281.3551175365724
 20
568.6346344501591
 30
0.0
 11
281.3551175365724
 21
574.134634450159
 31
0.0
  0
LINE
  5
3D6
330
2
100
AcDbEntity
  8
AM_VIS
100
AcDbLine
 10
281.3551175365724
 20
593.6346344501591
 30
0.0
 11
278.0044467418122
 21
593.6346344501591
 31
0.0
  0
LINE
  5
3D7
330
2
100
AcDbEntity
  8
AM_VIS
100
AcDbLine
 10
278.0044467418122
 20
593.6346344501591
 30
0.0
 11
278.0044467418122
 21
588.134634450159
 31
0.0
  0
LINE
  5
3D8
330
2
100
AcDbEntity
  8
AM_VIS
100
AcDbLine
 10
278.0044467418122
 20
588.134634450159
 30
0.0
 11
281.3551175365724
 21
588.134634450159
 31
0.0
  0
LINE
  5
3D9
330
2
100
AcDbEntity
  8
AM_VIS
100
AcDbLine
 10
281.3551175365724
 20
588.134634450159
 30
0.0
 11
281.3551175365724
 21
593.6346344501591
 31
0.0
  0
LINE
  5
3DA
330
2
100
AcDbEntity
  8
AM_VIS
100
AcDbLine
 10
264.1137153468026
 20
588.134634450159
 30
0.0
 11
278.0044467418122
 21
588.134634450159
 31
0.0
  0
LINE
  5
3DB
330
2
100
AcDbEntity
  8
AM_VIS
100
AcDbLine
 10
261.5112155437016
 20
588.1346344501589
 30
0.0
 11
264.1137153468026
 21
588.1346344501589
 31
0.0
  0
LINE
  5
3DC
330
2
100
AcDbEntity
  8
AM_VIS
100
AcDbLine
 10
281.3551175365724
 20
588.134634450159
 30
0.0
 11
284.3478015032097
 21
588.134634450159
 31
0.0
  0
LINE
  5
3DD
330
2
100
AcDbEntity
  8
AM_VIS
100
AcDbLine
 10
264.1137153468026
 20
593.6346344501591
 30
0.0
 11
278.0044467418122
 21
593.6346344501591
 31
0.0
  0
LINE
  5
3DE
330
2
100
AcDbEntity
  8
AM_VIS
100
AcDbLine
 10
264.1137153468026
 20
588.134634450159
 30
0.0
 11
264.1137153468026
 21
593.6346344501591
 31
0.0
  0
LINE
  5
3DF
330
2
100
AcDbEntity
  8
AM_VIS
100
AcDbLine
 10
264.1137153468026
 20
593.6346344501591
 30
0.0
 11
261.5112155437017
 21
593.6346344501591
 31
0.0
  0
LINE
  5
3E0
330
2
100
AcDbEntity
  8
AM_VIS
100
AcDbLine
 10
261.5112155437016
 20
593.6346344501589
 30
0.0
 11
261.5112155437016
 21
588.1346344501589
 31
0.0
  0
LINE
  5
3E1
330
2
100
AcDbEntity
  8
AM_VIS
100
AcDbLine
 10
284.3478015032097
 20
588.134634450159
 30
0.0
 11
284.3478015032097
 21
587.1346344501569
 31
0.0
  0
LINE
  5
3E2
330
2
100
AcDbEntity
  8
AM_VIS
100
AcDbLine
 10
284.3478015032097
 20
575.1346344501569
 30
0.0
 11
284.3478015032097
 21
574.1346344501591
 31
0.0
  0
LINE
  5
3E3
330
2
100
AcDbEntity
  8
AM_VIS
100
AcDbLine
 10
264.503899510339
 20
574.134634450159
 30
0.0
 11
264.503899510339
 21
575.1346344501569
 31
0.0
  0
LINE
  5
3E4
330
2
100
AcDbEntity
  8
AM_VIS
100
AcDbLine
 10
264.503899510339
 20
587.1346344501569
 30
0.0
 11
264.503899510339
 21
588.134634450159
 31
0.0
  0
LINE
  5
3E5
330
2
100
AcDbEntity
  8
AM_VIS
100
AcDbLine
 10
287.2157903045705
 20
568.6346344501591
 30
0.0
 11
281.3551175365724
 21
568.6346344501591
 31
0.0
  0
LINE
  5
3E6
330
2
100
AcDbEntity
  8
AM_VIS
100
AcDbLine
 10
287.2157903045705
 20
593.6346344501591
 30
0.0
 11
287.2157903045705
 21
568.6346344501591
 31
0.0
  0
LINE
  5
3E7
330
2
100
AcDbEntity
  8
AM_VIS
100
AcDbLine
 10
287.2157903045705
 20
593.6346344501591
 30
0.0
 11
281.3551175365724
 21
593.6346344501591
 31
0.0
  0
LINE
  5
3E8
330
2
100
AcDbEntity
  8
AM_VIS
100
AcDbLine
 10
200.4302305652211
 20
607.0284280364937
 30
0.0
 11
200.4302305652211
 21
613.2408408638198
 31
0.0
  0
SPLINE
  5
3E9
330
2
100
AcDbEntity
  8
AM_VIS
100
AcDbSpline
210
0.0
220
0.0
230
1.0
 70
    12
 71
     2
 72
     6
 73
     3
 74
     0
 42
0.0000000001
 43
0.0000000001
 40
6.127481352770829
 40
6.127481352770829
 40
6.127481352770829
 40
19.93462170228486
 40
19.93462170228486
 40
19.93462170228486
 10
194.9454030079196
 20
607.0284276938804
 30
0.0
 41
1.24726511647967
 10
197.6878166267391
 20
606.2936004363656
 30
0.0
 41
1.440217572580999
 10
200.4302305652211
 20
607.0284280364937
 30
0.0
 41
1.247265038568449
  0
SPLINE
  5
3EA
330
2
100
AcDbEntity
  8
AM_VIS
100
AcDbSpline
210
0.0
220
0.0
230
1.0
 70
    12
 71
     2
 72
     6
 73
     3
 74
     0
 42
0.0000000001
 43
0.0000000001
 40
6.127478565216442
 40
6.127478565216442
 40
6.127478565216442
 40
19.9346189147304
 40
19.9346189147304
 40
19.9346189147304
 10
200.4302305652211
 20
613.2408408638198
 30
0.0
 41
1.24726503856845
 10
197.6878166267391
 20
613.9756684639479
 30
0.0
 41
1.440217572580998
 10
194.9454030079196
 20
613.2408412064332
 30
0.0
 41
1.247265116479671
  0
LINE
  5
3EB
330
2
100
AcDbEntity
  8
AM_VIS
100
AcDbLine
 10
194.9454030079196
 20
607.0284276938804
 30
0.0
 11
194.9454030079196
 21
613.2408412064332
 31
0.0
  0
SPLINE
  5
3EC
330
2
100
AcDbEntity
  8
AM_VIS
100
AcDbSpline
210
0.0
220
0.0
230
1.0
 70
    12
 71
     2
 72
     6
 73
     3
 74
     0
 42
0.0000000001
 43
0.0000000001
 40
13.04984894672373
 40
13.04984894672373
 40
13.04984894672373
 40
19.48188764778955
 40
19.48188764778955
 40
19.48188764778955
 10
189.4605728933167
 20
606.6346344501567
 30
0.0
 41
1.0
 10
192.0060912492526
 20
606.6346344501567
 30
0.0
 41
1.078466188711203
 10
194.9454030079196
 20
607.0284276938804
 30
0.0
 41
1.079583196665444
  0
SPLINE
  5
3ED
330
2
100
AcDbEntity
  8
AM_VIS
100
AcDbSpline
210
0.0
220
0.0
230
1.0
 70
    12
 71
     2
 72
     6
 73
     3
 74
     0
 42
0.0000000001
 43
0.0000000001
 40
6.617810245657917
 40
6.617810245657917
 40
6.617810245657917
 40
13.04984894672373
 40
13.04984894672373
 40
13.04984894672373
 10
194.9454030079196
 20
613.2408412064332
 30
0.0
 41
1.079583196665445
 10
192.0060912492526
 20
613.6346344501568
 30
0.0
 41
1.078466188711203
 10
189.4605728933167
 20
613.6346344501568
 30
0.0
 41
1.0
  0
SPLINE
  5
3EE
330
2
100
AcDbEntity
  8
AM_VIS
100
AcDbSpline
210
0.0
220
0.0
230
1.0
 70
    12
 71
     2
 72
     6
 73
     3
 74
     0
 42
0.0000000001
 43
0.0000000001
 40
13.04984894672373
 40
13.04984894672373
 40
13.04984894672373
 40
19.48188204589988
 40
19.48188204589988
 40
19.48188204589988
 10
189.4605728933167
 20
613.6346344501568
 30
0.0
 41
1.0
 10
186.9150565930614
 20
613.6346344501568
 30
0.0
 41
1.078466120372243
 10
183.9757478933167
 20
613.2408418916599
 30
0.0
 41
1.079583194719717
  0
LINE
  5
3EF
330
2
100
AcDbEntity
  8
AM_VIS
100
AcDbLine
 10
183.9757478933167
 20
607.0284270086536
 30
0.0
 11
183.9757478933167
 21
613.2408418916599
 31
0.0
  0
SPLINE
  5
3F0
330
2
100
AcDbEntity
  8
AM_VIS
100
AcDbSpline
210
0.0
220
0.0
230
1.0
 70
    12
 71
     2
 72
     6
 73
     3
 74
     0
 42
0.0000000001
 43
0.0000000001
 40
6.617815847547611
 40
6.617815847547611
 40
6.617815847547611
 40
13.04984894672373
 40
13.04984894672373
 40
13.04984894672373
 10
183.9757478933167
 20
607.0284270086536
 30
0.0
 41
1.079583194719702
 10
186.9150565930614
 20
606.6346344501567
 30
0.0
 41
1.078466120372227
 10
189.4605728933167
 20
606.6346344501567
 30
0.0
 41
1.0
  0
SPLINE
  5
3F1
330
2
100
AcDbEntity
  8
AM_VIS
100
AcDbSpline
210
0.0
220
0.0
230
1.0
 70
    12
 71
     2
 72
     6
 73
     3
 74
     0
 42
0.0000000001
 43
0.0000000001
 40
0.0
 40
0.0
 40
0.0
 40
6.424690970349674
 40
6.424690970349674
 40
6.424690970349674
 10
181.2365768943412
 20
606.6346344501567
 30
0.0
 41
1.0
 10
182.5078306585139
 20
606.6350996334907
 30
0.0
 41
1.078316916438819
 10
183.9757478933167
 20
607.0284270086536
 30
0.0
 41
1.079481733445788
  0
SPLINE
  5
3F2
330
2
100
AcDbEntity
  8
AM_VIS
100
AcDbSpline
210
0.0
220
0.0
230
1.0
 70
    12
 71
     2
 72
     6
 73
     3
 74
     0
 42
0.0000000001
 43
0.0000000001
 40
6.618686710241831
 40
6.618686710241831
 40
6.618686710241831
 40
13.043377680597
 40
13.043377680597
 40
13.043377680597
 10
183.9757478933167
 20
613.2408418916599
 30
0.0
 41
1.079481733445879
 10
182.5078306585126
 20
613.6341692668232
 30
0.0
 41
1.078316916438945
 10
181.2365768943387
 20
613.6346344501568
 30
0.0
 41
1.0
  0
LINE
  5
3F3
330
2
100
AcDbEntity
  8
AM_VIS
100
AcDbLine
 10
181.2365768943463
 20
613.6346344501568
 30
0.0
 11
181.230090056335
 21
613.6346344501568
 31
0.0
  0
SPLINE
  5
3F4
330
2
100
AcDbEntity
  8
AM_VIS
100
AcDbSpline
210
0.0
220
0.0
230
1.0
 70
    12
 71
     2
 72
     6
 73
     3
 74
     0
 42
0.0000000001
 43
0.0000000001
 40
0.0
 40
0.0
 40
0.0
 40
6.424688169171937
 40
6.424688169171937
 40
6.424688169171937
 10
181.2300900563425
 20
613.6346344501568
 30
0.0
 41
1.0
 10
179.9588368061829
 20
613.6341692670113
 30
0.0
 41
1.078316882292519
 10
178.4909203360153
 20
613.2408422342735
 30
0.0
 41
1.079481732430106
  0
LINE
  5
3F5
330
2
100
AcDbEntity
  8
AM_VIS
100
AcDbLine
 10
178.4909203360153
 20
607.0284266660401
 30
0.0
 11
178.4909203360153
 21
613.2408422342735
 31
0.0
  0
SPLINE
  5
3F6
330
2
100
AcDbEntity
  8
AM_VIS
100
AcDbSpline
210
0.0
220
0.0
230
1.0
 70
    12
 71
     2
 72
     6
 73
     3
 74
     0
 42
0.0000000001
 43
0.0000000001
 40
6.618689511425707
 40
6.618689511425707
 40
6.618689511425707
 40
13.04337768059216
 40
13.04337768059216
 40
13.04337768059216
 10
178.4909203360153
 20
607.0284266660401
 30
0.0
 41
1.079481732430058
 10
179.9588368061815
 20
606.6350996333027
 30
0.0
 41
1.078316882292436
 10
181.2300900563401
 20
606.6346344501567
 30
0.0
 41
1.0
  0
LINE
  5
3F7
330
2
100
AcDbEntity
  8
AM_VIS
100
AcDbLine
 10
179.9605728933167
 20
613.6346344501568
 30
0.0
 11
181.230090056335
 21
613.6346344501568
 31
0.0
  0
LINE
  5
3F8
330
2
100
AcDbEntity
  8
AM_VIS
100
AcDbLine
 10
189.4605728933167
 20
613.6346344501568
 30
0.0
 11
198.9605728933167
 21
613.6346344501568
 31
0.0
  0
LINE
  5
3F9
330
2
100
AcDbEntity
  8
AM_VIS
100
AcDbLine
 10
181.2365768943463
 20
613.6346344501568
 30
0.0
 11
189.4605728933167
 21
613.6346344501568
 31
0.0
  0
LINE
  5
3FA
330
2
100
AcDbEntity
  8
AM_VIS
100
AcDbLine
 10
179.9605728933167
 20
606.6346344501568
 30
0.0
 11
178.4909203360153
 21
607.0284266660401
 31
0.0
  0
LINE
  5
3FB
330
2
100
AcDbEntity
  8
AM_VIS
100
AcDbLine
 10
179.9605728933167
 20
613.6346344501568
 30
0.0
 11
178.4909203360153
 21
613.2408422342734
 31
0.0
  0
LINE
  5
3FC
330
2
100
AcDbEntity
  8
AM_VIS
100
AcDbLine
 10
198.9605728933167
 20
613.6346344501568
 30
0.0
 11
200.4302305652211
 21
613.2408408638198
 31
0.0
  0
LINE
  5
3FD
330
2
100
AcDbEntity
  8
AM_VIS
100
AcDbLine
 10
198.9605728933167
 20
606.6346344501568
 30
0.0
 11
200.4302305652211
 21
607.0284280364939
 31
0.0
  0
LINE
  5
3FE
330
2
100
AcDbEntity
  8
AM_VIS
100
AcDbLine
 10
196.9605728933177
 20
552.1346344501568
 30
0.0
 11
189.4605728933177
 21
552.1346344501568
 31
0.0
  0
LINE
  5
3FF
330
2
100
AcDbEntity
  8
AM_VIS
100
AcDbLine
 10
189.4605728933177
 20
552.1346344501568
 30
0.0
 11
181.9605728933177
 21
552.1346344501568
 31
0.0
  0
LINE
  5
400
330
2
100
AcDbEntity
  8
AM_VIS
100
AcDbLine
 10
181.4605728933177
 20
552.6346344501568
 30
0.0
 11
189.4605728933177
 21
552.6346344501568
 31
0.0
  0
LINE
  5
401
330
2
100
AcDbEntity
  8
AM_VIS
100
AcDbLine
 10
189.4605728933177
 20
552.6346344501568
 30
0.0
 11
197.4605728933177
 21
552.6346344501568
 31
0.0
  0
LINE
  5
402
330
2
100
AcDbEntity
  8
AM_VIS
100
AcDbLine
 10
195.7855728933177
 20
615.2846344501568
 30
0.0
 11
189.4605728933177
 21
615.2846344501568
 31
0.0
  0
LINE
  5
403
330
2
100
AcDbEntity
  8
AM_VIS
100
AcDbLine
 10
189.4605728933177
 20
615.2846344501568
 30
0.0
 11
183.1355728933177
 21
615.2846344501568
 31
0.0
  0
LINE
  5
404
330
2
100
AcDbEntity
  8
AM_VIS
100
AcDbLine
 10
184.1355728933177
 20
616.2846344501568
 30
0.0
 11
189.4605728933177
 21
616.2846344501568
 31
0.0
  0
LINE
  5
405
330
2
100
AcDbEntity
  8
AM_VIS
100
AcDbLine
 10
189.4605728933177
 20
616.2846344501568
 30
0.0
 11
194.7855728933177
 21
616.2846344501568
 31
0.0
  0
LINE
  5
406
330
2
100
AcDbEntity
  8
AM_VIS
100
AcDbLine
 10
181.9605728933177
 20
552.1346344501568
 30
0.0
 11
181.4605728933177
 21
552.6346344501568
 31
0.0
  0
LINE
  5
407
330
2
100
AcDbEntity
  8
AM_VIS
100
AcDbLine
 10
196.9605728933177
 20
552.1346344501568
 30
0.0
 11
197.4605728933177
 21
552.6346344501568
 31
0.0
  0
LINE
  5
408
330
2
100
AcDbEntity
  8
AM_VIS
100
AcDbLine
 10
181.4605728933177
 20
552.6346344501568
 30
0.0
 11
181.4605728933177
 21
555.6346344501569
 31
0.0
  0
LINE
  5
409
330
2
100
AcDbEntity
  8
AM_VIS
100
AcDbLine
 10
197.4605728933177
 20
552.6346344501568
 30
0.0
 11
197.4605728933177
 21
555.6346344501569
 31
0.0
  0
LINE
  5
40A
330
2
100
AcDbEntity
  8
AM_VIS
100
AcDbLine
 10
194.7855728933177
 20
616.2846344501568
 30
0.0
 11
195.7855728933177
 21
615.2846344501568
 31
0.0
  0
LINE
  5
40B
330
2
100
AcDbEntity
  8
AM_VIS
100
AcDbLine
 10
184.1355728933177
 20
616.2846344501568
 30
0.0
 11
183.1355728933177
 21
615.2846344501568
 31
0.0
  0
LINE
  5
40C
330
2
100
AcDbEntity
  8
AM_VIS
100
AcDbLine
 10
183.1355728933177
 20
613.6346344501568
 30
0.0
 11
183.1355728933177
 21
615.2846344501567
 31
0.0
  0
LINE
  5
40D
330
2
100
AcDbEntity
  8
AM_VIS
100
AcDbLine
 10
195.7855728933177
 20
613.6346344501568
 30
0.0
 11
195.7855728933177
 21
615.2846344501567
 31
0.0
  0
SPLINE
  5
40E
330
2
100
AcDbEntity
  8
AM_VIS
100
AcDbSpline
210
0.0
220
0.0
230
1.0
 70
    12
 71
     2
 72
     6
 73
     3
 74
     0
 42
0.0000000001
 43
0.0000000001
 40
0.0
 40
0.0
 40
0.0
 40
4.489346956745006
 40
4.489346956745006
 40
4.489346956745006
 10
294.6915840199271
 20
538.3955630318659
 30
0.0
 41
1.0
 10
297.0160710323741
 20
537.789653993458
 30
0.0
 41
1.01528023573722
 10
299.1097655973894
 20
537.6246344501567
 30
0.0
 41
1.0
  0
LINE
  5
40F
330
2
100
AcDbEntity
  8
AM_VIS
100
AcDbLine
 10
293.4071055216687
 20
538.3955630318659
 30
0.0
 11
294.6915840199272
 21
538.3955630318659
 31
0.0
  0
SPLINE
  5
410
330
2
100
AcDbEntity
  8
AM_VIS
100
AcDbSpline
210
0.0
220
0.0
230
1.0
 70
    12
 71
     2
 72
     6
 73
     3
 74
     0
 42
0.0000000001
 43
0.0000000001
 40
0.0
 40
0.0
 40
0.0
 40
4.489200933507459
 40
4.489200933507459
 40
4.489200933507459
 10
291.1980885843403
 20
537.6246344501567
 30
0.0
 41
1.0
 10
292.2449008700336
 20
537.7896687324463
 30
0.0
 41
1.015279190562461
 10
293.4071055216687
 20
538.3955630318659
 30
0.0
 41
1.0
  0
LINE
  5
411
330
2
100
AcDbEntity
  8
AM_VIS
100
AcDbLine
 10
291.1980885843403
 20
537.6246344501567
 30
0.0
 11
299.1097655973894
 21
537.6246344501567
 31
0.0
  0
SPLINE
  5
412
330
2
100
AcDbEntity
  8
AM_VIS
100
AcDbSpline
210
0.0
220
0.0
230
1.0
 70
    12
 71
     2
 72
     6
 73
     3
 74
     0
 42
0.0000000001
 43
0.0000000001
 40
0.0
 40
0.0
 40
0.0
 40
4.489200933507414
 40
4.489200933507414
 40
4.489200933507414
 10
287.3351973528968
 20
538.3955630318659
 30
0.0
 41
1.0
 10
288.4974020045319
 20
537.7896687324463
 30
0.0
 41
1.015279190563105
 10
289.5442142902252
 20
537.6246344501569
 30
0.0
 41
1.0
  0
LINE
  5
413
330
2
100
AcDbEntity
  8
AM_VIS
100
AcDbLine
 10
287.3147369010293
 20
538.3955630318659
 30
0.0
 11
287.3351973528968
 21
538.3955630318659
 31
0.0
  0
LINE
  5
414
330
2
100
AcDbEntity
  8
AM_VIS
100
AcDbLine
 10
288.6500243735566
 20
537.6246344501567
 30
0.0
 11
289.5442142902252
 21
537.6246344501567
 31
0.0
  0
LINE
  5
415
330
2
100
AcDbEntity
  8
AM_VIS
100
AcDbLine
 10
314.1916750825009
 20
538.3955630318659
 30
0.0
 11
314.2121369010293
 21
538.3955630318659
 31
0.0
  0
SPLINE
  5
416
330
2
100
AcDbEntity
  8
AM_VIS
100
AcDbSpline
210
0.0
220
0.0
230
1.0
 70
    12
 71
     2
 72
     6
 73
     3
 74
     0
 42
0.0000000001
 43
0.0000000001
 40
0.0
 40
0.0
 40
0.0
 40
4.489259339835413
 40
4.489259339835413
 40
4.489259339835413
 10
311.9826286061008
 20
537.6246344501567
 30
0.0
 41
1.0
 10
313.0294548898142
 20
537.7896628372074
 30
0.0
 41
1.015279608607052
 10
314.1916750825009
 20
538.3955630318659
 30
0.0
 41
1.0
  0
LINE
  5
417
330
2
100
AcDbEntity
  8
AM_VIS
100
AcDbLine
 10
311.982628606101
 20
537.6246344501567
 30
0.0
 11
312.8768494285021
 21
537.6246344501567
 31
0.0
  0
SPLINE
  5
418
330
2
100
AcDbEntity
  8
AM_VIS
100
AcDbSpline
210
0.0
220
0.0
230
1.0
 70
    12
 71
     2
 72
     6
 73
     3
 74
     0
 42
0.0000000001
 43
0.0000000001
 40
0.0
 40
0.0
 40
0.0
 40
4.489259339835388
 40
4.489259339835388
 40
4.489259339835388
 10
308.1197890287178
 20
538.3955630318659
 30
0.0
 41
1.0
 10
309.2820092214046
 20
537.7896628372074
 30
0.0
 41
1.01527960860693
 10
310.3288355051178
 20
537.6246344501567
 30
0.0
 41
1.0
  0
LINE
  5
419
330
2
100
AcDbEntity
  8
AM_VIS
100
AcDbLine
 10
306.8352897821315
 20
538.3955630318659
 30
0.0
 11
308.1197890287179
 21
538.3955630318659
 31
0.0
  0
SPLINE
  5
41A
330
2
100
AcDbEntity
  8
AM_VIS
100
AcDbSpline
210
0.0
220
0.0
230
1.0
 70
    12
 71
     2
 72
     6
 73
     3
 74
     0
 42
0.0000000001
 43
0.0000000001
 40
0.0
 40
0.0
 40
0.0
 40
4.489346956745006
 40
4.489346956745006
 40
4.489346956745006
 10
302.4171082046693
 20
537.6246344501567
 30
0.0
 41
1.0
 10
304.5108027696848
 20
537.789653993458
 30
0.0
 41
1.01528023573722
 10
306.8352897821316
 20
538.3955630318659
 30
0.0
 41
1.0
  0
LINE
  5
41B
330
2
100
AcDbEntity
  8
AM_VIS
100
AcDbLine
 10
302.4171082046693
 20
537.6246344501567
 30
0.0
 11
310.3288355051178
 21
537.6246344501567
 31
0.0
  0
LINE
  5
41C
330
2
100
AcDbEntity
  8
AM_VIS
100
AcDbLine
 10
294.6915840199272
 20
541.7955630318659
 30
0.0
 11
294.6915840199272
 21
538.3955630318659
 31
0.0
  0
LINE
  5
41D
330
2
100
AcDbEntity
  8
AM_VIS
100
AcDbLine
 10
293.4071055216687
 20
541.7955630318659
 30
0.0
 11
294.6915840199272
 21
541.7955630318659
 31
0.0
  0
LINE
  5
41E
330
2
100
AcDbEntity
  8
AM_VIS
100
AcDbLine
 10
293.4071055216687
 20
538.3955630318659
 30
0.0
 11
293.4071055216687
 21
541.7955630318659
 31
0.0
  0
LINE
  5
41F
330
2
100
AcDbEntity
  8
AM_VIS
100
AcDbLine
 10
287.3351973528968
 20
541.7955630318659
 30
0.0
 11
287.3351973528968
 21
538.3955630318659
 31
0.0
  0
LINE
  5
420
330
2
100
AcDbEntity
  8
AM_VIS
100
AcDbLine
 10
287.3147369010293
 20
541.7955630318659
 30
0.0
 11
287.3351973528968
 21
541.7955630318659
 31
0.0
  0
LINE
  5
421
330
2
100
AcDbEntity
  8
AM_VIS
100
AcDbLine
 10
314.1916750825009
 20
541.7955630318659
 30
0.0
 11
314.2121369010293
 21
541.7955630318659
 31
0.0
  0
LINE
  5
422
330
2
100
AcDbEntity
  8
AM_VIS
100
AcDbLine
 10
314.1916750825008
 20
538.3955630318659
 30
0.0
 11
314.1916750825008
 21
541.7955630318659
 31
0.0
  0
SPLINE
  5
423
330
2
100
AcDbEntity
  8
AM_VIS
100
AcDbSpline
210
0.0
220
0.0
230
1.0
 70
    12
 71
     2
 72
     6
 73
     3
 74
     0
 42
0.0000000001
 43
0.0000000001
 40
0.0
 40
0.0
 40
0.0
 40
5.590835352818166
 40
5.590835352818166
 40
5.590835352818166
 10
300.2111910347907
 20
542.6246344501568
 30
0.0
 41
1.0
 10
297.6070372488179
 20
542.5555154226436
 30
0.0
 41
1.02435951945957
 10
294.6915840199272
 20
541.7955630318659
 30
0.0
 41
1.0
  0
SPLINE
  5
424
330
2
100
AcDbEntity
  8
AM_VIS
100
AcDbSpline
210
0.0
220
0.0
230
1.0
 70
    12
 71
     2
 72
     6
 73
     3
 74
     0
 42
0.0000000001
 43
0.0000000001
 40
0.0
 40
0.0
 40
0.0
 40
5.59028604994716
 40
5.59028604994716
 40
5.59028604994716
 10
293.4071055216687
 20
541.7955630318659
 30
0.0
 41
1.0
 10
291.949524758872
 20
542.5554463053322
 30
0.0
 41
1.024354465647418
 10
290.6475781441283
 20
542.6246344501568
 30
0.0
 41
1.0
  0
SPLINE
  5
425
330
2
100
AcDbEntity
  8
AM_VIS
100
AcDbSpline
210
0.0
220
0.0
230
1.0
 70
    12
 71
     2
 72
     6
 73
     3
 74
     0
 42
0.0000000001
 43
0.0000000001
 40
0.0
 40
0.0
 40
0.0
 40
5.590286049947125
 40
5.590286049947125
 40
5.590286049947125
 10
290.0947247304372
 20
542.6246344501569
 30
0.0
 41
1.0
 10
288.7927781156935
 20
542.5554463053322
 30
0.0
 41
1.02435446564768
 10
287.3351973528968
 20
541.7955630318659
 30
0.0
 41
1.0
  0
SPLINE
  5
426
330
2
100
AcDbEntity
  8
AM_VIS
100
AcDbSpline
210
0.0
220
0.0
230
1.0
 70
    12
 71
     2
 72
     6
 73
     3
 74
     0
 42
0.0000000001
 43
0.0000000001
 40
0.0
 40
0.0
 40
0.0
 40
5.590505691017647
 40
5.590505691017647
 40
5.590505691017647
 10
314.1916750825009
 20
541.7955630318659
 30
0.0
 41
1.0
 10
312.7340360002464
 20
542.5554739413797
 30
0.0
 41
1.024356486367967
 10
311.4320372931434
 20
542.6246344501568
 30
0.0
 41
1.0
  0
LINE
  5
427
330
2
100
AcDbEntity
  8
AM_VIS
100
AcDbLine
 10
308.1197890287178
 20
541.7955630318659
 30
0.0
 11
308.1197890287178
 21
538.3955630318659
 31
0.0
  0
LINE
  5
428
330
2
100
AcDbEntity
  8
AM_VIS
100
AcDbLine
 10
306.8352897821315
 20
541.7955630318659
 30
0.0
 11
308.1197890287179
 21
541.7955630318659
 31
0.0
  0
LINE
  5
429
330
2
100
AcDbEntity
  8
AM_VIS
100
AcDbLine
 10
306.8352897821315
 20
538.3955630318659
 30
0.0
 11
306.8352897821315
 21
541.7955630318659
 31
0.0
  0
SPLINE
  5
42A
330
2
100
AcDbEntity
  8
AM_VIS
100
AcDbSpline
210
0.0
220
0.0
230
1.0
 70
    12
 71
     2
 72
     6
 73
     3
 74
     0
 42
0.0000000001
 43
0.0000000001
 40
0.0
 40
0.0
 40
0.0
 40
5.590505691017647
 40
5.590505691017647
 40
5.590505691017647
 10
310.8794268180753
 20
542.6246344501568
 30
0.0
 41
1.0
 10
309.5774281109723
 20
542.5554739413797
 30
0.0
 41
1.024356486368036
 10
308.1197890287178
 20
541.7955630318659
 30
0.0
 41
1.0
  0
SPLINE
  5
42B
330
2
100
AcDbEntity
  8
AM_VIS
100
AcDbSpline
210
0.0
220
0.0
230
1.0
 70
    12
 71
     2
 72
     6
 73
     3
 74
     0
 42
0.0000000001
 43
0.0000000001
 40
0.0
 40
0.0
 40
0.0
 40
5.590835352818166
 40
5.590835352818166
 40
5.590835352818166
 10
306.8352897821315
 20
541.7955630318659
 30
0.0
 41
1.0
 10
303.9198365532409
 20
542.5555154226436
 30
0.0
 41
1.02435951945957
 10
301.3156827672681
 20
542.6246344501568
 30
0.0
 41
1.0
  0
LINE
  5
42C
330
2
100
AcDbEntity
  8
AM_VIS
100
AcDbLine
 10
302.4171082046693
 20
537.6246344501567
 30
0.0
 11
299.1097655973894
 21
537.6246344501567
 31
0.0
  0
LINE
  5
42D
330
2
100
AcDbEntity
  8
AM_VIS
100
AcDbLine
 10
291.1980885843403
 20
537.6246344501567
 30
0.0
 11
289.5442142902252
 21
537.6246344501567
 31
0.0
  0
LINE
  5
42E
330
2
100
AcDbEntity
  8
AM_VIS
100
AcDbLine
 10
311.9826286061009
 20
537.6246344501567
 30
0.0
 11
310.3288355051177
 21
537.6246344501567
 31
0.0
  0
LINE
  5
42F
330
2
100
AcDbEntity
  8
AM_VIS
100
AcDbLine
 10
306.7634369010294
 20
550.8846344501555
 30
0.0
 11
306.7634369010294
 21
550.3846344501567
 31
0.0
  0
LINE
  5
430
330
2
100
AcDbEntity
  8
AM_VIS
100
AcDbLine
 10
294.7634369010294
 20
550.8846344501555
 30
0.0
 11
294.7634369010294
 21
550.3846344501567
 31
0.0
  0
LINE
  5
431
330
2
100
AcDbEntity
  8
AM_VIS
100
AcDbLine
 10
288.6500243735566
 20
537.6246344501569
 30
0.0
 11
287.3147369010294
 21
538.3955630318659
 31
0.0
  0
LINE
  5
432
330
2
100
AcDbEntity
  8
AM_VIS
100
AcDbLine
 10
312.8768494285021
 20
537.6246344501567
 30
0.0
 11
314.2121369010293
 21
538.3955630318658
 31
0.0
  0
LINE
  5
433
330
2
100
AcDbEntity
  8
AM_VIS
100
AcDbLine
 10
287.3147369010293
 20
541.7955630318659
 30
0.0
 11
287.3147369010293
 21
538.3955630318659
 31
0.0
  0
LINE
  5
434
330
2
100
AcDbEntity
  8
AM_VIS
100
AcDbLine
 10
314.2121369010293
 20
541.7955630318659
 30
0.0
 11
314.2121369010293
 21
538.3955630318659
 31
0.0
  0
LINE
  5
435
330
2
100
AcDbEntity
  8
AM_VIS
100
AcDbLine
 10
288.7507307206124
 20
542.6246344501568
 30
0.0
 11
287.3147369010294
 21
541.7955630318659
 31
0.0
  0
LINE
  5
436
330
2
100
AcDbEntity
  8
AM_VIS
100
AcDbLine
 10
312.7761430814464
 20
542.6246344501568
 30
0.0
 11
314.2121369010293
 21
541.7955630318659
 31
0.0
  0
LINE
  5
437
330
2
100
AcDbEntity
  8
AM_VIS
100
AcDbLine
 10
287.3351987195579
 20
623.9537058684477
 30
0.0
 11
287.3147369010293
 21
623.9537058684477
 31
0.0
  0
SPLINE
  5
438
330
2
100
AcDbEntity
  8
AM_VIS
100
AcDbSpline
210
0.0
220
0.0
230
1.0
 70
    12
 71
     2
 72
     6
 73
     3
 74
     0
 42
0.0000000001
 43
0.0000000001
 40
0.0
 40
0.0
 40
0.0
 40
4.489259339835058
 40
4.489259339835058
 40
4.489259339835058
 10
289.5442451959577
 20
624.7246344501568
 30
0.0
 41
1.0
 10
288.4974189122446
 20
624.5596060631062
 30
0.0
 41
1.015279608606588
 10
287.3351987195579
 20
623.9537058684477
 30
0.0
 41
1.0
  0
LINE
  5
439
330
2
100
AcDbEntity
  8
AM_VIS
100
AcDbLine
 10
289.5442451959577
 20
624.7246344501568
 30
0.0
 11
288.6500243735566
 21
624.7246344501568
 31
0.0
  0
SPLINE
  5
43A
330
2
100
AcDbEntity
  8
AM_VIS
100
AcDbSpline
210
0.0
220
0.0
230
1.0
 70
    12
 71
     2
 72
     6
 73
     3
 74
     0
 42
0.0000000001
 43
0.0000000001
 40
0.0
 40
0.0
 40
0.0
 40
4.489259339835054
 40
4.489259339835054
 40
4.489259339835054
 10
293.407084773341
 20
623.9537058684477
 30
0.0
 41
1.0
 10
292.2448645806543
 20
624.5596060631062
 30
0.0
 41
1.015279608606679
 10
291.1980382969411
 20
624.7246344501568
 30
0.0
 41
1.0
  0
LINE
  5
43B
330
2
100
AcDbEntity
  8
AM_VIS
100
AcDbLine
 10
294.6915619047708
 20
623.9537058684477
 30
0.0
 11
293.407084773341
 21
623.9537058684477
 31
0.0
  0
SPLINE
  5
43C
330
2
100
AcDbEntity
  8
AM_VIS
100
AcDbSpline
210
0.0
220
0.0
230
1.0
 70
    12
 71
     2
 72
     6
 73
     3
 74
     0
 42
0.0000000001
 43
0.0000000001
 40
0.0
 40
0.0
 40
0.0
 40
4.489288544457886
 40
4.489288544457886
 40
4.489288544457886
 10
299.1096843981066
 20
624.7246344501568
 30
0.0
 41
1.0
 10
297.0160178319664
 20
624.5596090109014
 30
0.0
 41
1.015279817641361
 10
294.6915619047708
 20
623.9537058684477
 30
0.0
 41
1.0
  0
LINE
  5
43D
330
2
100
AcDbEntity
  8
AM_VIS
100
AcDbLine
 10
299.1096843981066
 20
624.7246344501568
 30
0.0
 11
291.1980382969412
 21
624.7246344501568
 31
0.0
  0
SPLINE
  5
43E
330
2
100
AcDbEntity
  8
AM_VIS
100
AcDbSpline
210
0.0
220
0.0
230
1.0
 70
    12
 71
     2
 72
     6
 73
     3
 74
     0
 42
0.0000000001
 43
0.0000000001
 40
0.0
 40
0.0
 40
0.0
 40
4.489288544457886
 40
4.489288544457886
 40
4.489288544457886
 10
306.8353118972879
 20
623.9537058684477
 30
0.0
 41
1.0
 10
304.5108559700924
 20
624.5596090109014
 30
0.0
 41
1.015279817641361
 10
302.4171894039521
 20
624.7246344501568
 30
0.0
 41
1.0
  0
LINE
  5
43F
330
2
100
AcDbEntity
  8
AM_VIS
100
AcDbLine
 10
308.1198097770962
 20
623.9537058684477
 30
0.0
 11
306.8353118972879
 21
623.9537058684477
 31
0.0
  0
SPLINE
  5
440
330
2
100
AcDbEntity
  8
AM_VIS
100
AcDbSpline
210
0.0
220
0.0
230
1.0
 70
    12
 71
     2
 72
     6
 73
     3
 74
     0
 42
0.0000000001
 43
0.0000000001
 40
0.0
 40
0.0
 40
0.0
 40
4.489317750108253
 40
4.489317750108253
 40
4.489317750108253
 10
310.3288857945481
 20
624.7246344501568
 30
0.0
 41
1.0
 10
309.2820455118766
 20
624.5596119588193
 30
0.0
 41
1.015280026684792
 10
308.1198097770961
 20
623.9537058684477
 30
0.0
 41
1.0
  0
LINE
  5
441
330
2
100
AcDbEntity
  8
AM_VIS
100
AcDbLine
 10
310.328885794548
 20
624.7246344501568
 30
0.0
 11
302.4171894039521
 21
624.7246344501568
 31
0.0
  0
SPLINE
  5
442
330
2
100
AcDbEntity
  8
AM_VIS
100
AcDbSpline
210
0.0
220
0.0
230
1.0
 70
    12
 71
     2
 72
     6
 73
     3
 74
     0
 42
0.0000000001
 43
0.0000000001
 40
0.0
 40
0.0
 40
0.0
 40
4.489317750108252
 40
4.489317750108252
 40
4.489317750108252
 10
314.1916737157892
 20
623.9537058684477
 30
0.0
 41
1.0
 10
313.0294379810088
 20
624.5596119588192
 30
0.0
 41
1.015280026685218
 10
311.9825976983372
 20
624.7246344501568
 30
0.0
 41
1.0
  0
LINE
  5
443
330
2
100
AcDbEntity
  8
AM_VIS
100
AcDbLine
 10
314.2121369010293
 20
623.9537058684477
 30
0.0
 11
314.1916737157892
 21
623.9537058684477
 31
0.0
  0
LINE
  5
444
330
2
100
AcDbEntity
  8
AM_VIS
100
AcDbLine
 10
312.8768494285021
 20
624.7246344501568
 30
0.0
 11
311.9825976983373
 21
624.7246344501568
 31
0.0
  0
LINE
  5
445
330
2
100
AcDbEntity
  8
AM_VIS
100
AcDbLine
 10
287.3351987195579
 20
620.5537058684477
 30
0.0
 11
287.3147369010293
 21
620.5537058684477
 31
0.0
  0
LINE
  5
446
330
2
100
AcDbEntity
  8
AM_VIS
100
AcDbLine
 10
287.3351987195579
 20
623.9537058684477
 30
0.0
 11
287.3351987195579
 21
620.5537058684477
 31
0.0
  0
LINE
  5
447
330
2
100
AcDbEntity
  8
AM_VIS
100
AcDbLine
 10
293.407084773341
 20
620.5537058684477
 30
0.0
 11
293.407084773341
 21
623.9537058684477
 31
0.0
  0
LINE
  5
448
330
2
100
AcDbEntity
  8
AM_VIS
100
AcDbLine
 10
294.6915619047708
 20
620.5537058684477
 30
0.0
 11
293.407084773341
 21
620.5537058684477
 31
0.0
  0
LINE
  5
449
330
2
100
AcDbEntity
  8
AM_VIS
100
AcDbLine
 10
294.6915619047708
 20
623.9537058684477
 30
0.0
 11
294.6915619047708
 21
620.5537058684477
 31
0.0
  0
LINE
  5
44A
330
2
100
AcDbEntity
  8
AM_VIS
100
AcDbLine
 10
306.8353118972879
 20
620.5537058684477
 30
0.0
 11
306.8353118972879
 21
623.9537058684477
 31
0.0
  0
LINE
  5
44B
330
2
100
AcDbEntity
  8
AM_VIS
100
AcDbLine
 10
308.1198097770962
 20
620.5537058684477
 30
0.0
 11
306.8353118972879
 21
620.5537058684477
 31
0.0
  0
LINE
  5
44C
330
2
100
AcDbEntity
  8
AM_VIS
100
AcDbLine
 10
308.1198097770961
 20
623.9537058684477
 30
0.0
 11
308.1198097770961
 21
620.5537058684477
 31
0.0
  0
LINE
  5
44D
330
2
100
AcDbEntity
  8
AM_VIS
100
AcDbLine
 10
314.1916737157892
 20
620.5537058684477
 30
0.0
 11
314.1916737157892
 21
623.9537058684477
 31
0.0
  0
LINE
  5
44E
330
2
100
AcDbEntity
  8
AM_VIS
100
AcDbLine
 10
314.2121369010293
 20
620.5537058684477
 30
0.0
 11
314.1916737157892
 21
620.5537058684477
 31
0.0
  0
SPLINE
  5
44F
330
2
100
AcDbEntity
  8
AM_VIS
100
AcDbSpline
210
0.0
220
0.0
230
1.0
 70
    12
 71
     2
 72
     6
 73
     3
 74
     0
 42
0.0000000001
 43
0.0000000001
 40
0.0
 40
0.0
 40
0.0
 40
5.590505691017254
 40
5.590505691017254
 40
5.590505691017254
 10
287.3351987195578
 20
620.5537058684477
 30
0.0
 41
1.0
 10
288.7928378018122
 20
619.793794958934
 30
0.0
 41
1.024356486367964
 10
290.0948365089151
 20
619.7246344501568
 30
0.0
 41
1.0
  0
SPLINE
  5
450
330
2
100
AcDbEntity
  8
AM_VIS
100
AcDbSpline
210
0.0
220
0.0
230
1.0
 70
    12
 71
     2
 72
     6
 73
     3
 74
     0
 42
0.0000000001
 43
0.0000000001
 40
0.0
 40
0.0
 40
0.0
 40
5.590505691017281
 40
5.590505691017281
 40
5.590505691017281
 10
290.6474469839837
 20
619.7246344501568
 30
0.0
 41
1.0
 10
291.9494456910866
 20
619.793794958934
 30
0.0
 41
1.024356486368125
 10
293.407084773341
 20
620.5537058684477
 30
0.0
 41
1.0
  0
SPLINE
  5
451
330
2
100
AcDbEntity
  8
AM_VIS
100
AcDbSpline
210
0.0
220
0.0
230
1.0
 70
    12
 71
     2
 72
     6
 73
     3
 74
     0
 42
0.0000000001
 43
0.0000000001
 40
0.0
 40
0.0
 40
0.0
 40
5.59061555148098
 40
5.59061555148098
 40
5.59061555148098
 10
294.6915619047708
 20
620.5537058684477
 30
0.0
 41
1.0
 10
297.6068984098805
 20
619.7937811354858
 30
0.0
 41
1.024357497129432
 10
300.2109479353309
 20
619.7246344501568
 30
0.0
 41
1.0
  0
SPLINE
  5
452
330
2
100
AcDbEntity
  8
AM_VIS
100
AcDbSpline
210
0.0
220
0.0
230
1.0
 70
    12
 71
     2
 72
     6
 73
     3
 74
     0
 42
0.0000000001
 43
0.0000000001
 40
0.0
 40
0.0
 40
0.0
 40
5.59061555148098
 40
5.59061555148098
 40
5.59061555148098
 10
301.3159258667278
 20
619.7246344501568
 30
0.0
 41
1.0
 10
303.9199753921783
 20
619.7937811354858
 30
0.0
 41
1.024357497129432
 10
306.8353118972879
 20
620.5537058684477
 30
0.0
 41
1.0
  0
SPLINE
  5
453
330
2
100
AcDbEntity
  8
AM_VIS
100
AcDbSpline
210
0.0
220
0.0
230
1.0
 70
    12
 71
     2
 72
     6
 73
     3
 74
     0
 42
0.0000000001
 43
0.0000000001
 40
0.0
 40
0.0
 40
0.0
 40
5.590725438793462
 40
5.590725438793462
 40
5.590725438793462
 10
308.1198097770961
 20
620.5537058684477
 30
0.0
 41
1.0
 10
309.57750720706
 20
619.7937673083921
 30
0.0
 41
1.024358508160214
 10
310.8795580317572
 20
619.7246344501568
 30
0.0
 41
1.0
  0
SPLINE
  5
454
330
2
100
AcDbEntity
  8
AM_VIS
100
AcDbSpline
210
0.0
220
0.0
230
1.0
 70
    12
 71
     2
 72
     6
 73
     3
 74
     0
 42
0.0000000001
 43
0.0000000001
 40
0.0
 40
0.0
 40
0.0
 40
5.590725438793505
 40
5.590725438793505
 40
5.590725438793505
 10
311.4319254611281
 20
619.7246344501568
 30
0.0
 41
1.0
 10
312.7339762858253
 20
619.7937673083921
 30
0.0
 41
1.02435850816068
 10
314.1916737157892
 20
620.5537058684477
 30
0.0
 41
1.0
  0
LINE
  5
455
330
2
100
AcDbEntity
  8
AM_VIS
100
AcDbLine
 10
289.5442451959577
 20
624.7246344501568
 30
0.0
 11
291.1980382969413
 21
624.7246344501568
 31
0.0
  0
LINE
  5
456
330
2
100
AcDbEntity
  8
AM_VIS
100
AcDbLine
 10
299.1096843981066
 20
624.7246344501568
 30
0.0
 11
302.4171894039521
 21
624.7246344501568
 31
0.0
  0
LINE
  5
457
330
2
100
AcDbEntity
  8
AM_VIS
100
AcDbLine
 10
310.328885794548
 20
624.7246344501568
 30
0.0
 11
311.9825976983373
 21
624.7246344501568
 31
0.0
  0
LINE
  5
458
330
2
100
AcDbEntity
  8
AM_VIS
100
AcDbLine
 10
294.7634369010294
 20
611.3846344501557
 30
0.0
 11
294.7634369010294
 21
611.8846344501569
 31
0.0
  0
LINE
  5
459
330
2
100
AcDbEntity
  8
AM_VIS
100
AcDbLine
 10
306.7634369010294
 20
611.3846344501557
 30
0.0
 11
306.7634369010294
 21
611.8846344501569
 31
0.0
  0
LINE
  5
45A
330
2
100
AcDbEntity
  8
AM_VIS
100
AcDbLine
 10
288.6500243735566
 20
624.7246344501568
 30
0.0
 11
287.3147369010294
 21
623.9537058684477
 31
0.0
  0
LINE
  5
45B
330
2
100
AcDbEntity
  8
AM_VIS
100
AcDbLine
 10
312.8768494285021
 20
624.7246344501568
 30
0.0
 11
314.2121369010293
 21
623.9537058684477
 31
0.0
  0
LINE
  5
45C
330
2
100
AcDbEntity
  8
AM_VIS
100
AcDbLine
 10
287.3147369010293
 20
620.5537058684477
 30
0.0
 11
287.3147369010293
 21
623.9537058684477
 31
0.0
  0
LINE
  5
45D
330
2
100
AcDbEntity
  8
AM_VIS
100
AcDbLine
 10
314.2121369010293
 20
620.5537058684477
 30
0.0
 11
314.2121369010293
 21
623.9537058684477
 31
0.0
  0
LINE
  5
45E
330
2
100
AcDbEntity
  8
AM_VIS
100
AcDbLine
 10
288.7507307206124
 20
619.7246344501568
 30
0.0
 11
287.3147369010294
 21
620.5537058684476
 31
0.0
  0
LINE
  5
45F
330
2
100
AcDbEntity
  8
AM_VIS
100
AcDbLine
 10
312.7761430814464
 20
619.7246344501568
 30
0.0
 11
314.2121369010293
 21
620.5537058684476
 31
0.0
  0
LINE
  5
460
330
2
100
AcDbEntity
  8
AM_VIS
100
AcDbLine
 10
287.2634369010294
 20
619.7246344501568
 30
0.0
 11
314.2634369010294
 21
619.7246344501568
 31
0.0
  0
LINE
  5
461
330
2
100
AcDbEntity
  8
AM_VIS
100
AcDbLine
 10
314.2634369010294
 20
619.7246344501568
 30
0.0
 11
314.2634369010294
 21
618.2246344501568
 31
0.0
  0
LINE
  5
462
330
2
100
AcDbEntity
  8
AM_VIS
100
AcDbLine
 10
287.2634369010294
 20
619.7246344501568
 30
0.0
 11
287.2634369010294
 21
618.2246344501568
 31
0.0
  0
LINE
  5
463
330
2
100
AcDbEntity
  8
AM_VIS
100
AcDbLine
 10
314.2634369010294
 20
542.6246344501568
 30
0.0
 11
287.2634369010294
 21
542.6246344501568
 31
0.0
  0
LINE
  5
464
330
2
100
AcDbEntity
  8
AM_VIS
100
AcDbLine
 10
314.2634369010294
 20
544.1246344501568
 30
0.0
 11
314.2634369010294
 21
542.6246344501568
 31
0.0
  0
LINE
  5
465
330
2
100
AcDbEntity
  8
AM_VIS
100
AcDbLine
 10
287.2634369010294
 20
544.1246344501568
 30
0.0
 11
287.2634369010294
 21
542.6246344501568
 31
0.0
  0
LINE
  5
466
330
2
100
AcDbEntity
  8
AM_VIS
100
AcDbLine
 10
277.8550259926702
 20
588.1346344501569
 30
0.0
 11
277.8550259926702
 21
587.1346344501569
 31
0.0
  0
LINE
  5
467
330
2
100
AcDbEntity
  8
AM_VIS
100
AcDbLine
 10
277.8550259926702
 20
575.1346344501568
 30
0.0
 11
277.8550259926702
 21
574.1346344501567
 31
0.0
  0
LINE
  5
468
330
2
100
AcDbEntity
  8
AM_VIS
100
AcDbLine
 10
265.8550259926702
 20
588.1346344501569
 30
0.0
 11
265.8550259926702
 21
587.1346344501569
 31
0.0
  0
LINE
  5
469
330
2
100
AcDbEntity
  8
AM_VIS
100
AcDbLine
 10
265.8550259926702
 20
575.1346344501568
 30
0.0
 11
265.8550259926702
 21
574.1346344501567
 31
0.0
  0
LINE
  5
46A
330
2
100
AcDbEntity
  8
AM_VIS
100
AcDbLine
 10
267.9550259926702
 20
602.0346344501568
 30
0.0
 11
275.7550259926702
 21
602.0346344501568
 31
0.0
  0
LINE
  5
46B
330
2
100
AcDbEntity
  8
AM_VIS
100
AcDbLine
 10
276.8550259926702
 20
564.0346344501568
 30
0.0
 11
266.8550259926703
 21
564.0346344501568
 31
0.0
  0
LINE
  5
46C
330
2
100
AcDbEntity
  8
AM_VIS
100
AcDbLine
 10
267.9550259926702
 20
599.2346344501568
 30
0.0
 11
267.9550259926702
 21
602.0346344501567
 31
0.0
  0
LINE
  5
46D
330
2
100
AcDbEntity
  8
AM_VIS
100
AcDbLine
 10
275.7550259926702
 20
599.2346344501568
 30
0.0
 11
275.7550259926702
 21
602.0346344501567
 31
0.0
  0
LINE
  5
46E
330
2
100
AcDbEntity
  8
AM_VIS
100
AcDbLine
 10
276.8550259926702
 20
567.0346344501568
 30
0.0
 11
276.8550259926702
 21
564.0346344501568
 31
0.0
  0
LINE
  5
46F
330
2
100
AcDbEntity
  8
AM_VIS
100
AcDbLine
 10
266.8550259926703
 20
567.0346344501568
 30
0.0
 11
266.8550259926703
 21
564.0346344501568
 31
0.0
  0
LINE
  5
470
330
2
100
AcDbEntity
  8
AM_VIS
100
AcDbLine
 10
263.3550259926703
 20
595.2346344501568
 30
0.0
 11
280.3550259926703
 21
595.2346344501568
 31
0.0
  0
LINE
  5
471
330
2
100
AcDbEntity
  8
AM_VIS
100
AcDbLine
 10
263.3550259926703
 20
593.6346344501568
 30
0.0
 11
263.3550259926703
 21
595.2346344501569
 31
0.0
  0
LINE
  5
472
330
2
100
AcDbEntity
  8
AM_VIS
100
AcDbLine
 10
280.3550259926703
 20
593.6346344501568
 30
0.0
 11
280.3550259926703
 21
595.2346344501569
 31
0.0
  0
LINE
  5
473
330
2
100
AcDbEntity
  8
AM_VIS
100
AcDbLine
 10
280.3550259926702
 20
567.0346344501568
 30
0.0
 11
263.3550259926702
 21
567.0346344501568
 31
0.0
  0
LINE
  5
474
330
2
100
AcDbEntity
  8
AM_VIS
100
AcDbLine
 10
280.3550259926702
 20
568.6346344501568
 30
0.0
 11
280.3550259926702
 21
567.0346344501568
 31
0.0
  0
LINE
  5
475
330
2
100
AcDbEntity
  8
AM_VIS
100
AcDbLine
 10
263.3550259926702
 20
568.6346344501568
 30
0.0
 11
263.3550259926702
 21
567.0346344501568
 31
0.0
  0
LINE
  5
476
330
2
100
AcDbEntity
  8
AM_VIS
100
AcDbLine
 10
277.6285300305147
 20
595.4418942324394
 30
0.0
 11
277.6285300305147
 21
599.0273746678743
 31
0.0
  0
SPLINE
  5
477
330
2
100
AcDbEntity
  8
AM_VIS
100
AcDbSpline
210
0.0
220
0.0
230
1.0
 70
    12
 71
     2
 72
     6
 73
     3
 74
     0
 42
0.0000000001
 43
0.0000000001
 40
3.513110476771637
 40
3.513110476771637
 40
3.513110476771637
 40
10.9435433364181
 40
10.9435433364181
 40
10.9435433364181
 10
274.7417786845665
 20
595.4418940521166
 30
0.0
 41
1.27461328245827
 10
276.1851542734189
 20
595.055142863951
 30
0.0
 41
1.471796511733411
 10
277.6285300305147
 20
595.4418942324394
 30
0.0
 41
1.274613202838729
  0
SPLINE
  5
478
330
2
100
AcDbEntity
  8
AM_VIS
100
AcDbSpline
210
0.0
220
0.0
230
1.0
 70
    12
 71
     2
 72
     6
 73
     3
 74
     0
 42
0.0000000001
 43
0.0000000001
 40
3.513108976624988
 40
3.513108976624988
 40
3.513108976624988
 40
10.94354183627143
 40
10.94354183627143
 40
10.94354183627143
 10
277.6285300305147
 20
599.0273746678743
 30
0.0
 41
1.27461320283873
 10
276.1851542734189
 20
599.4141260363627
 30
0.0
 41
1.47179651173341
 10
274.7417786845665
 20
599.027374848197
 30
0.0
 41
1.274613282458269
  0
LINE
  5
479
330
2
100
AcDbEntity
  8
AM_VIS
100
AcDbLine
 10
274.7417786845665
 20
595.4418940521166
 30
0.0
 11
274.7417786845665
 21
599.027374848197
 31
0.0
  0
SPLINE
  5
47A
330
2
100
AcDbEntity
  8
AM_VIS
100
AcDbSpline
210
0.0
220
0.0
230
1.0
 70
    12
 71
     2
 72
     6
 73
     3
 74
     0
 42
0.0000000001
 43
0.0000000001
 40
7.239048164719878
 40
7.239048164719878
 40
7.239048164719878
 40
10.67298555067821
 40
10.67298555067821
 40
10.67298555067821
 10
271.8550259926703
 20
595.2346344501568
 30
0.0
 41
1.0
 10
273.1947724957944
 20
595.2346344501568
 30
0.0
 41
1.081513766124147
 10
274.7417786845665
 20
595.4418940521166
 30
0.0
 41
1.085693285370879
  0
SPLINE
  5
47B
330
2
100
AcDbEntity
  8
AM_VIS
100
AcDbSpline
210
0.0
220
0.0
230
1.0
 70
    12
 71
     2
 72
     6
 73
     3
 74
     0
 42
0.0000000001
 43
0.0000000001
 40
3.80511077876152
 40
3.80511077876152
 40
3.80511077876152
 40
7.239048164719878
 40
7.239048164719878
 40
7.239048164719878
 10
274.7417786845665
 20
599.027374848197
 30
0.0
 41
1.085693285370907
 10
273.1947724957945
 20
599.2346344501568
 30
0.0
 41
1.081513766124174
 10
271.8550259926703
 20
599.2346344501568
 30
0.0
 41
1.0
  0
SPLINE
  5
47C
330
2
100
AcDbEntity
  8
AM_VIS
100
AcDbSpline
210
0.0
220
0.0
230
1.0
 70
    12
 71
     2
 72
     6
 73
     3
 74
     0
 42
0.0000000001
 43
0.0000000001
 40
7.239048164719878
 40
7.239048164719878
 40
7.239048164719878
 40
10.6729825514895
 40
10.6729825514895
 40
10.6729825514895
 10
271.8550259926703
 20
599.2346344501568
 30
0.0
 41
1.0
 10
270.5152805714833
 20
599.2346344501568
 30
0.0
 41
1.08151369493034
 10
268.9682759926703
 20
599.0273752088427
 30
0.0
 41
1.085693278070094
  0
LINE
  5
47D
330
2
100
AcDbEntity
  8
AM_VIS
100
AcDbLine
 10
268.9682759926703
 20
595.4418936914708
 30
0.0
 11
268.9682759926703
 21
599.0273752088427
 31
0.0
  0
SPLINE
  5
47E
330
2
100
AcDbEntity
  8
AM_VIS
100
AcDbSpline
210
0.0
220
0.0
230
1.0
 70
    12
 71
     2
 72
     6
 73
     3
 74
     0
 42
0.0000000001
 43
0.0000000001
 40
3.805113777950269
 40
3.805113777950269
 40
3.805113777950269
 40
7.239048164719878
 40
7.239048164719878
 40
7.239048164719878
 10
268.9682759926703
 20
595.4418936914708
 30
0.0
 41
1.085693278070064
 10
270.5152805714833
 20
595.2346344501568
 30
0.0
 41
1.081513694930312
 10
271.8550259926703
 20
595.2346344501568
 30
0.0
 41
1.0
  0
SPLINE
  5
47F
330
2
100
AcDbEntity
  8
AM_VIS
100
AcDbSpline
210
0.0
220
0.0
230
1.0
 70
    12
 71
     2
 72
     6
 73
     3
 74
     0
 42
0.0000000001
 43
0.0000000001
 40
0.0
 40
0.0
 40
0.0
 40
3.430020985342803
 40
3.430020985342803
 40
3.430020985342803
 10
267.5266070458309
 20
595.2346344501568
 30
0.0
 41
1.0
 10
268.1956879743476
 20
595.2348792834889
 30
0.0
 41
1.081360322680671
 10
268.9682759926703
 20
595.4418936914708
 30
0.0
 41
1.085583719899271
  0
SPLINE
  5
480
330
2
100
AcDbEntity
  8
AM_VIS
100
AcDbSpline
210
0.0
220
0.0
230
1.0
 70
    12
 71
     2
 72
     6
 73
     3
 74
     0
 42
0.0000000001
 43
0.0000000001
 40
3.80562167210728
 40
3.80562167210728
 40
3.80562167210728
 40
7.235642657451362
 40
7.235642657451362
 40
7.235642657451362
 10
268.9682759926703
 20
599.0273752088427
 30
0.0
 41
1.08558371989931
 10
268.1956879743473
 20
599.2343896168247
 30
0.0
 41
1.081360322680724
 10
267.5266070458304
 20
599.2346344501568
 30
0.0
 41
1.0
  0
LINE
  5
481
330
2
100
AcDbEntity
  8
AM_VIS
100
AcDbLine
 10
267.5266070458429
 20
599.2346344501568
 30
0.0
 11
267.5231929205755
 21
599.2346344501568
 31
0.0
  0
SPLINE
  5
482
330
2
100
AcDbEntity
  8
AM_VIS
100
AcDbSpline
210
0.0
220
0.0
230
1.0
 70
    12
 71
     2
 72
     6
 73
     3
 74
     0
 42
0.0000000001
 43
0.0000000001
 40
0.0
 40
0.0
 40
0.0
 40
3.430019485624504
 40
3.430019485624504
 40
3.430019485624504
 10
267.523192920588
 20
599.2346344501568
 30
0.0
 41
1.0
 10
266.8541122626047
 20
599.2343896169236
 30
0.0
 41
1.081360287107379
 10
266.0815246467222
 20
599.0273753891656
 30
0.0
 41
1.085583716206181
  0
LINE
  5
483
330
2
100
AcDbEntity
  8
AM_VIS
100
AcDbLine
 10
266.0815246467222
 20
595.441893511148
 30
0.0
 11
266.0815246467222
 21
599.0273753891656
 31
0.0
  0
SPLINE
  5
484
330
2
100
AcDbEntity
  8
AM_VIS
100
AcDbSpline
210
0.0
220
0.0
230
1.0
 70
    12
 71
     2
 72
     6
 73
     3
 74
     0
 42
0.0000000001
 43
0.0000000001
 40
3.805623171827117
 40
3.805623171827117
 40
3.805623171827117
 40
7.23564265745031
 40
7.23564265745031
 40
7.23564265745031
 10
266.0815246467222
 20
595.441893511148
 30
0.0
 41
1.085583716205988
 10
266.8541122626046
 20
595.23487928339
 30
0.0
 41
1.081360287107178
 10
267.5231929205874
 20
595.2346344501568
 30
0.0
 41
1.0
  0
LINE
  5
485
330
2
100
AcDbEntity
  8
AM_VIS
100
AcDbLine
 10
266.8550259926703
 20
599.2346344501568
 30
0.0
 11
267.5231929205755
 21
599.2346344501568
 31
0.0
  0
LINE
  5
486
330
2
100
AcDbEntity
  8
AM_VIS
100
AcDbLine
 10
271.8550259926703
 20
599.2346344501568
 30
0.0
 11
276.8550259926703
 21
599.2346344501568
 31
0.0
  0
LINE
  5
487
330
2
100
AcDbEntity
  8
AM_VIS
100
AcDbLine
 10
267.5266070458429
 20
599.2346344501568
 30
0.0
 11
271.8550259926703
 21
599.2346344501568
 31
0.0
  0
LINE
  5
488
330
2
100
AcDbEntity
  8
AM_VIS
100
AcDbLine
 10
266.8550259926703
 20
595.2346344501568
 30
0.0
 11
266.0815246467222
 21
595.441893511148
 31
0.0
  0
LINE
  5
489
330
2
100
AcDbEntity
  8
AM_VIS
100
AcDbLine
 10
266.8550259926703
 20
599.2346344501568
 30
0.0
 11
266.0815246467222
 21
599.0273753891656
 31
0.0
  0
LINE
  5
48A
330
2
100
AcDbEntity
  8
AM_VIS
100
AcDbLine
 10
276.8550259926703
 20
599.2346344501568
 30
0.0
 11
277.6285300305147
 21
599.0273746678743
 31
0.0
  0
LINE
  5
48B
330
2
100
AcDbEntity
  8
AM_VIS
100
AcDbLine
 10
276.8550259926703
 20
595.2346344501568
 30
0.0
 11
277.6285300305147
 21
595.4418942324394
 31
0.0
  0
LINE
  5
48C
330
2
100
AcDbEntity
  8
AM_VIS
100
AcDbLine
 10
193.6510844795888
 20
589.1346344501568
 30
0.0
 11
193.6510844795888
 21
588.9846344501568
 31
0.0
  0
LINE
  5
48D
330
2
100
AcDbEntity
  8
AM_VIS
100
AcDbLine
 10
181.0010844795888
 20
589.1346344501568
 30
0.0
 11
181.0010844795888
 21
588.9846344501568
 31
0.0
  0
ELLIPSE
  5
48E
330
2
100
AcDbEntity
  8
AM_VIS
100
AcDbEllipse
 10
300.8881320663062
 20
581.1346344501568
 30
0.0
 11
-0.0000000000000002
 21
-10.0
 31
0.0
210
0.0
220
0.0
230
1.0
 40
0.9921950996435393
 41
5.355890089177989
 42
10.35207317877101
  0
ELLIPSE
  5
48F
330
2
100
AcDbEntity
  8
AM_VIS
100
AcDbEllipse
 10
307.8710613217932
 20
581.1346344501568
 30
0.0
 11
-0.0000000000000002
 21
-10.0
 31
0.0
210
0.0
220
0.0
230
1.0
 40
0.9921950996435393
 41
3.501185288328792
 42
4.068887871591427
  0
ELLIPSE
  5
490
330
2
100
AcDbEntity
  8
AM_VIS
100
AcDbEllipse
 10
307.8710613217932
 20
581.1346344501568
 30
0.0
 11
-0.0000000000000002
 21
-10.0
 31
0.0
210
0.0
220
0.0
230
1.0
 40
0.9921950996435393
 41
5.355890089177993
 42
5.923592672440629
  0
ELLIPSE
  5
491
330
2
100
AcDbEntity
  8
AM_VIS
100
AcDbEllipse
 10
330.9395973885056
 20
604.3846344501568
 30
0.0
 11
-0.0000000000000001
 21
-3.0
 31
0.0
210
0.0
220
0.0
230
1.0
 40
0.9921950996435393
 41
3.821061946058667
 42
5.603716014710711
  0
ELLIPSE
  5
492
330
2
100
AcDbEntity
  8
AM_VIS
100
AcDbEllipse
 10
327.1987424302089
 20
604.3846344501568
 30
0.0
 11
-0.0000000000000001
 21
-3.0
 31
0.0
210
0.0
220
0.0
230
1.0
 40
0.9921950996435393
 41
2.169136732010432
 42
4.712388980384689
  0
ELLIPSE
  5
493
330
2
100
AcDbEntity
  8
AM_VIS
100
AcDbEllipse
 10
327.1987424302089
 20
604.3846344501568
 30
0.0
 11
-0.0000000000000001
 21
-3.0
 31
0.0
210
0.0
220
0.0
230
1.0
 40
0.9921950996435393
 41
4.712388980384689
 42
7.255641228759566
  0
ELLIPSE
  5
494
330
2
100
AcDbEntity
  8
AM_VIS
100
AcDbEllipse
 10
330.9395973885056
 20
557.8846344501569
 30
0.0
 11
-0.0000000000000001
 21
-3.0
 31
0.0
210
0.0
220
0.0
230
1.0
 40
0.9921950996435393
 41
3.821061946058667
 42
5.603716014710711
  0
ELLIPSE
  5
495
330
2
100
AcDbEntity
  8
AM_VIS
100
AcDbEllipse
 10
327.1987424302089
 20
557.8846344501569
 30
0.0
 11
-0.0000000000000001
 21
-3.0
 31
0.0
210
0.0
220
0.0
230
1.0
 40
0.9921950996435393
 41
2.169136732010432
 42
4.712388980384689
  0
ELLIPSE
  5
496
330
2
100
AcDbEntity
  8
AM_VIS
100
AcDbEllipse
 10
327.1987424302089
 20
557.8846344501569
 30
0.0
 11
-0.0000000000000001
 21
-3.0
 31
0.0
210
0.0
220
0.0
230
1.0
 40
0.9921950996435393
 41
4.712388980384689
 42
7.25564122875956
  0
ELLIPSE
  5
497
330
2
100
AcDbEntity
  8
AM_VIS
100
AcDbEllipse
 10
284.8025252550809
 20
557.8846344501569
 30
0.0
 11
-0.0000000000000001
 21
-3.0
 31
0.0
210
0.0
220
0.0
230
1.0
 40
0.9921950996435393
 41
3.821061946058645
 42
5.603716014710733
  0
ELLIPSE
  5
498
330
2
100
AcDbEntity
  8
AM_VIS
100
AcDbEllipse
 10
281.0616702967843
 20
557.8846344501569
 30
0.0
 11
-0.0000000000000001
 21
-3.0
 31
0.0
210
0.0
220
0.0
230
1.0
 40
0.9921950996435393
 41
2.169136732010343
 42
4.712388980384689
  0
ELLIPSE
  5
499
330
2
100
AcDbEntity
  8
AM_VIS
100
AcDbEllipse
 10
281.0616702967843
 20
557.8846344501569
 30
0.0
 11
-0.0000000000000001
 21
-3.0
 31
0.0
210
0.0
220
0.0
230
1.0
 40
0.9921950996435393
 41
4.712388980384689
 42
7.255641228759668
  0
ELLIPSE
  5
49A
330
2
100
AcDbEntity
  8
AM_VIS
100
AcDbEllipse
 10
284.8025252550809
 20
604.3846344501568
 30
0.0
 11
-0.0000000000000001
 21
-3.0
 31
0.0
210
0.0
220
0.0
230
1.0
 40
0.9921950996435393
 41
3.821061946058655
 42
5.603716014710724
  0
ELLIPSE
  5
49B
330
2
100
AcDbEntity
  8
AM_VIS
100
AcDbEllipse
 10
281.0616702967843
 20
604.3846344501568
 30
0.0
 11
-0.0000000000000001
 21
-3.0
 31
0.0
210
0.0
220
0.0
230
1.0
 40
0.9921950996435393
 41
2.169136732010342
 42
4.712388980384689
  0
ELLIPSE
  5
49C
330
2
100
AcDbEntity
  8
AM_VIS
100
AcDbEllipse
 10
281.0616702967843
 20
604.3846344501568
 30
0.0
 11
-0.0000000000000001
 21
-3.0
 31
0.0
210
0.0
220
0.0
230
1.0
 40
0.9921950996435393
 41
4.712388980384689
 42
7.255641228759668
  0
ELLIPSE
  5
49D
330
2
100
AcDbEntity
  8
AM_VIS
100
AcDbEllipse
 10
327.1987424302089
 20
557.8846344501569
 30
0.0
 11
-0.0000000000000002
 21
-11.75
 31
0.0
210
0.0
220
0.0
230
1.0
 40
0.9921950996435393
 41
0.0
 42
1.570796326794896
  0
LINE
  5
49E
330
2
100
AcDbEntity
  8
AM_VIS
100
AcDbLine
 10
327.198742430209
 20
546.1346344501569
 30
0.0
 11
330.9395973885056
 21
546.1346344501569
 31
0.0
  0
ELLIPSE
  5
49F
330
2
100
AcDbEntity
  8
AM_VIS
100
AcDbEllipse
 10
330.9395973885056
 20
557.8846344501569
 30
0.0
 11
-0.0000000000000002
 21
-11.75
 31
0.0
210
0.0
220
0.0
230
1.0
 40
0.9921950996435393
 41
0.0
 42
1.570796326794896
  0
LINE
  5
4A0
330
2
100
AcDbEntity
  8
AM_VIS
100
AcDbLine
 10
342.5978898093171
 20
604.3846344501568
 30
0.0
 11
342.5978898093171
 21
557.8846344501569
 31
0.0
  0
LINE
  5
4A1
330
2
100
AcDbEntity
  8
AM_VIS
100
AcDbLine
 10
338.8570348510205
 20
604.3846344501568
 30
0.0
 11
338.8570348510205
 21
557.8846344501569
 31
0.0
  0
ELLIPSE
  5
4A2
330
2
100
AcDbEntity
  8
AM_VIS
100
AcDbEllipse
 10
330.9395973885056
 20
604.3846344501568
 30
0.0
 11
-0.0000000000000002
 21
-11.75
 31
0.0
210
0.0
220
0.0
230
1.0
 40
0.9921950996435393
 41
1.570796326794896
 42
3.141592653589793
  0
ELLIPSE
  5
4A3
330
2
100
AcDbEntity
  8
AM_VIS
100
AcDbEllipse
 10
281.0616702967843
 20
557.8846344501569
 30
0.0
 11
-0.0000000000000002
 21
-11.75
 31
0.0
210
0.0
220
0.0
230
1.0
 40
0.9921950996435393
 41
4.712388980384689
 42
5.404674053468236
  0
LINE
  5
4A4
330
2
100
AcDbEntity
  8
AM_VIS
100
AcDbLine
 10
269.4033778759727
 20
557.8846344501569
 30
0.0
 11
269.4033778759727
 21
564.0346344501568
 31
0.0
  0
LINE
  5
4A5
330
2
100
AcDbEntity
  8
AM_VIS
100
AcDbLine
 10
269.4033778759727
 20
602.0346344501568
 30
0.0
 11
269.4033778759727
 21
604.3846344501568
 31
0.0
  0
ELLIPSE
  5
4A6
330
2
100
AcDbEntity
  8
AM_VIS
100
AcDbEllipse
 10
281.0616702967843
 20
604.3846344501568
 30
0.0
 11
-0.0000000000000002
 21
-11.75
 31
0.0
210
0.0
220
0.0
230
1.0
 40
0.9921950996435393
 41
4.020103907301141
 42
4.712388980384689
  0
ELLIPSE
  5
4A7
330
2
100
AcDbEntity
  8
AM_VIS
100
AcDbEllipse
 10
327.1987424302089
 20
604.3846344501568
 30
0.0
 11
-0.0000000000000002
 21
-11.75
 31
0.0
210
0.0
220
0.0
230
1.0
 40
0.9921950996435393
 41
1.570796326794896
 42
3.141592653589793
  0
LINE
  5
4A8
330
2
100
AcDbEntity
  8
AM_VIS
100
AcDbLine
 10
330.9395973885056
 20
616.1346344501569
 30
0.0
 11
327.198742430209
 21
616.1346344501569
 31
0.0
  0
LINE
  5
4A9
330
2
100
AcDbEntity
  8
AM_VIS
100
AcDbLine
 10
327.1987424302089
 20
546.1346344501569
 30
0.0
 11
320.7634369010294
 21
546.1346344501569
 31
0.0
  0
LINE
  5
4AA
330
2
100
AcDbEntity
  8
AM_VIS
100
AcDbLine
 10
320.7634369010294
 20
616.1346344501569
 30
0.0
 11
327.1987424302089
 21
616.1346344501569
 31
0.0
  0
SPLINE
  5
4AB
330
2
100
AcDbEntity
  8
AM_VIS
100
AcDbSpline
210
0.0
220
0.0
230
1.0
 70
     8
 71
     1
 72
    29
 73
    27
 74
     0
 42
0.0000000001
 43
0.0000000001
 40
6.758711421806916
 40
6.758711421806916
 40
6.770854673346562
 40
6.787674555421563
 40
6.804494437496563
 40
6.821314319571563
 40
6.838134201646563
 40
6.854954083721564
 40
6.871773965796563
 40
6.888593847871563
 40
6.905413729946564
 40
6.922233612021564
 40
6.939067999106403
 40
6.955902386191241
 40
6.972736773276079
 40
6.989571160360919
 40
7.006405547445758
 40
7.023239934530597
 40
7.040074321615435
 40
7.056908708700275
 40
7.073743095785113
 40
7.090577482869952
 40
7.10741186995479
 40
7.124246257039629
 40
7.141080644124468
 40
7.157915031209307
 40
7.174749418294146
 40
7.175561100984245
 40
7.175561100984245
 10
292.9487356189381
 20
565.135088294264
 30
0.0
 10
292.75607017282
 20
565.235998309367
 30
0.0
 10
292.4915850688913
 20
565.3802696130687
 30
0.0
 10
292.2295548198978
 20
565.5289982977476
 30
0.0
 10
291.9700535634657
 20
565.6821418376456
 30
0.0
 10
291.7131546988986
 20
565.8396564583606
 30
0.0
 10
291.4589308664753
 20
566.0014971503886
 30
0.0
 10
291.2074539270213
 20
566.1676176830098
 30
0.0
 10
290.9587949417591
 20
566.3379706185112
 30
0.0
 10
290.7130241524437
 20
566.5125073267376
 30
0.0
 10
290.4702109617858
 20
566.6911779999667
 30
0.0
 10
290.2302184538242
 20
566.8740910170323
 30
0.0
 10
289.9933251522534
 20
567.0610418215789
 30
0.0
 10
289.7595979998663
 20
567.2519770262113
 30
0.0
 10
289.529103021894
 20
567.4468421247221
 30
0.0
 10
289.3019053078615
 20
567.6455815085413
 30
0.0
 10
289.0780689937567
 20
567.8481384834689
 30
0.0
 10
288.8576572445194
 20
568.0544552866803
 30
0.0
 10
288.6407322368487
 20
568.2644731039991
 30
0.0
 10
288.4273551423367
 20
568.4781320874296
 30
0.0
 10
288.2175861109275
 20
568.6953713729414
 30
0.0
 10
288.0114842547056
 20
568.916129098501
 30
0.0
 10
287.8091076320161
 20
569.1403424223413
 30
0.0
 10
287.6105132319179
 20
569.3679475414627
 30
0.0
 10
287.4157569589727
 20
569.59887971036
 30
0.0
 10
287.2248936183718
 20
569.8330732599676
 30
0.0
 10
287.215881287665
 20
569.8445191189176
 30
0.0
  0
SPLINE
  5
4AC
330
2
100
AcDbEntity
  8
AM_VIS
100
AcDbSpline
210
0.0
220
0.0
230
1.0
 70
     8
 71
     1
 72
    29
 73
    27
 74
     0
 42
0.0000000001
 43
0.0000000001
 40
8.532402166964716
 40
8.532402166964716
 40
8.540475271875267
 40
8.5573239779401
 40
8.574172684004931
 40
8.591021390069762
 40
8.607870096134595
 40
8.624718802199426
 40
8.641567508264257
 40
8.658416214329088
 40
8.675264920393921
 40
8.692113626458752
 40
8.708962332523583
 40
8.725811038588414
 40
8.742659744653247
 40
8.75950845071808
 40
8.776357156782911
 40
8.793205862847742
 40
8.810054568912574
 40
8.826903274977404
 40
8.843751981042236
 40
8.860583319921008
 40
8.877414658799779
 40
8.894245997678549
 40
8.911077336557321
 40
8.927908675436091
 40
8.944740014314863
 40
8.949251846141967
 40
8.949251846141967
 10
287.2162840341528
 20
592.4244237290505
 30
0.0
 10
287.3067405819765
 20
592.5376095044115
 30
0.0
 10
287.4994552014882
 20
592.7706010068117
 30
0.0
 10
287.6960457877112
 20
593.0002970357
 30
0.0
 10
287.8964569168567
 20
593.2266321525287
 30
0.0
 10
288.1006320684416
 20
593.4495418537157
 30
0.0
 10
288.3085136403719
 20
593.668962589575
 30
0.0
 10
288.5200429643658
 20
593.8848317830269
 30
0.0
 10
288.7351603217121
 20
594.0970878480774
 30
0.0
 10
288.9538049593633
 20
594.3056702080615
 30
0.0
 10
289.1759151063609
 20
594.5105193136446
 30
0.0
 10
289.4014279905906
 20
594.711576660573
 30
0.0
 10
289.6302798558644
 20
594.9087848071672
 30
0.0
 10
289.8624059793271
 20
595.102087391552
 30
0.0
 10
290.0977406891837
 20
595.2914291486131
 30
0.0
 10
290.336217382746
 20
595.476755926678
 30
0.0
 10
290.577768544793
 20
595.6580147039085
 30
0.0
 10
290.8223257662427
 20
595.8351536044022
 30
0.0
 10
291.0698197631315
 20
596.0081219139929
 30
0.0
 10
291.3201803958968
 20
596.1768700957433
 30
0.0
 10
291.5730743275647
 20
596.341182477852
 30
0.0
 10
291.8286865897186
 20
596.5011881902198
 30
0.0
 10
292.0869448200994
 20
596.6568414573166
 30
0.0
 10
292.3477758840718
 20
596.80809773448
 30
0.0
 10
292.6111058952487
 20
596.9549137216945
 30
0.0
 10
292.8768602363853
 20
597.0972473770223
 30
0.0
 10
292.9487283872098
 20
597.1341890631274
 30
0.0
  0
LINE
  5
4AD
330
2
100
AcDbEntity
  8
AM_VIS
100
AcDbLine
 10
356.7501550451101
 20
546.1346344501582
 30
0.0
 11
360.2429612284958
 21
546.1346344501582
 31
0.0
  0
ELLIPSE
  5
4AE
330
2
100
AcDbEntity
  8
AM_VIS
100
AcDbEllipse
 10
360.2429612284958
 20
557.8846344501583
 30
0.0
 11
-0.0000000000000002
 21
-11.75
 31
0.0
210
0.0
220
0.0
230
1.0
 40
0.9921950996435393
 41
0.0
 42
1.570796326794896
  0
LINE
  5
4AF
330
2
100
AcDbEntity
  8
AM_VIS
100
AcDbLine
 10
371.9012536493075
 20
604.3846344501583
 30
0.0
 11
371.9012536493075
 21
557.8846344501583
 31
0.0
  0
LINE
  5
4B0
330
2
100
AcDbEntity
  8
AM_VIS
100
AcDbLine
 10
368.1603986910108
 20
604.3846344501583
 30
0.0
 11
368.1603986910108
 21
557.8846344501583
 31
0.0
  0
ELLIPSE
  5
4B1
330
2
100
AcDbEntity
  8
AM_VIS
100
AcDbEllipse
 10
360.2429612284958
 20
604.3846344501583
 30
0.0
 11
-0.0000000000000002
 21
-11.75
 31
0.0
210
0.0
220
0.0
230
1.0
 40
0.9921950996435393
 41
1.570796326794896
 42
3.141592653589793
  0
LINE
  5
4B2
330
2
100
AcDbEntity
  8
AM_VIS
100
AcDbLine
 10
360.2429612284958
 20
616.1346344501582
 30
0.0
 11
356.7501550451101
 21
616.1346344501582
 31
0.0
  0
LINE
  5
4B3
330
2
100
AcDbEntity
  8
AM_VIS
100
AcDbLine
 10
330.9395973885056
 20
546.1346344501563
 30
0.0
 11
331.1876461634164
 21
546.1346344501563
 31
0.0
  0
ELLIPSE
  5
4B4
330
2
100
AcDbEntity
  8
AM_VIS
100
AcDbEllipse
 10
331.1876461634164
 20
557.6346344501563
 30
0.0
 11
-0.0000000000000002
 21
-11.5
 31
0.0
210
0.0
220
0.0
230
1.0
 40
0.9921950996435393
 41
0.0
 42
1.570796326794896
  0
LINE
  5
4B5
330
2
100
AcDbEntity
  8
AM_VIS
100
AcDbLine
 10
342.5978898093171
 20
557.6346344501563
 30
0.0
 11
342.5978898093171
 21
564.6346344501563
 31
0.0
  0
LINE
  5
4B6
330
2
100
AcDbEntity
  8
AM_VIS
100
AcDbLine
 10
342.5978898093171
 20
577.6346344501563
 30
0.0
 11
342.5978898093171
 21
584.6346344501563
 31
0.0
  0
LINE
  5
4B7
330
2
100
AcDbEntity
  8
AM_VIS
100
AcDbLine
 10
342.5978898093171
 20
597.6346344501564
 30
0.0
 11
342.5978898093171
 21
604.6346344501564
 31
0.0
  0
ELLIPSE
  5
4B8
330
2
100
AcDbEntity
  8
AM_VIS
100
AcDbEllipse
 10
331.1876461634164
 20
604.6346344501563
 30
0.0
 11
-0.0000000000000002
 21
-11.5
 31
0.0
210
0.0
220
0.0
230
1.0
 40
0.9921950996435393
 41
1.570796326794896
 42
3.141592653589793
  0
LINE
  5
4B9
330
2
100
AcDbEntity
  8
AM_VIS
100
AcDbLine
 10
331.1876461634164
 20
616.1346344501563
 30
0.0
 11
330.9395973885055
 21
616.1346344501563
 31
0.0
  0
ELLIPSE
  5
4BA
330
2
100
AcDbEntity
  8
AM_VIS
100
AcDbEllipse
 10
364.6877158422583
 20
567.6346344501562
 30
0.0
 11
0.0
 21
-1.5
 31
0.0
210
0.0
220
0.0
230
1.0
 40
0.9921950996435393
 41
4.712388980384689
 42
6.283185307179586
  0
LINE
  5
4BB
330
2
100
AcDbEntity
  8
AM_VIS
100
AcDbLine
 10
366.6721060415455
 20
566.1346344501562
 30
0.0
 11
342.5978898093171
 21
566.1346344501562
 31
0.0
  0
ELLIPSE
  5
4BC
330
2
100
AcDbEntity
  8
AM_VIS
100
AcDbEllipse
 10
366.6721060415455
 20
564.6346344501562
 30
0.0
 11
0.0
 21
-1.5
 31
0.0
210
0.0
220
0.0
230
1.0
 40
0.9921950996435393
 41
1.570796326794896
 42
3.141592653589793
  0
LINE
  5
4BD
330
2
100
AcDbEntity
  8
AM_VIS
100
AcDbLine
 10
368.1603986910108
 20
557.6346344501563
 30
0.0
 11
368.1603986910108
 21
564.6346344501563
 31
0.0
  0
ELLIPSE
  5
4BE
330
2
100
AcDbEntity
  8
AM_VIS
100
AcDbEllipse
 10
364.6877158422583
 20
574.6346344501563
 30
0.0
 11
0.0
 21
-1.5
 31
0.0
210
0.0
220
0.0
230
1.0
 40
0.9921950996435393
 41
3.141592653589793
 42
4.712388980384689
  0
LINE
  5
4BF
330
2
100
AcDbEntity
  8
AM_VIS
100
AcDbLine
 10
363.1994231927929
 20
567.6346344501562
 30
0.0
 11
363.1994231927929
 21
574.6346344501562
 31
0.0
  0
ELLIPSE
  5
4C0
330
2
100
AcDbEntity
  8
AM_VIS
100
AcDbEllipse
 10
366.6721060415455
 20
577.6346344501563
 30
0.0
 11
0.0
 21
-1.5
 31
0.0
210
0.0
220
0.0
230
1.0
 40
0.9921950996435393
 41
0.0
 42
1.570796326794896
  0
LINE
  5
4C1
330
2
100
AcDbEntity
  8
AM_VIS
100
AcDbLine
 10
342.5978898093171
 20
576.1346344501563
 30
0.0
 11
366.6721060415455
 21
576.1346344501563
 31
0.0
  0
ELLIPSE
  5
4C2
330
2
100
AcDbEntity
  8
AM_VIS
100
AcDbEllipse
 10
366.6721060415455
 20
584.6346344501563
 30
0.0
 11
0.0
 21
-1.5
 31
0.0
210
0.0
220
0.0
230
1.0
 40
0.9921950996435393
 41
1.570796326794896
 42
3.141592653589793
  0
LINE
  5
4C3
330
2
100
AcDbEntity
  8
AM_VIS
100
AcDbLine
 10
366.6721060415455
 20
586.1346344501563
 30
0.0
 11
342.5978898093171
 21
586.1346344501563
 31
0.0
  0
ELLIPSE
  5
4C4
330
2
100
AcDbEntity
  8
AM_VIS
100
AcDbEllipse
 10
364.6877158422583
 20
587.6346344501563
 30
0.0
 11
0.0
 21
-1.5
 31
0.0
210
0.0
220
0.0
230
1.0
 40
0.9921950996435393
 41
4.712388980384689
 42
6.283185307179586
  0
ELLIPSE
  5
4C5
330
2
100
AcDbEntity
  8
AM_VIS
100
AcDbEllipse
 10
364.6877158422583
 20
594.6346344501563
 30
0.0
 11
0.0
 21
-1.5
 31
0.0
210
0.0
220
0.0
230
1.0
 40
0.9921950996435393
 41
3.141592653589793
 42
4.712388980384689
  0
LINE
  5
4C6
330
2
100
AcDbEntity
  8
AM_VIS
100
AcDbLine
 10
363.1994231927929
 20
587.6346344501563
 30
0.0
 11
363.1994231927929
 21
594.6346344501564
 31
0.0
  0
ELLIPSE
  5
4C7
330
2
100
AcDbEntity
  8
AM_VIS
100
AcDbEllipse
 10
366.6721060415455
 20
597.6346344501563
 30
0.0
 11
0.0
 21
-1.5
 31
0.0
210
0.0
220
0.0
230
1.0
 40
0.9921950996435393
 41
0.0
 42
1.570796326794896
  0
LINE
  5
4C8
330
2
100
AcDbEntity
  8
AM_VIS
100
AcDbLine
 10
342.5978898093171
 20
596.1346344501563
 30
0.0
 11
366.6721060415454
 21
596.1346344501563
 31
0.0
  0
ELLIPSE
  5
4C9
330
2
100
AcDbEntity
  8
AM_VIS
100
AcDbEllipse
 10
356.7501550451101
 20
604.6346344501563
 30
0.0
 11
-0.0000000000000002
 21
-11.5
 31
0.0
210
0.0
220
0.0
230
1.0
 40
0.9921950996435393
 41
1.570796326794896
 42
3.141592653589793
  0
LINE
  5
4CA
330
2
100
AcDbEntity
  8
AM_VIS
100
AcDbLine
 10
356.7501550451101
 20
616.1346344501563
 30
0.0
 11
331.1876461634164
 21
616.1346344501563
 31
0.0
  0
LINE
  5
4CB
330
2
100
AcDbEntity
  8
AM_VIS
100
AcDbLine
 10
368.1603986910108
 20
597.6346344501563
 30
0.0
 11
368.1603986910108
 21
604.6346344501563
 31
0.0
  0
ELLIPSE
  5
4CC
330
2
100
AcDbEntity
  8
AM_VIS
100
AcDbEllipse
 10
356.7501550451101
 20
557.6346344501563
 30
0.0
 11
-0.0000000000000002
 21
-11.5
 31
0.0
210
0.0
220
0.0
230
1.0
 40
0.9921950996435393
 41
0.0
 42
1.570796326794896
  0
LINE
  5
4CD
330
2
100
AcDbEntity
  8
AM_VIS
100
AcDbLine
 10
331.1876461634164
 20
546.1346344501563
 30
0.0
 11
356.7501550451101
 21
546.1346344501563
 31
0.0
  0
LINE
  5
4CE
330
2
100
AcDbEntity
  8
AM_VIS
100
AcDbLine
 10
368.1603986910108
 20
577.6346344501563
 30
0.0
 11
368.1603986910108
 21
584.6346344501563
 31
0.0
  0
LINE
  5
4CF
330
2
100
AcDbEntity
  8
AM_VIS
100
AcDbLine
 10
293.7634369010296
 20
611.3846344501557
 30
0.0
 11
307.7634369010296
 21
611.3846344501557
 31
0.0
  0
LINE
  5
4D0
330
2
100
AcDbEntity
  8
AM_VIS
100
AcDbLine
 10
307.7634369010296
 20
611.3846344501557
 30
0.0
 11
308.0134369010289
 21
611.1346344501564
 31
0.0
  0
LINE
  5
4D1
330
2
100
AcDbEntity
  8
AM_VIS
100
AcDbLine
 10
293.7634369010296
 20
611.3846344501557
 30
0.0
 11
293.5134369010303
 21
611.1346344501564
 31
0.0
  0
LINE
  5
4D2
330
2
100
AcDbEntity
  8
AM_VIS
100
AcDbLine
 10
307.7634369010297
 20
550.8846344501555
 30
0.0
 11
293.7634369010297
 21
550.8846344501555
 31
0.0
  0
LINE
  5
4D3
330
2
100
AcDbEntity
  8
AM_VIS
100
AcDbLine
 10
293.7634369010297
 20
550.8846344501555
 30
0.0
 11
293.5134369010288
 21
551.1346344501564
 31
0.0
  0
LINE
  5
4D4
330
2
100
AcDbEntity
  8
AM_VIS
100
AcDbLine
 10
307.7634369010297
 20
550.8846344501555
 30
0.0
 11
308.0134369010306
 21
551.1346344501564
 31
0.0
  0
ELLIPSE
  5
4D5
330
2
100
AcDbEntity
  8
AM_VIS
100
AcDbEllipse
 10
276.0939870203555
 20
608.1346344501564
 30
0.0
 11
-0.0000000000000001
 21
-3.0
 31
0.0
210
0.0
220
0.0
230
1.0
 40
0.9921950996435393
 41
3.141592653589793
 42
4.712388980384689
  0
ELLIPSE
  5
4D6
330
2
100
AcDbEntity
  8
AM_VIS
100
AcDbEllipse
 10
279.8147186440188
 20
557.8846344501564
 30
0.0
 11
-0.0000000000000001
 21
-4.1
 31
0.0
210
0.0
220
0.0
230
1.0
 40
0.9921950996435391
 41
4.712388980384689
 42
10.99557428756427
  0
ELLIPSE
  5
4D7
330
2
100
AcDbEntity
  8
AM_VIS
100
AcDbEllipse
 10
279.8147186440188
 20
604.3846344501564
 30
0.0
 11
-0.0000000000000001
 21
-4.1
 31
0.0
210
0.0
220
0.0
230
1.0
 40
0.9921950996435391
 41
4.712388980384689
 42
10.99557428756427
  0
ELLIPSE
  5
4D8
330
2
100
AcDbEntity
  8
AM_VIS
100
AcDbEllipse
 10
325.9517907774434
 20
604.3846344501564
 30
0.0
 11
-0.0000000000000001
 21
-4.1
 31
0.0
210
0.0
220
0.0
230
1.0
 40
0.9921950996435391
 41
4.712388980384689
 42
10.99557428756427
  0
ELLIPSE
  5
4D9
330
2
100
AcDbEntity
  8
AM_VIS
100
AcDbEllipse
 10
325.9517907774434
 20
557.8846344501564
 30
0.0
 11
-0.0000000000000001
 21
-4.1
 31
0.0
210
0.0
220
0.0
230
1.0
 40
0.9921950996435391
 41
4.712388980384689
 42
10.99557428756427
  0
LINE
  5
4DA
330
2
100
AcDbEntity
  8
AM_VIS
100
AcDbLine
 10
273.1174017214249
 20
554.1346344501564
 30
0.0
 11
273.1174017214249
 21
564.0346344501567
 31
0.0
  0
LINE
  5
4DB
330
2
100
AcDbEntity
  8
AM_VIS
100
AcDbLine
 10
273.1174017214249
 20
602.0346344501567
 30
0.0
 11
273.1174017214249
 21
608.1346344501564
 31
0.0
  0
ELLIPSE
  5
4DC
330
2
100
AcDbEntity
  8
AM_VIS
100
AcDbEllipse
 10
276.0939870203555
 20
554.1346344501564
 30
0.0
 11
-0.0000000000000001
 21
-3.0
 31
0.0
210
0.0
220
0.0
230
1.0
 40
0.9921950996435393
 41
4.712388980384689
 42
6.283185307179586
  0
LINE
  5
4DD
330
2
100
AcDbEntity
  8
AM_VIS
100
AcDbLine
 10
287.7634369010297
 20
551.1346344501564
 30
0.0
 11
276.0939870203555
 21
551.1346344501564
 31
0.0
  0
LINE
  5
4DE
330
2
100
AcDbEntity
  8
AM_VIS
100
AcDbLine
 10
329.6725224011067
 20
551.1346344501564
 30
0.0
 11
317.7661812053842
 21
551.1346344501564
 31
0.0
  0
ELLIPSE
  5
4DF
330
2
100
AcDbEntity
  8
AM_VIS
100
AcDbEllipse
 10
329.6725224011066
 20
554.1346344501564
 30
0.0
 11
-0.0000000000000001
 21
-3.0
 31
0.0
210
0.0
220
0.0
230
1.0
 40
0.9921950996435393
 41
0.0
 42
1.570796326794896
  0
LINE
  5
4E0
330
2
100
AcDbEntity
  8
AM_VIS
100
AcDbLine
 10
332.6491077000373
 20
608.1346344501564
 30
0.0
 11
332.6491077000373
 21
554.1346344501564
 31
0.0
  0
ELLIPSE
  5
4E1
330
2
100
AcDbEntity
  8
AM_VIS
100
AcDbEllipse
 10
329.6725224011067
 20
608.1346344501564
 30
0.0
 11
-0.0000000000000001
 21
-3.0
 31
0.0
210
0.0
220
0.0
230
1.0
 40
0.9921950996435393
 41
1.570796326794896
 42
3.141592653589793
  0
LINE
  5
4E2
330
2
100
AcDbEntity
  8
AM_VIS
100
AcDbLine
 10
317.7661812053842
 20
611.1346344501564
 30
0.0
 11
329.6725224011066
 21
611.1346344501564
 31
0.0
  0
LINE
  5
4E3
330
2
100
AcDbEntity
  8
AM_VIS
100
AcDbLine
 10
276.0939870203555
 20
611.1346344501564
 30
0.0
 11
287.7634369010297
 21
611.1346344501564
 31
0.0
  0
LINE
  5
4E4
330
2
100
AcDbEntity
  8
AM_VIS
100
AcDbLine
 10
329.6725224011067
 20
551.1346344501564
 30
0.0
 11
330.9194740538722
 21
551.1346344501564
 31
0.0
  0
ELLIPSE
  5
4E5
330
2
100
AcDbEntity
  8
AM_VIS
100
AcDbEllipse
 10
330.9194740538722
 20
554.1346344501564
 30
0.0
 11
-0.0000000000000001
 21
-3.0
 31
0.0
210
0.0
220
0.0
230
1.0
 40
0.9921950996435393
 41
0.0
 42
1.570796326794896
  0
LINE
  5
4E6
330
2
100
AcDbEntity
  8
AM_VIS
100
AcDbLine
 10
333.8960593528028
 20
608.1346344501564
 30
0.0
 11
333.8960593528028
 21
554.1346344501564
 31
0.0
  0
ELLIPSE
  5
4E7
330
2
100
AcDbEntity
  8
AM_VIS
100
AcDbEllipse
 10
330.9194740538722
 20
608.1346344501564
 30
0.0
 11
-0.0000000000000001
 21
-3.0
 31
0.0
210
0.0
220
0.0
230
1.0
 40
0.9921950996435393
 41
1.570796326794896
 42
3.141592653589793
  0
LINE
  5
4E8
330
2
100
AcDbEntity
  8
AM_VIS
100
AcDbLine
 10
330.9194740538722
 20
611.1346344501564
 30
0.0
 11
329.6725224011067
 21
611.1346344501564
 31
0.0
  0
LINE
  5
4E9
330
2
100
AcDbEntity
  8
AM_VIS
100
AcDbLine
 10
317.7661812053842
 20
565.1346344501564
 30
0.0
 11
315.532400675544
 21
565.1346344501564
 31
0.0
  0
LINE
  5
4EA
330
2
100
AcDbEntity
  8
AM_VIS
100
AcDbLine
 10
315.532400675544
 20
551.1346344501564
 30
0.0
 11
317.7661812053842
 21
551.1346344501564
 31
0.0
  0
LINE
  5
4EB
330
2
100
AcDbEntity
  8
AM_VIS
100
AcDbLine
 10
315.532400675544
 20
565.1346344501564
 30
0.0
 11
313.6619731963957
 21
565.1346344501564
 31
0.0
  0
LINE
  5
4EC
330
2
100
AcDbEntity
  8
AM_VIS
100
AcDbLine
 10
315.532400675544
 20
551.1346344501564
 30
0.0
 11
313.6619731963957
 21
551.1346344501564
 31
0.0
  0
LINE
  5
4ED
330
2
100
AcDbEntity
  8
AM_VIS
100
AcDbLine
 10
315.532400675544
 20
597.1346344501564
 30
0.0
 11
317.7661812053842
 21
597.1346344501564
 31
0.0
  0
LINE
  5
4EE
330
2
100
AcDbEntity
  8
AM_VIS
100
AcDbLine
 10
317.7661812053842
 20
611.1346344501564
 30
0.0
 11
315.532400675544
 21
611.1346344501564
 31
0.0
  0
ELLIPSE
  5
4EF
330
2
100
AcDbEntity
  8
AM_VIS
100
AcDbEllipse
 10
300.8881320663062
 20
581.1346344501564
 30
0.0
 11
-0.0000000000000004
 21
-10.0
 31
0.0
210
0.0
220
0.0
230
1.0
 40
0.9921950996435393
 41
5.355890089177957
 42
10.35207317877097
  0
ELLIPSE
  5
4F0
330
2
100
AcDbEntity
  8
AM_VIS
100
AcDbEllipse
 10
304.1302063634967
 20
581.1346344501564
 30
0.0
 11
-0.0000000000000004
 21
-10.0
 31
0.0
210
0.0
220
0.0
230
1.0
 40
0.9921950996435393
 41
3.305707232054449
 42
4.068887871591385
  0
ELLIPSE
  5
4F1
330
2
100
AcDbEntity
  8
AM_VIS
100
AcDbEllipse
 10
304.1302063634967
 20
581.1346344501564
 30
0.0
 11
-0.0000000000000004
 21
-10.0
 31
0.0
210
0.0
220
0.0
230
1.0
 40
0.9921950996435393
 41
5.355890089177955
 42
6.119070728714825
  0
LINE
  5
4F2
330
2
100
AcDbEntity
  8
AM_VIS
100
AcDbLine
 10
287.7634369010297
 20
565.1346344501564
 30
0.0
 11
313.6619731963957
 21
565.1346344501564
 31
0.0
  0
LINE
  5
4F3
330
2
100
AcDbEntity
  8
AM_VIS
100
AcDbLine
 10
313.6619731963957
 20
597.1346344501564
 30
0.0
 11
315.532400675544
 21
597.1346344501564
 31
0.0
  0
LINE
  5
4F4
330
2
100
AcDbEntity
  8
AM_VIS
100
AcDbLine
 10
313.6619731963957
 20
597.1346344501564
 30
0.0
 11
287.7634369010297
 21
597.1346344501564
 31
0.0
  0
LINE
  5
4F5
330
2
100
AcDbEntity
  8
AM_VIS
100
AcDbLine
 10
313.6619731963957
 20
611.1346344501564
 30
0.0
 11
315.532400675544
 21
611.1346344501564
 31
0.0
  0
LINE
  5
4F6
330
2
100
AcDbEntity
  8
AM_VIS
100
AcDbLine
 10
313.6619731963957
 20
611.1346344501564
 30
0.0
 11
287.7634369010297
 21
611.1346344501564
 31
0.0
  0
LINE
  5
4F7
330
2
100
AcDbEntity
  8
AM_VIS
100
AcDbLine
 10
287.7634369010297
 20
551.1346344501564
 30
0.0
 11
313.6619731963957
 21
551.1346344501564
 31
0.0
  0
ELLIPSE
  5
4F8
330
2
100
AcDbEntity
  8
AM_VIS
100
AcDbEllipse
 10
281.0616702967844
 20
557.8846344501564
 30
0.0
 11
-0.0000000000000001
 21
-4.1
 31
0.0
210
0.0
220
0.0
230
1.0
 40
0.9921950996435391
 41
4.712388980384689
 42
6.129315374991347
  0
ELLIPSE
  5
4F9
330
2
100
AcDbEntity
  8
AM_VIS
100
AcDbEllipse
 10
281.0616702967844
 20
557.8846344501564
 30
0.0
 11
-0.0000000000000001
 21
-4.1
 31
0.0
210
0.0
220
0.0
230
1.0
 40
0.9921950996435391
 41
3.295462585778031
 42
4.712388980384689
  0
ELLIPSE
  5
4FA
330
2
100
AcDbEntity
  8
AM_VIS
100
AcDbEllipse
 10
281.0616702967844
 20
604.3846344501564
 30
0.0
 11
-0.0000000000000001
 21
-4.1
 31
0.0
210
0.0
220
0.0
230
1.0
 40
0.9921950996435391
 41
4.712388980384689
 42
6.129315374991347
  0
ELLIPSE
  5
4FB
330
2
100
AcDbEntity
  8
AM_VIS
100
AcDbEllipse
 10
281.0616702967844
 20
604.3846344501564
 30
0.0
 11
-0.0000000000000001
 21
-4.1
 31
0.0
210
0.0
220
0.0
230
1.0
 40
0.9921950996435391
 41
3.295462585778031
 42
4.712388980384689
  0
ELLIPSE
  5
4FC
330
2
100
AcDbEntity
  8
AM_VIS
100
AcDbEllipse
 10
327.198742430209
 20
557.8846344501564
 30
0.0
 11
-0.0000000000000001
 21
-4.1
 31
0.0
210
0.0
220
0.0
230
1.0
 40
0.9921950996435391
 41
4.712388980384689
 42
6.129315374991367
  0
ELLIPSE
  5
4FD
330
2
100
AcDbEntity
  8
AM_VIS
100
AcDbEllipse
 10
327.198742430209
 20
557.8846344501564
 30
0.0
 11
-0.0000000000000001
 21
-4.1
 31
0.0
210
0.0
220
0.0
230
1.0
 40
0.9921950996435391
 41
3.295462585778011
 42
4.712388980384689
  0
ELLIPSE
  5
4FE
330
2
100
AcDbEntity
  8
AM_VIS
100
AcDbEllipse
 10
327.198742430209
 20
604.3846344501564
 30
0.0
 11
-0.0000000000000001
 21
-4.1
 31
0.0
210
0.0
220
0.0
230
1.0
 40
0.9921950996435391
 41
4.712388980384689
 42
6.129315374991367
  0
ELLIPSE
  5
4FF
330
2
100
AcDbEntity
  8
AM_VIS
100
AcDbEllipse
 10
327.198742430209
 20
604.3846344501564
 30
0.0
 11
-0.0000000000000001
 21
-4.1
 31
0.0
210
0.0
220
0.0
230
1.0
 40
0.9921950996435391
 41
3.295462585778011
 42
4.712388980384689
  0
LINE
  5
500
330
2
100
AcDbEntity
  8
AM_VIS
100
AcDbLine
 10
287.7634369010297
 20
611.1346344501564
 30
0.0
 11
287.7634369010297
 21
597.1346344501564
 31
0.0
  0
LINE
  5
501
330
2
100
AcDbEntity
  8
AM_VIS
100
AcDbLine
 10
287.7634369010297
 20
565.1346344501564
 30
0.0
 11
287.7634369010297
 21
551.1346344501564
 31
0.0
  0
LINE
  5
502
330
2
100
AcDbEntity
  8
AM_VIS
100
AcDbLine
 10
170.5990019720148
 20
588.9846344501568
 30
0.0
 11
202.5990019720148
 21
588.9846344501568
 31
0.0
  0
LINE
  5
503
330
2
100
AcDbEntity
  8
AM_VIS
100
AcDbLine
 10
202.5990019720148
 20
588.9846344501568
 30
0.0
 11
202.5990019720148
 21
573.1346344501567
 31
0.0
  0
LINE
  5
504
330
2
100
AcDbEntity
  8
AM_VIS
100
AcDbLine
 10
170.5990019720148
 20
588.9846344501568
 30
0.0
 11
170.5990019720148
 21
573.1346344501567
 31
0.0
  0
ENDSEC
  0
SECTION
  2
OBJECTS
  0
DICTIONARY
  5
8
330
0
100
AcDbDictionary
  3
ACAD_GROUP
350
20
  3
ACAD_LAYOUT
350
C
  3
ACAD_MLINESTYLE
350
21
  3
ACAD_PLOTSETTINGS
350
22
  3
ACAD_PLOTSTYLENAME
350
7
  3
ACDBHEADERROUNDTRIPXREC
350
533
  0
DICTIONARY
  5
3
330
2
100
AcDbDictionary
280
     1
  3
ACAD_LAYOUTSELFREF
360
554
  0
DICTIONARY
  5
52B
330
D
100
AcDbDictionary
280
     1
  3
ACAD_LAYOUTSELFREF
360
555
  0
DICTIONARY
  5
20
102
{ACAD_REACTORS
330
8
102
}
330
8
100
AcDbDictionary
  0
DICTIONARY
  5
C
102
{ACAD_REACTORS
330
8
102
}
330
8
100
AcDbDictionary
  0
DICTIONARY
  5
21
102
{ACAD_REACTORS
330
8
102
}
330
8
100
AcDbDictionary
  3
STANDARD
350
24
  0
DICTIONARY
  5
22
102
{ACAD_REACTORS
330
8
102
}
330
8
100
AcDbDictionary
  0
ACDBDICTIONARYWDFLT
  5
7
102
{ACAD_REACTORS
330
8
102
}
330
8
100
AcDbDictionary
281
     1
  3
Normal
350
6
100
AcDbDictionaryWithDefault
340
6
  0
DICTIONARY
  5
533
102
{ACAD_REACTORS
330
8
102
}
330
8
100
AcDbDictionary
  3
CEPSNTYPE
350
53D
  3
DIMSTYLEDATA
350
541
  3
FINGERPRINTGUID
350
53E
  3
HYPERLINKBASE
350
536
  3
INSUNITS
350
53C
  3
LAYOUTDICT
350
538
  3
LWETCUNION
350
53B
  3
PLOTSETDICT
350
539
  3
PLOTSTYLNAMDICT
350
53A
  3
PSVPSCALE
350
540
  3
PUCSBASE
350
544
  3
PUCSORGBACK
350
54A
  3
PUCSORGBOTTOM
350
546
  3
PUCSORGFRONT
350
549
  3
PUCSORGLEFT
350
547
  3
PUCSORGRIGHT
350
548
  3
PUCSORGTOP
350
545
  3
PUCSORTHOREF
350
542
  3
PUCSORTHOVIEW
350
543
  3
STYLESHEET
350
537
  3
TSTACKALIGN
350
534
  3
TSTACKSIZE
350
535
  3
UCSBASE
350
54D
  3
UCSORGBACK
350
553
  3
UCSORGBOTTOM
350
54F
  3
UCSORGFRONT
350
552
  3
UCSORGLEFT
350
550
  3
UCSORGRIGHT
350
551
  3
UCSORGTOP
350
54E
  3
UCSORTHOREF
350
54B
  3
UCSORTHOVIEW
350
54C
  3
VERSIONGUID
350
53F
  0
XRECORD
  5
554
102
{ACAD_REACTORS
330
3
102
}
330
3
100
AcDbXrecord
340
2
  0
XRECORD
  5
555
102
{ACAD_REACTORS
330
52B
102
}
330
52B
100
AcDbXrecord
340
D
  0
MLINESTYLE
  5
24
102
{ACAD_REACTORS
330
21
102
}
330
21
100
AcDbMlineStyle
  2
STANDARD
 70
     0
  3

 62
   256
 51
90.0
 52
90.0
 71
     2
 49
0.5
 62
   256
  6
BYLAYER
 49
-0.5
 62
   256
  6
BYLAYER
  0
ACDBPLACEHOLDER
  5
6
102
{ACAD_REACTORS
330
7
102
}
330
7
100
AcDbPlaceHolder
280
     0
  0
XRECORD
  5
53D
102
{ACAD_REACTORS
330
533
102
}
330
533
100
AcDbXrecord
 90
        0
  0
XRECORD
  5
541
102
{ACAD_REACTORS
330
533
102
}
330
533
100
AcDbXrecord
1000
DSTYLE
1002
{
1070
   289
 70
     0
1002
}
  0
XRECORD
  5
53E
102
{ACAD_REACTORS
330
533
102
}
330
533
100
AcDbXrecord
  1
{73956AB2-A9F3-11D4-8125-0000E84152ED}
  0
XRECORD
  5
536
102
{ACAD_REACTORS
330
533
102
}
330
533
100
AcDbXrecord
  1

  0
XRECORD
  5
53C
102
{ACAD_REACTORS
330
533
102
}
330
533
100
AcDbXrecord
 90
        0
  0
XRECORD
  5
538
102
{ACAD_REACTORS
330
533
102
}
330
533
100
AcDbXrecord
340
C
  0
XRECORD
  5
53B
102
{ACAD_REACTORS
330
533
102
}
330
533
100
AcDbXrecord
 90
    10781
  0
XRECORD
  5
539
102
{ACAD_REACTORS
330
533
102
}
330
533
100
AcDbXrecord
340
22
  0
XRECORD
  5
53A
102
{ACAD_REACTORS
330
533
102
}
330
533
100
AcDbXrecord
340
7
  0
XRECORD
  5
540
102
{ACAD_REACTORS
330
533
102
}
330
533
100
AcDbXrecord
 40
0.0
  0
XRECORD
  5
544
102
{ACAD_REACTORS
330
533
102
}
330
533
100
AcDbXrecord
340
0
  0
XRECORD
  5
54A
102
{ACAD_REACTORS
330
533
102
}
330
533
100
AcDbXrecord
 10
0.0
 20
0.0
 30
0.0
  0
XRECORD
  5
546
102
{ACAD_REACTORS
330
533
102
}
330
533
100
AcDbXrecord
 10
0.0
 20
0.0
 30
0.0
  0
XRECORD
  5
549
102
{ACAD_REACTORS
330
533
102
}
330
533
100
AcDbXrecord
 10
0.0
 20
0.0
 30
0.0
  0
XRECORD
  5
547
102
{ACAD_REACTORS
330
533
102
}
330
533
100
AcDbXrecord
 10
0.0
 20
0.0
 30
0.0
  0
XRECORD
  5
548
102
{ACAD_REACTORS
330
533
102
}
330
533
100
AcDbXrecord
 10
0.0
 20
0.0
 30
0.0
  0
XRECORD
  5
545
102
{ACAD_REACTORS
330
533
102
}
330
533
100
AcDbXrecord
 10
0.0
 20
0.0
 30
0.0
  0
XRECORD
  5
542
102
{ACAD_REACTORS
330
533
102
}
330
533
100
AcDbXrecord
340
0
  0
XRECORD
  5
543
102
{ACAD_REACTORS
330
533
102
}
330
533
100
AcDbXrecord
 70
     0
  0
XRECORD
  5
537
102
{ACAD_REACTORS
330
533
102
}
330
533
100
AcDbXrecord
  1

  0
XRECORD
  5
534
102
{ACAD_REACTORS
330
533
102
}
330
533
100
AcDbXrecord
 90
        1
  0
XRECORD
  5
535
102
{ACAD_REACTORS
330
533
102
}
330
533
100
AcDbXrecord
 90
       70
  0
XRECORD
  5
54D
102
{ACAD_REACTORS
330
533
102
}
330
533
100
AcDbXrecord
340
0
  0
XRECORD
  5
553
102
{ACAD_REACTORS
330
533
102
}
330
533
100
AcDbXrecord
 10
0.0
 20
0.0
 30
0.0
  0
XRECORD
  5
54F
102
{ACAD_REACTORS
330
533
102
}
330
533
100
AcDbXrecord
 10
0.0
 20
0.0
 30
0.0
  0
XRECORD
  5
552
102
{ACAD_REACTORS
330
533
102
}
330
533
100
AcDbXrecord
 10
0.0
 20
0.0
 30
0.0
  0
XRECORD
  5
550
102
{ACAD_REACTORS
330
533
102
}
330
533
100
AcDbXrecord
 10
0.0
 20
0.0
 30
0.0
  0
XRECORD
  5
551
102
{ACAD_REACTORS
330
533
102
}
330
533
100
AcDbXrecord
 10
0.0
 20
0.0
 30
0.0
  0
XRECORD
  5
54E
102
{ACAD_REACTORS
330
533
102
}
330
533
100
AcDbXrecord
 10
0.0
 20
0.0
 30
0.0
  0
XRECORD
  5
54B
102
{ACAD_REACTORS
330
533
102
}
330
533
100
AcDbXrecord
340
0
  0
XRECORD
  5
54C
102
{ACAD_REACTORS
330
533
102
}
330
533
100
AcDbXrecord
 70
     0
  0
XRECORD
  5
53F
102
{ACAD_REACTORS
330
533
102
}
330
533
100
AcDbXrecord
  1
{DC953133-C9F0-11D4-B217-0000E8450865}
  0
ENDSEC
  0
EOF
