  0
SECTION
  2
HEADER
  9
$ACADVER
  1
AC1014
  9
$ACADMAINTVER
 70
     9
  9
$DWGCODEPAGE
  3
ANSI_1252
  9
$INSBASE
 10
0.0
 20
0.0
 30
0.0
  9
$EXTMIN
 10
-159.1604334036655
 20
-86.49254795554933
 30
0.0
  9
$EXTMAX
 10
593.4181398078545
 20
551.1179912168813
 30
0.0
  9
$LIMMIN
 10
0.0
 20
0.0
  9
$LIMMAX
 10
420.0
 20
297.0
  9
$ORTHOMODE
 70
     0
  9
$REGENMODE
 70
     1
  9
$FILLMODE
 70
     1
  9
$QTEXTMODE
 70
     0
  9
$MIRRTEXT
 70
     1
  9
$DRAGMODE
 70
     2
  9
$LTSCALE
 40
8.0
  9
$OSMODE
 70
    37
  9
$ATTMODE
 70
     1
  9
$TEXTSIZE
 40
2.5
  9
$TRACEWID
 40
1.0
  9
$TEXTSTYLE
  7
STANDARD
  9
$CLAYER
  8
DIMS
  9
$CELTYPE
  6
BYLAYER
  9
$CECOLOR
 62
   256
  9
$CELTSCALE
 40
1.0
  9
$DELOBJ
 70
     1
  9
$DISPSILH
 70
     0
  9
$DIMSCALE
 40
1.0
  9
$DIMASZ
 40
2.5
  9
$DIMEXO
 40
1.0
  9
$DIMDLI
 40
3.75
  9
$DIMRND
 40
0.0
  9
$DIMDLE
 40
0.0
  9
$DIMEXE
 40
1.25
  9
$DIMTP
 40
0.0
  9
$DIMTM
 40
0.0
  9
$DIMTXT
 40
2.5
  9
$DIMCEN
 40
2.5
  9
$DIMTSZ
 40
0.0
  9
$DIMTOL
 70
     0
  9
$DIMLIM
 70
     0
  9
$DIMTIH
 70
     0
  9
$DIMTOH
 70
     0
  9
$DIMSE1
 70
     0
  9
$DIMSE2
 70
     0
  9
$DIMTAD
 70
     1
  9
$DIMZIN
 70
     0
  9
$DIMBLK
  1

  9
$DIMASO
 70
     1
  9
$DIMSHO
 70
     1
  9
$DIMPOST
  1

  9
$DIMAPOST
  1

  9
$DIMALT
 70
     0
  9
$DIMALTD
 70
     4
  9
$DIMALTF
 40
0.0394
  9
$DIMLFAC
 40
-1.0
  9
$DIMTOFL
 70
     0
  9
$DIMTVP
 40
0.0
  9
$DIMTIX
 70
     0
  9
$DIMSOXD
 70
     0
  9
$DIMSAH
 70
     0
  9
$DIMBLK1
  1

  9
$DIMBLK2
  1

  9
$DIMSTYLE
  2
DIMSTYLE1
  9
$DIMCLRD
 70
     0
  9
$DIMCLRE
 70
     0
  9
$DIMCLRT
 70
     0
  9
$DIMTFAC
 40
1.0
  9
$DIMGAP
 40
0.625
  9
$DIMJUST
 70
     0
  9
$DIMSD1
 70
     0
  9
$DIMSD2
 70
     0
  9
$DIMTOLJ
 70
     1
  9
$DIMTZIN
 70
     0
  9
$DIMALTZ
 70
     0
  9
$DIMALTTZ
 70
     0
  9
$DIMFIT
 70
     0
  9
$DIMUPT
 70
     0
  9
$DIMUNIT
 70
     2
  9
$DIMDEC
 70
     1
  9
$DIMTDEC
 70
     0
  9
$DIMALTU
 70
     8
  9
$DIMALTTD
 70
     4
  9
$DIMTXSTY
  7
STANDARD
  9
$DIMAUNIT
 70
     0
  9
$LUNITS
 70
     2
  9
$LUPREC
 70
     4
  9
$SKETCHINC
 40
1.0
  9
$FILLETRAD
 40
10.0
  9
$AUNITS
 70
     0
  9
$AUPREC
 70
     0
  9
$MENU
  1
.
  9
$ELEVATION
 40
0.0
  9
$PELEVATION
 40
0.0
  9
$THICKNESS
 40
0.0
  9
$LIMCHECK
 70
     0
  9
$BLIPMODE
 70
     0
  9
$CHAMFERA
 40
10.0
  9
$CHAMFERB
 40
10.0
  9
$CHAMFERC
 40
20.0
  9
$CHAMFERD
 40
0.0
  9
$SKPOLY
 70
     0
  9
$TDCREATE
 40
2451325.672931134
  9
$TDUPDATE
 40
2451883.606628125
  9
$TDINDWG
 40
0.4106359838
  9
$TDUSRTIMER
 40
0.4106359838
  9
$USRTIMER
 70
     1
  9
$ANGBASE
 50
0.0
  9
$ANGDIR
 70
     0
  9
$PDMODE
 70
     0
  9
$PDSIZE
 40
0.0
  9
$PLINEWID
 40
0.0
  9
$COORDS
 70
     1
  9
$SPLFRAME
 70
     0
  9
$SPLINETYPE
 70
     6
  9
$SPLINESEGS
 70
     8
  9
$ATTDIA
 70
     0
  9
$ATTREQ
 70
     1
  9
$HANDLING
 70
-16383
  9
$HANDSEED
  5
564
  9
$SURFTAB1
 70
     6
  9
$SURFTAB2
 70
     6
  9
$SURFTYPE
 70
     6
  9
$SURFU
 70
     6
  9
$SURFV
 70
     6
  9
$UCSNAME
  2

  9
$UCSORG
 10
0.0
 20
0.0
 30
0.0
  9
$UCSXDIR
 10
1.0
 20
0.0
 30
0.0
  9
$UCSYDIR
 10
0.0
 20
1.0
 30
0.0
  9
$PUCSNAME
  2

  9
$PUCSORG
 10
0.0
 20
0.0
 30
0.0
  9
$PUCSXDIR
 10
1.0
 20
0.0
 30
0.0
  9
$PUCSYDIR
 10
0.0
 20
1.0
 30
0.0
  9
$USERI1
 70
     0
  9
$USERI2
 70
     0
  9
$USERI3
 70
     0
  9
$USERI4
 70
     0
  9
$USERI5
 70
     0
  9
$USERR1
 40
0.0
  9
$USERR2
 40
0.0
  9
$USERR3
 40
0.0
  9
$USERR4
 40
0.0
  9
$USERR5
 40
0.0
  9
$WORLDVIEW
 70
     1
  9
$SHADEDGE
 70
     3
  9
$SHADEDIF
 70
    70
  9
$TILEMODE
 70
     1
  9
$MAXACTVP
 70
    48
  9
$PINSBASE
 10
0.0
 20
0.0
 30
0.0
  9
$PLIMCHECK
 70
     0
  9
$PEXTMIN
 10
-216.5287305793524
 20
-111.1033802653764
 30
0.0
  9
$PEXTMAX
 10
650.7864369835415
 20
555.8179912168814
 30
0.0
  9
$PLIMMIN
 10
-17.79376220703125
 20
-5.793749809265136
  9
$PLIMMAX
 10
261.6062316894531
 20
210.1062440872192
  9
$UNITMODE
 70
     0
  9
$VISRETAIN
 70
     1
  9
$PLINEGEN
 70
     0
  9
$PSLTSCALE
 70
     1
  9
$TREEDEPTH
 70
  3020
  9
$PICKSTYLE
 70
     1
  9
$CMLSTYLE
  2
STANDARD
  9
$CMLJUST
 70
     0
  9
$CMLSCALE
 40
20.0
  9
$PROXYGRAPHICS
 70
     1
  9
$MEASUREMENT
 70
     1
  0
ENDSEC
  0
SECTION
  2
CLASSES
  0
CLASS
  1
ACMESTATEMGR
  2
AcMeStateMgr
  3
AcMeServices
 90
        0
280
     0
281
     0
  0
CLASS
  1
ACMESCOPE
  2
AcMeScope
  3
AcMeServices
 90
        0
280
     0
281
     0
  0
CLASS
  1
ACMECOMMANDHISTORY
  2
AcMeCommandHistory
  3
AcMeServices
 90
        0
280
     0
281
     0
  0
CLASS
  1
ACRFINSADJUSTERMGR
  2
AcRfInsAdjusterMgr
  3
AcMeServices
 90
        0
280
     0
281
     0
  0
CLASS
  1
ACMEDRAWINGMAN
  2
AcMeDrawingMan
  3
AcMeServices
 90
        0
280
     0
281
     0
  0
CLASS
  1
AMATTR
  2
AcMeAttribute
  3
AcMeServices
 90
        0
280
     0
281
     0
  0
CLASS
  1
ACMEBOMCOLUMN
  2
AcMeBOMColumn
  3
AcMeServices
 90
        0
280
     0
281
     0
  0
CLASS
  1
ACANBOMCONF
  2
AcMeBOMConf
  3
AcMeServices
 90
        0
280
     0
281
     0
  0
CLASS
  1
ACMEBOMTABLE
  2
AcMeBOMTable
  3
AcMeServices
 90
        0
280
     0
281
     0
  0
CLASS
  1
ACMEBOMENTRY
  2
AcMeBOMEntry
  3
AcMeServices
 90
        0
280
     0
281
     0
  0
CLASS
  1
ACMEVIEW
  2
AcMeView
  3
AcMeServices
 90
        0
280
     0
281
     0
  0
CLASS
  1
ACGREFMASTER
  2
AcGrefMaster
  3
AcAttribServices
 90
        0
280
     0
281
     0
  0
CLASS
  1
AMIMASTER
  2
AmiMaster
  3
AmiServices
 90
        0
280
     0
281
     0
  0
CLASS
  1
ACASGREFMASTER
  2
AcAsGrefMaster
  3
AutoSurfResolverServices
 90
        0
280
     0
281
     0
  0
CLASS
  1
ADAPPL
  2
AcAdAppl
  3
DesignerServices
 90
        0
280
     0
281
     0
  0
CLASS
  1
DEPMGR
  2
AcAdDepMgr
  3
DesignerServices
 90
        0
280
     0
281
     0
  0
CLASS
  1
PARAMMGR
  2
AcAdParamMgr
  3
DesignerServices
 90
        0
280
     0
281
     0
  0
CLASS
  1
PARAMSCOPE
  2
AcAdParamScope
  3
DesignerServices
 90
        0
280
     0
281
     0
  0
CLASS
  1
ACIMSYSVARMAN
  2
AcImSysVarManager
  3
AcMeServices
 90
        0
280
     0
281
     0
  0
CLASS
  1
ACIMINTSYSVAR
  2
AcImIntSysVar
  3
AcMeServices
 90
        0
280
     0
281
     0
  0
CLASS
  1
ACIMREALSYSVAR
  2
AcImRealSysVar
  3
AcMeServices
 90
        0
280
     0
281
     0
  0
CLASS
  1
ACIMSTRSYSVAR
  2
AcImStrSysVar
  3
AcMeServices
 90
        0
280
     0
281
     0
  0
CLASS
  1
NAMEDAPPL
  2
AcAdNamedAppl
  3
DesignerServices
 90
        0
280
     0
281
     0
  0
CLASS
  1
ADHNTMPLT
  2
AdHoleNoteTemplateMgr
  3
DesignerServices
 90
        0
280
     0
281
     0
  0
CLASS
  1
AM_HNTEMPLATE_MGR_NAME
  2
AdHoleNoteTemplateMgrName
  3
DesignerServices
 90
        0
280
     0
281
     0
  0
CLASS
  1
ACADGREFMODULE
  2
AcAdGrefModule
  3
AdGrefServices
 90
        0
280
     0
281
     0
  0
CLASS
  1
AM_DRAWING_MGR
  2
AcDmDwgMgr
  3
AcMechDwgViewMgmt
 90
        0
280
     0
281
     0
  0
CLASS
  1
AM_DWG_DOCUMENT
  2
AcDmDwgDocument
  3
AcMechDwgViewMgmt
 90
        0
280
     0
281
     0
  0
CLASS
  1
AM_DWG_SHEET
  2
AcDmSheet
  3
AcMechDwgViewMgmt
 90
        0
280
     0
281
     0
  0
CLASS
  1
AM_VIEWDIMPARMAP
  2
AcDmViewDimParMap
  3
AcMechDwgViewMgmt
 90
        0
280
     0
281
     0
  0
CLASS
  1
AM_DWGMGR_NAME
  2
AcDmDwgMgrName
  3
AcMechDwgViewMgmt
 90
        0
280
     0
281
     0
  0
CLASS
  1
ACAMPROJECT
  2
AcAmProject
  3
DesignerAssemblies
 90
        0
280
     0
281
     0
  0
CLASS
  1
ACAMGRCOMPSET
  2
AcAmGrCompSet
  3
DesignerAssemblies
 90
        0
280
     1
281
     0
  0
CLASS
  1
ACAMGRCOMPDEFSET
  2
AcAmGrCompDefSet
  3
DesignerAssemblies
 90
        0
280
     0
281
     0
  0
CLASS
  1
ACAMGRCOMPDEF
  2
AcAmGrCompDef
  3
DesignerAssemblies
 90
        0
280
     0
281
     0
  0
CLASS
  1
ACCMCONTEXT
  2
AcCmContext
  3
DesignerAssemblies
 90
        0
280
     0
281
     0
  0
CLASS
  1
ACAMCOMPDEF
  2
AcAmCompDef
  3
DesignerAssemblies
 90
        0
280
     0
281
     0
  0
CLASS
  1
ACAMCOMPDEFMGR
  2
AcAmCompDefMgr
  3
DesignerAssemblies
 90
        0
280
     0
281
     0
  0
CLASS
  1
AMCONTEXTMGR
  2
AcAmContextMgr
  3
DesignerAssemblies
 90
        0
280
     0
281
     0
  0
CLASS
  1
ACAMCONTEXTMODELER
  2
AcAmContextModeler
  3
DesignerAssemblies
 90
        0
280
     0
281
     0
  0
CLASS
  1
ACDMVIEWGEOM
  2
AcDmViewGeometry
  3
AcMechDwgViewMgmt
 90
        0
280
     0
281
     1
  0
CLASS
  1
CBROWSERAPPOBJECT
  2
CBrowserAppObject
  3
McadcomServices
 90
        0
280
     0
281
     0
  0
CLASS
  1
IM_STATIC_MAN
  2
AcImStaticVarManager
  3
AcMeServices
 90
        0
280
     0
281
     0
  0
CLASS
  1
ASAPP
  2
AcAsAppObject
  3
AutoSurfServices
 90
        0
280
     0
281
     0
  0
CLASS
  1
ACIMDBLSTATICVAR
  2
AcImDblStaticVar
  3
AcMeServices
 90
        0
280
     0
281
     0
  0
CLASS
  1
ACIMSTRSTATICVAR
  2
AcImStrStaticVar
  3
AcMeServices
 90
        0
280
     0
281
     0
  0
CLASS
  1
ACIMINTSTATICVAR
  2
AcImIntStaticVar
  3
AcMeServices
 90
        0
280
     0
281
     0
  0
CLASS
  1
CATALOGSTATE
  2
AcAmCatalogState
  3
DesignerAssemblies
 90
        0
280
     0
281
     0
  0
CLASS
  1
DM_PLACEHOLDER
  2
AcDmSelsetPlaceholder
  3
AcMechDwgViewMgmt
 90
        0
280
     0
281
     0
  0
CLASS
  1
DICTIONARYVAR
  2
AcDbDictionaryVar
  3
AutoCAD 2000
 90
        0
280
     0
281
     0
  0
CLASS
  1
LAYER_INDEX
  2
AcDbLayerIndex
  3
AutoCAD 2000
 90
        0
280
     0
281
     0
  0
CLASS
  1
IDBUFFER
  2
AcDbIdBuffer
  3
AutoCAD 2000
 90
        0
280
     0
281
     0
  0
CLASS
  1
ACMSTANDARDJIS
  2
AcmStandardJIS
  3
"Amdt_StdImp|Product Description: AutoCAD Mechanical 2000|Company: Autodesk"
 90
        0
280
     0
281
     0
  0
CLASS
  1
ACMSTANDARDANSI
  2
AcmStandardANSI
  3
"Amdt_StdImp|Product Description: AutoCAD Mechanical 2000|Company: Autodesk"
 90
        0
280
     0
281
     0
  0
CLASS
  1
ACMSTANDARDBSI
  2
AcmStandardBSI
  3
"Amdt_StdImp|Product Description: AutoCAD Mechanical 2000|Company: Autodesk"
 90
        0
280
     0
281
     0
  0
CLASS
  1
ACMSTANDARDDIN
  2
AcmStandardDIN
  3
"Amdt_StdImp|Product Description: AutoCAD Mechanical 2000|Company: Autodesk"
 90
        0
280
     0
281
     0
  0
CLASS
  1
ACMSTANDARDISO
  2
AcmStandardISO
  3
"Amdt_StdImp|Product Description: AutoCAD Mechanical 2000|Company: Autodesk"
 90
        0
280
     0
281
     0
  0
CLASS
  1
DSDatabasePersistent
  2
DSDatabasePersistent
  3
DesignSpace
 90
        0
280
     1
281
     0
  0
CLASS
  1
DSGfxEntity
  2
DSGfxEntity
  3
DesignSpace
 90
        0
280
     1
281
     1
  0
CLASS
  1
DSGfxEntityMarker
  2
DSGfxEntityMarker
  3
DesignSpace
 90
        0
280
     1
281
     0
  0
CLASS
  1
AGDICTIONARY
  2
AgDictionary
  3
"AccelView"
 90
        1
280
     0
281
     0
  0
CLASS
  1
ACAMEXTERNALCOMPDEF
  2
AcAmExternalCompDef
  3
DesignerAssemblies
 90
        0
280
     0
281
     0
  0
CLASS
  1
ACCMBODY
  2
AcCmBody
  3
DesignerAssemblies
 90
        0
280
     0
281
     0
  0
CLASS
  1
ACAMGRCOMP
  2
AcAmGrComp
  3
DesignerAssemblies
 90
        0
280
     0
281
     0
  0
CLASS
  1
ACAMCOMPFEEDBACK
  2
AcAmCompFeedback
  3
DesignerAssemblies
 90
        0
280
     0
281
     0
  0
CLASS
  1
ACAMCOMP
  2
AcAmComp
  3
DesignerAssemblies
 90
        0
280
     0
281
     0
  0
CLASS
  1
ACAMGRCOMPCLONE
  2
AcAmGrCompClone
  3
DesignerAssemblies
 90
        0
280
     0
281
     0
  0
CLASS
  1
ACAMCLONEREACTOR
  2
AcAmGrCompCloneReactor
  3
DesignerAssemblies
 90
        0
280
     0
281
     0
  0
CLASS
  1
EDGEID
  2
AcAdEdgeId
  3
DesignerServices
 90
        0
280
     0
281
     0
  0
CLASS
  1
ACADPARTCIRCEDGRES
  2
AcAdPartCircEdgRes
  3
AdGrefServices
 90
        0
280
     0
281
     0
  0
CLASS
  1
ACRFINSADJ
  2
AcRfInsAdjuster
  3
AcMeServices
 90
        0
280
     0
281
     0
  0
CLASS
  1
FACEID
  2
AcAdFaceId
  3
DesignerServices
 90
        0
280
     0
281
     0
  0
CLASS
  1
DEPEDGESECONDARYDEPID
  2
AcAdDepEdgeSecondaryDepId
  3
DesignerServices
 90
        0
280
     0
281
     0
  0
CLASS
  1
ACADPARTPLANARFACERES
  2
AcAdPartPlanarFaceRes
  3
AdGrefServices
 90
        0
280
     0
281
     0
  0
CLASS
  1
ACMELINEARARROW
  2
AcImLinearArrowDisplay
  3
AcMeServices
 90
        0
280
     0
281
     1
  0
CLASS
  1
ACAMEXPR
  2
AcAmExpr
  3
DesignerAssemblies
 90
        0
280
     0
281
     0
  0
CLASS
  1
ACCMINSERTPLPL
  2
AcCmInsertPlPl
  3
AcCmServices
 90
        0
280
     0
281
     0
  0
CLASS
  1
ACADPARTAXISRES
  2
AcAdPartAxisRes
  3
AdGrefServices
 90
        0
280
     0
281
     0
  0
CLASS
  1
ACMEAXIS
  2
AcImAxisDisplay
  3
AcMeServices
 90
        0
280
     0
281
     1
  0
CLASS
  1
ACRFATTGENMGR
  2
AcRfAttGeneralMgr
  3
AcAttribServices
 90
        0
280
     0
281
     0
  0
CLASS
  1
ACCMDISTLNLN
  2
AcCmDistLnLn
  3
DesignerAssemblies
 90
        0
280
     0
281
     0
  0
CLASS
  1
ACADPARTLINEDGRES
  2
AcAdPartLinEdgRes
  3
AdGrefServices
 90
        0
280
     0
281
     0
  0
CLASS
  1
STREFID
  2
AcAdStraightRefId
  3
DesignerServices
 90
        0
280
     0
281
     0
  0
CLASS
  1
ACCMANGVECVEC
  2
AcCmAngVecVec
  3
DesignerAssemblies
 90
        0
280
     0
281
     0
  0
CLASS
  1
CIRREFID
  2
AcAdCircleRefId
  3
DesignerServices
 90
        0
280
     0
281
     0
  0
CLASS
  1
ACADPARTCYLINDERFACERES
  2
AcAdPartCylinderFaceRes
  3
AdGrefServices
 90
        0
280
     0
281
     0
  0
CLASS
  1
ACMECIRCARC
  2
AcImCircArcDisplay
  3
AcMeServices
 90
        0
280
     0
281
     1
  0
CLASS
  1
ACMEROTATIONARROW
  2
AcImRotationArrowDisplay
  3
AcMeServices
 90
        0
280
     0
281
     1
  0
CLASS
  1
ACMEPOINT
  2
AcImPointDisplay
  3
AcMeServices
 90
        0
280
     0
281
     1
  0
CLASS
  1
SILEDGEID
  2
AcAdSilhouetteEdgeId
  3
DesignerServices
 90
        0
280
     0
281
     0
  0
CLASS
  1
ADPART
  2
AcAdPart
  3
DesignerServices
 90
        0
280
     0
281
     1
  0
CLASS
  1
ADBASE
  2
AcAdBase
  3
DesignerServices
 90
        0
280
     0
281
     0
  0
CLASS
  1
BODYID
  2
AcAdBodyId
  3
DesignerServices
 90
        0
280
     0
281
     0
  0
CLASS
  1
WORKPLANEDISPLAYMGR
  2
AcAdDisplayMgr
  3
DesignerServices
 90
        0
280
     0
281
     0
  0
CLASS
  1
ADDATUMPLANEABS
  2
AcAdDatumPlaneAbs
  3
DesignerServices
 90
        0
280
     0
281
     0
  0
CLASS
  1
ADDATUMAXISABS
  2
AcAdDatumAxisAbs
  3
DesignerServices
 90
        0
280
     0
281
     0
  0
CLASS
  1
ADDATUMORIENTEDPLANE
  2
AcAdDatumOrientedPlane
  3
DesignerServices
 90
        0
280
     0
281
     0
  0
CLASS
  1
ACAMGRBLOCKRECORD
  2
AcAmGrBlockRecord
  3
DesignerAssemblies
 90
        0
280
     0
281
     0
  0
CLASS
  1
ACAMVIEWREACTOR
  2
AcAmViewReactor
  3
DesignerAssemblies
 90
        0
280
     0
281
     0
  0
CLASS
  1
AMVIEW
  2
AcAmView
  3
DesignerAssemblies
 90
        0
280
     0
281
     0
  0
CLASS
  1
ACAMVIEWCONTEXT
  2
AcAmViewContext
  3
DesignerAssemblies
 90
        0
280
     0
281
     0
  0
CLASS
  1
ACAMCOMPVIEWREACTOR
  2
AcAmGrCompViewReactor
  3
DesignerAssemblies
 90
        0
280
     0
281
     0
  0
CLASS
  1
ACAMGRCOMPVIEW
  2
AcAmGrCompView
  3
DesignerAssemblies
 90
        0
280
     0
281
     0
  0
CLASS
  1
ACAMVIEWENTITYFILTER
  2
AcAmViewEntityFilter
  3
DesignerAssemblies
 90
        0
280
     0
281
     0
  0
CLASS
  1
AM_ABS_PLANE
  2
AcDmAbsPlnDef
  3
AcMechDwgViewMgmt
 90
        0
280
     0
281
     0
  0
CLASS
  1
AM_ABS_AXIS
  2
AcDmAbsAxisDef
  3
AcMechDwgViewMgmt
 90
        0
280
     0
281
     0
  0
CLASS
  1
AM_BASE_VIEW_ORIENT
  2
AcDmBaseViewOr
  3
AcMechDwgViewMgmt
 90
        0
280
     0
281
     0
  0
CLASS
  1
AM_DWG_VIEWPORT
  2
AcDmViewport
  3
AcMechDwgViewMgmt
 90
        0
280
     0
281
     0
  0
CLASS
  1
AM_VIEW_DISPLAY
  2
AcDmDwgViewDisplay
  3
AcMechDwgViewMgmt
 90
        0
280
     0
281
     0
  0
CLASS
  1
AM_BASE_VIEW
  2
AcDmBaseView
  3
AcMechDwgViewMgmt
 90
        0
280
     0
281
     0
  0
CLASS
  1
ACDMVWEDLINE
  2
AcDmViewEdgeLine
  3
AcMechDwgViewMgmt
 90
        0
280
     0
281
     1
  0
CLASS
  1
ACDMVWEDCIRC
  2
AcDmViewEdgeCircle
  3
AcMechDwgViewMgmt
 90
        0
280
     0
281
     1
  0
CLASS
  1
ACDMVWEDSPLINE
  2
AcDmViewEdgeSpline
  3
AcMechDwgViewMgmt
 90
        0
280
     0
281
     1
  0
CLASS
  1
ACDMVWEDARC
  2
AcDmViewEdgeArc
  3
AcMechDwgViewMgmt
 90
        0
280
     0
281
     1
  0
CLASS
  1
AM_ISO_VIEW_ORIENT
  2
AcDmIsoViewOr
  3
AcMechDwgViewMgmt
 90
        0
280
     0
281
     0
  0
CLASS
  1
AM_ISO_VIEW
  2
AcDmIsoView
  3
AcMechDwgViewMgmt
 90
        0
280
     0
281
     0
  0
CLASS
  1
CNRREFID
  2
AcAdCornerId
  3
DesignerServices
 90
        0
280
     0
281
     0
  0
CLASS
  1
ACADPARTPOINTRES
  2
AcAdPartPointRes
  3
AdGrefServices
 90
        0
280
     0
281
     0
  0
CLASS
  1
AM_DETAIL_VIEW
  2
AcDmDetailView
  3
AcMechDwgViewMgmt
 90
        0
280
     0
281
     0
  0
CLASS
  1
AM_DETAILSYMBOL
  2
AcDmDetailSymbol
  3
AcMechDwgViewMgmt
 90
        0
280
     0
281
     0
  0
CLASS
  1
AM_DETAILVWLBL
  2
AcDmDetailViewLabel
  3
AcMechDwgViewMgmt
 90
        0
280
     0
281
     0
  0
CLASS
  1
AM_ORTHO_VIEW_ORIENT
  2
AcDmOrthoViewOr
  3
AcMechDwgViewMgmt
 90
        0
280
     0
281
     0
  0
CLASS
  1
AM_ORTHO_VIEW
  2
AcDmOrthoView
  3
AcMechDwgViewMgmt
 90
        0
280
     0
281
     0
  0
CLASS
  1
FEEDBACK
  2
AcAmFeedback
  3
DesignerAssemblies
 90
        0
280
     0
281
     1
  0
CLASS
  1
ACAMTRIAXISSYMBOL
  2
AcAmTriAxisSymbol
  3
DesignerAssemblies
 90
        0
280
     0
281
     0
  0
CLASS
  1
ACAMTEXTCIRCLESYMBOL
  2
AcAmTextCircleSymbol
  3
DesignerAssemblies
 90
        0
280
     0
281
     0
  0
CLASS
  1
ACAMROTVECTORSYMBOL
  2
AcAmRotVectorSymbol
  3
DesignerAssemblies
 90
        0
280
     0
281
     0
  0
CLASS
  1
ACAMVECTORSYMBOL
  2
AcAmVectorSymbol
  3
DesignerAssemblies
 90
        0
280
     0
281
     0
  0
CLASS
  1
HATCH
  2
AcDbHatch
  3
AutoCAD 2000
 90
        0
280
     0
281
     1
  0
CLASS
  1
AM_USERDEFNNOTE
  2
AcDmUserDefnNote
  3
AcMechDwgViewMgmt
 90
        0
280
     0
281
     0
  0
CLASS
  1
AM_VIEW_SELECT_FILTER
  2
AcDmSelectViewEntFilter
  3
AcMechDwgViewMgmt
 90
        0
280
     0
281
     0
  0
CLASS
  1
SURFACEID
  2
AcAdSurfaceId
  3
DesignerServices
 90
        0
280
     0
281
     0
  0
CLASS
  1
AM_GREF_PLANE
  2
AcDmGrefPlnDef
  3
AcMechDwgViewMgmt
 90
        0
280
     0
281
     0
  0
CLASS
  1
AM_GREF_AXIS
  2
AcDmGrefAxisDef
  3
AcMechDwgViewMgmt
 90
        0
280
     0
281
     0
  0
CLASS
  1
AM_VIEWDIMLINEAR
  2
AcDmViewDimLinear
  3
AcMechDwgViewMgmt
 90
        0
280
     0
281
     0
  0
CLASS
  1
ACADPARTSPLINEEDGERES
  2
AcAdPartSplineEdgeRes
  3
AdGrefServices
 90
        0
280
     0
281
     0
  0
CLASS
  1
ACAMROTAXISSYMBOL
  2
AcAmRotAxisSymbol
  3
DesignerAssemblies
 90
        0
280
     0
281
     0
  0
CLASS
  1
ACADPARTCONICALFACERES
  2
AcAdPartConicalFaceRes
  3
AdGrefServices
 90
        0
280
     0
281
     0
  0
CLASS
  1
ACMEPLINE
  2
AcImPlineDisplay
  3
AcMeServices
 90
        0
280
     0
281
     1
  0
CLASS
  1
ACCMDISTLNPL
  2
AcCmDistLnPl
  3
AcCmServices
 90
        0
280
     0
281
     0
  0
CLASS
  1
PARAM
  2
AcAdParam
  3
DesignerServices
 90
        0
280
     0
281
     0
  0
CLASS
  1
ADVIRTUALCONTAINER
  2
AcAdVirtualContainer
  3
DesignerServices
 90
        0
280
     0
281
     0
  0
CLASS
  1
ADVIRTUALVERTEX
  2
AcAdVirtualVertex
  3
DesignerServices
 90
        0
280
     0
281
     0
  0
CLASS
  1
ACADCONSGROUP
  2
AcAdConstraintGroup
  3
DesignerServices
 90
        0
280
     0
281
     0
  0
CLASS
  1
ACADREFLINEACAD
  2
AcAdVirtualReferenceLine
  3
DesignerServices
 90
        0
280
     0
281
     0
  0
CLASS
  1
ACADCONSLINE
  2
AcAdConstrainedLine
  3
DesignerServices
 90
        0
280
     0
281
     0
  0
CLASS
  1
ACADPLLINEACAD
  2
AcAdVirtualLinePlineAcad
  3
DesignerServices
 90
        0
280
     0
281
     0
  0
CLASS
  1
ACADIMPPTACAD
  2
AcAdVirtualImplicitPoint
  3
DesignerServices
 90
        0
280
     0
281
     0
  0
CLASS
  1
ACADCONSPOINT
  2
AcAdConstrainedPoint
  3
DesignerServices
 90
        0
280
     0
281
     0
  0
CLASS
  1
ADPCURCNS
  2
AcAdPointCurveConstr
  3
DesignerServices
 90
        0
280
     0
281
     0
  0
CLASS
  1
ADHORCNS
  2
AcAdHorizontalConstr
  3
DesignerServices
 90
        0
280
     0
281
     0
  0
CLASS
  1
ADVERCNS
  2
AcAdVerticalConstr
  3
DesignerServices
 90
        0
280
     0
281
     0
  0
CLASS
  1
ADVDISTCNS
  2
AcAdVerticalDistanceConstr
  3
DesignerServices
 90
        0
280
     0
281
     0
  0
CLASS
  1
ADHDISTCNS
  2
AcAdHorizontalDistanceConstr
  3
DesignerServices
 90
        0
280
     0
281
     0
  0
CLASS
  1
ADCLPROF2D
  2
AcAdClosedProfile2d
  3
DesignerServices
 90
        0
280
     0
281
     0
  0
CLASS
  1
DEPEDGEFEATUREORDERING
  2
AcAdDepEdgeFeatureOrdering
  3
DesignerServices
 90
        0
280
     0
281
     0
  0
CLASS
  1
ADEXTRUSIONBLIND
  2
AcAdExtrusionBlind
  3
DesignerServices
 90
        0
280
     0
281
     0
  0
CLASS
  1
ADPLANEID
  2
AcAdPlaneId
  3
DesignerServices
 90
        0
280
     0
281
     0
  0
CLASS
  1
ADSTRAIGHTID
  2
AcAdStraightId
  3
DesignerServices
 90
        0
280
     0
281
     0
  0
CLASS
  1
ADFILLET
  2
AcAdFillet
  3
DesignerServices
 90
        0
280
     0
281
     0
  0
CLASS
  1
ADDATUMPLANEFACE
  2
AcAdDatumPlaneFace
  3
DesignerServices
 90
        0
280
     0
281
     0
  0
CLASS
  1
ADDATUMAXISEDGE
  2
AcAdDatumAxisEdge
  3
DesignerServices
 90
        0
280
     0
281
     0
  0
CLASS
  1
ADPLANEID
  2
AcAdSurfGeomId
  3
DesignerServices
 90
        0
280
     0
281
     0
  0
CLASS
  1
HVREFID
  2
AcAdHVRefId
  3
DesignerServices
 90
        0
280
     0
281
     0
  0
CLASS
  1
ADDATUMAXISCENTER
  2
AcAdDatumAxisCenter
  3
DesignerServices
 90
        0
280
     0
281
     0
  0
CLASS
  1
ADDATUMPOINTAXISPLANE
  2
AcAdDatumPointAxisPlane
  3
DesignerServices
 90
        0
280
     0
281
     0
  0
CLASS
  1
ADVIRTUALPOINTWORKPOINTFREE
  2
AcAdVirtualPointWorkPointFree
  3
DesignerServices
 90
        0
280
     0
281
     0
  0
CLASS
  1
ACADLINEDEPID
  2
AcAdVirtualPointDepId
  3
DesignerServices
 90
        0
280
     0
281
     0
  0
CLASS
  1
ADWORKPOINTDISPLAY
  2
AcAdWorkPointDisplay
  3
DesignerServices
 90
        0
280
     0
281
     1
  0
CLASS
  1
ADWORKPOINTSKETCH
  2
AcAdWorkPointSketch
  3
DesignerServices
 90
        0
280
     0
281
     0
  0
CLASS
  1
ADHOLEFEAT
  2
AcAdHoleFeat
  3
DesignerServices
 90
        0
280
     0
281
     0
  0
CLASS
  1
DATUMAXISDISPLAY
  2
AcAdDatumAxisDisplay
  3
DesignerServices
 90
        0
280
     0
281
     1
  0
CLASS
  1
ACADCIRCLEACAD
  2
AcAdVirtualCircleAcad
  3
DesignerServices
 90
        0
280
     0
281
     0
  0
CLASS
  1
ACADCONSCIRCLE
  2
AcAdConstrainedCircle
  3
DesignerServices
 90
        0
280
     0
281
     0
  0
CLASS
  1
ADCTRPTCNS
  2
AcAdCenterPointConstr
  3
DesignerServices
 90
        0
280
     0
281
     0
  0
CLASS
  1
ADDIACNS
  2
AcAdAcadDiameterConstr
  3
DesignerServices
 90
        0
280
     0
281
     0
  0
CLASS
  1
ACADCIRCDEPID
  2
AcAdVirtualCircleDepId
  3
DesignerServices
 90
        0
280
     0
281
     0
  0
CLASS
  1
ADCONCCNS
  2
AcAdConcentricConstr
  3
DesignerServices
 90
        0
280
     0
281
     0
  0
CLASS
  1
ACADARCACAD
  2
AcAdVirtualArcAcad
  3
DesignerServices
 90
        0
280
     0
281
     0
  0
CLASS
  1
ADEQRADCNS
  2
AcAdEqualRadiusConstr
  3
DesignerServices
 90
        0
280
     0
281
     0
  0
CLASS
  1
ADRADCNS
  2
AcAdAcadRadiusConstr
  3
DesignerServices
 90
        0
280
     0
281
     0
  0
CLASS
  1
ACADLINEACAD
  2
AcAdVirtualBoundedLineAcad
  3
DesignerServices
 90
        0
280
     0
281
     0
  0
CLASS
  1
ADCOLNCNS
  2
AcAdColinearConstr
  3
DesignerServices
 90
        0
280
     0
281
     0
  0
CLASS
  1
ADDATUMPOINT2EDGES
  2
AcAdDatumPoint2Edges
  3
DesignerServices
 90
        0
280
     0
281
     0
  0
CLASS
  1
ADTANCNS
  2
AcAdTangentConstr
  3
DesignerServices
 90
        0
280
     0
281
     0
  0
CLASS
  1
ADPARCNS
  2
AcAdParallelConstr
  3
DesignerServices
 90
        0
280
     0
281
     0
  0
CLASS
  1
ADBDISTCNS
  2
AcAdAcadAngleConstr
  3
DesignerServices
 90
        0
280
     0
281
     0
  0
CLASS
  1
ADEXTRUSIONTHRU
  2
AcAdExtrusionThru
  3
DesignerServices
 90
        0
280
     0
281
     0
  0
CLASS
  1
ADFEATRECTARRAY
  2
AcAdRectangularFeatArray
  3
DesignerServices
 90
        0
280
     0
281
     0
  0
CLASS
  1
ACCMDISTPLPL
  2
AcCmDistPlPl
  3
DesignerAssemblies
 90
        0
280
     0
281
     0
  0
CLASS
  1
ACAMCLONECHILDREACTOR
  2
AcAmGrCloneChildReactor
  3
DesignerAssemblies
 90
        0
280
     0
281
     0
  0
CLASS
  1
ADREVOLUTIONFULL
  2
AcAdRevolutionFull
  3
DesignerServices
 90
        0
280
     0
281
     0
  0
CLASS
  1
ADLDISTCNS
  2
AcAdLinearDistanceConstr
  3
DesignerServices
 90
        0
280
     0
281
     0
  0
CLASS
  1
DATUMPLANEDISPLAY
  2
AcAdDatumPlaneDisplay
  3
DesignerServices
 90
        0
280
     0
281
     1
  0
CLASS
  1
ADDATUMPLANEOFFSET
  2
AcAdDatumPlaneOffset
  3
DesignerServices
 90
        0
280
     0
281
     0
  0
CLASS
  1
ACADBOUNDEDLINEDATUMID
  2
AcAdVirtualBoundedLineDatumId
  3
DesignerServices
 90
        0
280
     0
281
     0
  0
CLASS
  1
ADDATUMPLANEAXISPLANE
  2
AcAdDatumPlaneAxisPlane
  3
DesignerServices
 90
        0
280
     0
281
     0
  0
CLASS
  1
ADDATUMPLANETANGENTPLANE
  2
AcAdDatumPlaneTangentPlane
  3
DesignerServices
 90
        0
280
     0
281
     0
  0
CLASS
  1
ACADPLARCACAD
  2
AcAdVirtualArcPlineAcad
  3
DesignerServices
 90
        0
280
     0
281
     0
  0
CLASS
  1
ADEXTRUSIONMIDPLANE
  2
AcAdExtrusionMidplane
  3
DesignerServices
 90
        0
280
     0
281
     0
  0
CLASS
  1
ADPDISTCNS
  2
AcAdParallelDistanceConstr
  3
DesignerServices
 90
        0
280
     0
281
     0
  0
CLASS
  1
ADDATUMPOINT2HOLES
  2
AcAdDatumPoint2Holes
  3
DesignerServices
 90
        0
280
     0
281
     0
  0
CLASS
  1
ACMWELDSYM
  2
AcmWelding
  3
"AcmSymBB|Product Description: AutoCAD Mechanical 2000|Company: Autodesk"
 90
     1023
280
     0
281
     1
  0
CLASS
  1
ADPARAMETRICBOOLEAN
  2
AcAdParametricBoolean
  3
DesignerServices
 90
        0
280
     0
281
     0
  0
CLASS
  1
DEPEDGEPARAMETRCBOOLORDERING
  2
AcAdDepEdgeParametricBooleanOrdering
  3
DesignerServices
 90
        0
280
     0
281
     0
  0
CLASS
  1
ACAMTOOLBODYCOMP
  2
AcAmToolBodyComp
  3
DesignerAssemblies
 90
        0
280
     0
281
     0
  0
CLASS
  1
ACAMBLANKBODYCOMP
  2
AcAmBlankBodyComp
  3
DesignerAssemblies
 90
        0
280
     0
281
     0
  0
CLASS
  1
ACDBDICTIONARYWDFLT
  2
AcDbDictionaryWithDefault
  3
AutoCAD 2000
 90
        0
280
     0
281
     0
  0
CLASS
  1
ACDBPLACEHOLDER
  2
AcDbPlaceHolder
  3
AutoCAD 2000
 90
        0
280
     0
281
     0
  0
CLASS
  1
LAYOUT
  2
AcDbLayout
  3
AutoCAD 2000
 90
        0
280
     0
281
     0
  0
CLASS
  1
AMGOBJPROPCFG
  2
AmgObjPropCfg
  3
"AmgLay|Product Description: AutoCAD Mechanical 2000|Company: Autodesk"
 90
        1
280
     0
281
     0
  0
CLASS
  1
ACME_DOCUMENT
  2
AcMeDbDoc
  3
AcMeServices
 90
        0
280
     0
281
     0
  0
CLASS
  1
AMGSETTINGSOBJ
  2
AmgSettingsObj
  3
"AcadM|Product Description: AutoCAD Mechanical 2000|Company: Autodesk"
 90
        0
280
     0
281
     0
  0
CLASS
  1
ACDBENTITYCACHE
  2
AcMeEntityCache
  3
AcMeServices
 90
        0
280
     0
281
     0
  0
CLASS
  1
GSMANAGER
  2
AcMeGSManager
  3
AcMeServices
 90
        0
280
     0
281
     0
  0
CLASS
  1
AmdtInternalReactor
  2
AmdtInternalReactor
  3
AcMeServices
 90
        0
280
     0
281
     0
  0
CLASS
  1
ACME_DATABASE
  2
AcMeDbDatabase
  3
AcMeServices
 90
        0
280
     0
281
     0
  0
CLASS
  1
ACGREFMASTER
  2
AcGrefacadMaster
  3
AcGrefServices
 90
        0
280
     0
281
     0
  0
CLASS
  1
AMDTMENUSTATEMGR
  2
AmdtMenuStateMgr
  3
McadcomServices
 90
        0
280
     0
281
     0
  0
CLASS
  1
AMDTMCOMMENUSTATE
  2
AmdtMcomMenuState
  3
McadcomServices
 90
        0
280
     0
281
     0
  0
CLASS
  1
AmdtMApiSurfModule
  2
AmdtMApiSurfModule
  3
MApiSurfServices
 90
        0
280
     0
281
     0
  0
CLASS
  1
MAPIAMMOUDLE
  2
MApiAmModule
  3
MApiAmServices
 90
        0
280
     0
281
     0
  0
CLASS
  1
AMDTADMENUSTATE
  2
AmdtAdMenuState
  3
DesignerServices
 90
        0
280
     0
281
     0
  0
CLASS
  1
AMDTDMMENUSTATE
  2
AmdtDmMenuState
  3
AcMechDwgViewMgmt
 90
        0
280
     0
281
     0
  0
CLASS
  1
MAPIADMODULE
  2
MApiAdModule
  3
MApiAdServices
 90
        0
280
     0
281
     0
  0
CLASS
  1
AMDTAMMENUSTATE
  2
AmdtAmMenuState
  3
DesignerAssemblies
 90
        0
280
     0
281
     0
  0
CLASS
  1
ACAMCOMPENT
  2
AcAmCompEnt
  3
DesignerAssemblies
 90
        0
280
     0
281
     1
  0
CLASS
  1
ACAMCOMPENTCLONE
  2
AcAmCompEntClone
  3
DesignerAssemblies
 90
        0
280
     0
281
     1
  0
CLASS
  1
ACCMCONSTREACTOR
  2
AcCmConstraintReactor
  3
DesignerAssemblies
 90
        0
280
     0
281
     0
  0
CLASS
  1
ACAD_FIXCONSTRAINT
  2
AcAdFixedConstraint
  3
DesignerServices
 90
        0
280
     0
281
     0
  0
CLASS
  1
ACMDATADICTIONARY
  2
AcmDataDictionary
  3
"AcmSymBB|Product Description: AutoCAD Mechanical 2000|Company: Autodesk"
 90
        0
280
     0
281
     0
  0
CLASS
  1
ACMDATAENTRYBLOCK
  2
AcmDataEntryBlock
  3
"AcmSymBB|Product Description: AutoCAD Mechanical 2000|Company: Autodesk"
 90
        0
280
     0
281
     0
  0
CLASS
  1
AMDTFORMULAUPDATEDISPATCHER
  2
AmdtFormulaUpdateDispatcher
  3
AcMeServices
 90
        0
280
     0
281
     0
  0
CLASS
  1
ACMSURFSTANDARDJIS
  2
AcmSurfTextStdJIS
  3
"Amdt_StdImp|Product Description: AutoCAD Mechanical 2000|Company: Autodesk"
 90
        0
280
     0
281
     0
  0
CLASS
  1
ACMFCFSTANDARDJIS
  2
AcmFCFStdJIS
  3
"Amdt_StdImp|Product Description: AutoCAD Mechanical 2000|Company: Autodesk"
 90
        0
280
     0
281
     0
  0
CLASS
  1
ACMWELDSTANDARDJIS
  2
AcmWeldingStdJIS
  3
"Amdt_StdImp|Product Description: AutoCAD Mechanical 2000|Company: Autodesk"
 90
        0
280
     0
281
     0
  0
CLASS
  1
ACMIDSTANDARDJIS
  2
AcmIdStdJIS
  3
"Amdt_StdImp|Product Description: AutoCAD Mechanical 2000|Company: Autodesk"
 90
        0
280
     0
281
     0
  0
CLASS
  1
ACMDATUMSTANDARDJIS
  2
AcmDatumStdJIS
  3
"Amdt_StdImp|Product Description: AutoCAD Mechanical 2000|Company: Autodesk"
 90
        0
280
     0
281
     0
  0
CLASS
  1
ACMBOMSTANDARDJIS
  2
AcmBOMStdJIS
  3
"Amdt_StdImp|Product Description: AutoCAD Mechanical 2000|Company: Autodesk"
 90
        0
280
     0
281
     0
  0
CLASS
  1
ACMDETAILSTANDARDJIS
  2
AmdtDetailSymStdJIS
  3
"Amdt_StdImp|Product Description: AutoCAD Mechanical 2000|Company: Autodesk"
 90
        0
280
     0
281
     0
  0
CLASS
  1
ACMSECTIONSTANDARDJIS
  2
AmdtSectionSymStdJIS
  3
"Amdt_StdImp|Product Description: AutoCAD Mechanical 2000|Company: Autodesk"
 90
        0
280
     0
281
     0
  0
CLASS
  1
ACMCENTERLINESTANDARDJIS
  2
AmdtCenterLineStdJIS
  3
"Amdt_StdImp|Product Description: AutoCAD Mechanical 2000|Company: Autodesk"
 90
        0
280
     0
281
     0
  0
CLASS
  1
ACMThreadLineSTANDARDJIS
  2
AmdtThreadLineStdJIS
  3
"Amdt_StdImp|Product Description: AutoCAD Mechanical 2000|Company: Autodesk"
 90
        0
280
     0
281
     0
  0
CLASS
  1
"AcAmgLayStd"
  2
AcAmgLayStd
  3
"AcAmgLayStd|Product Description: AutoCAD Mechanical 2000|Company: Autodesk"
 90
        0
280
     0
281
     0
  0
CLASS
  1
"AcAmgDimStd"
  2
AcAmgDimStd
  3
"AcAmgDimStd|Product Description: AutoCAD Mechanical 2000|Company: Autodesk"
 90
        0
280
     0
281
     0
  0
CLASS
  1
AcAmgTitleStd
  2
AcAmgTitleStd
  3
"TITLEAPP"
 90
        0
280
     0
281
     0
  0
CLASS
  1
AMDTEDGESTANDARDISO
  2
AmdtEdgeStdISO
  3
"Amdt_StdImp|Product Description: AutoCAD Mechanical 2000|Company: Autodesk"
 90
        0
280
     0
281
     0
  0
CLASS
  1
ACMSURFSTANDARDISO
  2
AcmSurfTextStdISO
  3
"Amdt_StdImp|Product Description: AutoCAD Mechanical 2000|Company: Autodesk"
 90
        0
280
     0
281
     0
  0
CLASS
  1
ACMFCFSTANDARDISO
  2
AcmFCFStdISO
  3
"Amdt_StdImp|Product Description: AutoCAD Mechanical 2000|Company: Autodesk"
 90
        0
280
     0
281
     0
  0
CLASS
  1
ACMWELDSTANDARDISO
  2
AcmWeldingStdISO
  3
"Amdt_StdImp|Product Description: AutoCAD Mechanical 2000|Company: Autodesk"
 90
        0
280
     0
281
     0
  0
CLASS
  1
ACMIDSTANDARDISO
  2
AcmIdStdISO
  3
"Amdt_StdImp|Product Description: AutoCAD Mechanical 2000|Company: Autodesk"
 90
        0
280
     0
281
     0
  0
CLASS
  1
ACMDATUMSTANDARDISO
  2
AcmDatumStdISO
  3
"Amdt_StdImp|Product Description: AutoCAD Mechanical 2000|Company: Autodesk"
 90
        0
280
     0
281
     0
  0
CLASS
  1
ACMBOMSTANDARDISO
  2
AcmBOMStdISO
  3
"Amdt_StdImp|Product Description: AutoCAD Mechanical 2000|Company: Autodesk"
 90
        0
280
     0
281
     0
  0
CLASS
  1
ACMDETAILSTANDARDISO
  2
AmdtDetailSymStdISO
  3
"Amdt_StdImp|Product Description: AutoCAD Mechanical 2000|Company: Autodesk"
 90
        0
280
     0
281
     0
  0
CLASS
  1
ACMSECTIONSTANDARDISO
  2
AmdtSectionSymStdISO
  3
"Amdt_StdImp|Product Description: AutoCAD Mechanical 2000|Company: Autodesk"
 90
        0
280
     0
281
     0
  0
CLASS
  1
ACMCENTERLINESTANDARDISO
  2
AmdtCenterLineStdISO
  3
"Amdt_StdImp|Product Description: AutoCAD Mechanical 2000|Company: Autodesk"
 90
        0
280
     0
281
     0
  0
CLASS
  1
ACMThreadLineSTANDARDISO
  2
AmdtThreadLineStdISO
  3
"Amdt_StdImp|Product Description: AutoCAD Mechanical 2000|Company: Autodesk"
 90
        0
280
     0
281
     0
  0
CLASS
  1
ACMSURFSTANDARDANSI
  2
AcmSurfTextStdANSI
  3
"Amdt_StdImp|Product Description: AutoCAD Mechanical 2000|Company: Autodesk"
 90
        0
280
     0
281
     0
  0
CLASS
  1
ACMFCFSTANDARDANSI
  2
AcmFCFStdANSI
  3
"Amdt_StdImp|Product Description: AutoCAD Mechanical 2000|Company: Autodesk"
 90
        0
280
     0
281
     0
  0
CLASS
  1
ACMWELDSTANDARDANSI
  2
AcmWeldingStdANSI
  3
"Amdt_StdImp|Product Description: AutoCAD Mechanical 2000|Company: Autodesk"
 90
        0
280
     0
281
     0
  0
CLASS
  1
ACMIDSTANDARDANSI
  2
AcmIdStdANSI
  3
"Amdt_StdImp|Product Description: AutoCAD Mechanical 2000|Company: Autodesk"
 90
        0
280
     0
281
     0
  0
CLASS
  1
ACMDATUMSTANDARDANSI
  2
AcmDatumStdANSI
  3
"Amdt_StdImp|Product Description: AutoCAD Mechanical 2000|Company: Autodesk"
 90
        0
280
     0
281
     0
  0
CLASS
  1
ACMBOMSTANDARDANSI
  2
AcmBOMStdANSI
  3
"Amdt_StdImp|Product Description: AutoCAD Mechanical 2000|Company: Autodesk"
 90
        0
280
     0
281
     0
  0
CLASS
  1
ACMDETAILSTANDARDANSI
  2
AmdtDetailSymStdANSI
  3
"Amdt_StdImp|Product Description: AutoCAD Mechanical 2000|Company: Autodesk"
 90
        0
280
     0
281
     0
  0
CLASS
  1
ACMSECTIONSTANDARDANSI
  2
AmdtSectionSymStdANSI
  3
"Amdt_StdImp|Product Description: AutoCAD Mechanical 2000|Company: Autodesk"
 90
        0
280
     0
281
     0
  0
CLASS
  1
ACMCENTERLINESTANDARDANSI
  2
AmdtCenterLineStdANSI
  3
"Amdt_StdImp|Product Description: AutoCAD Mechanical 2000|Company: Autodesk"
 90
        0
280
     0
281
     0
  0
CLASS
  1
ACMThreadLineSTANDARDANSI
  2
AmdtThreadLineStdANSI
  3
"Amdt_StdImp|Product Description: AutoCAD Mechanical 2000|Company: Autodesk"
 90
        0
280
     0
281
     0
  0
CLASS
  1
ACMSURFSTANDARDBSI
  2
AcmSurfTextStdBSI
  3
"Amdt_StdImp|Product Description: AutoCAD Mechanical 2000|Company: Autodesk"
 90
        0
280
     0
281
     0
  0
CLASS
  1
ACMFCFSTANDARDBSI
  2
AcmFCFStdBSI
  3
"Amdt_StdImp|Product Description: AutoCAD Mechanical 2000|Company: Autodesk"
 90
        0
280
     0
281
     0
  0
CLASS
  1
ACMWELDSTANDARDBSI
  2
AcmWeldingStdBSI
  3
"Amdt_StdImp|Product Description: AutoCAD Mechanical 2000|Company: Autodesk"
 90
        0
280
     0
281
     0
  0
CLASS
  1
ACMIDSTANDARDBSI
  2
AcmIdStdBSI
  3
"Amdt_StdImp|Product Description: AutoCAD Mechanical 2000|Company: Autodesk"
 90
        0
280
     0
281
     0
  0
CLASS
  1
ACMDATUMSTANDARDBSI
  2
AcmDatumStdBSI
  3
"Amdt_StdImp|Product Description: AutoCAD Mechanical 2000|Company: Autodesk"
 90
        0
280
     0
281
     0
  0
CLASS
  1
ACMBOMSTANDARDBSI
  2
AcmBOMStdBSI
  3
"Amdt_StdImp|Product Description: AutoCAD Mechanical 2000|Company: Autodesk"
 90
        0
280
     0
281
     0
  0
CLASS
  1
ACMDETAILSTANDARDBSI
  2
AmdtDetailSymStdBSI
  3
"Amdt_StdImp|Product Description: AutoCAD Mechanical 2000|Company: Autodesk"
 90
        0
280
     0
281
     0
  0
CLASS
  1
ACMSECTIONSTANDARDBSI
  2
AmdtSectionSymStdBSI
  3
"Amdt_StdImp|Product Description: AutoCAD Mechanical 2000|Company: Autodesk"
 90
        0
280
     0
281
     0
  0
CLASS
  1
ACMCENTERLINESTANDARDBSI
  2
AmdtCenterLineStdBSI
  3
"Amdt_StdImp|Product Description: AutoCAD Mechanical 2000|Company: Autodesk"
 90
        0
280
     0
281
     0
  0
CLASS
  1
ACMThreadLineSTANDARDBSI
  2
AmdtThreadLineStdBSI
  3
"Amdt_StdImp|Product Description: AutoCAD Mechanical 2000|Company: Autodesk"
 90
        0
280
     0
281
     0
  0
CLASS
  1
AMDTEDGESTANDARDDIN
  2
AmdtEdgeStdDIN
  3
"Amdt_StdImp|Product Description: AutoCAD Mechanical 2000|Company: Autodesk"
 90
        0
280
     0
281
     0
  0
CLASS
  1
ACMSURFSTANDARDDIN
  2
AcmSurfTextStdDIN
  3
"Amdt_StdImp|Product Description: AutoCAD Mechanical 2000|Company: Autodesk"
 90
        0
280
     0
281
     0
  0
CLASS
  1
ACMFCFSTANDARDDIN
  2
AcmFCFStdDIN
  3
"Amdt_StdImp|Product Description: AutoCAD Mechanical 2000|Company: Autodesk"
 90
        0
280
     0
281
     0
  0
CLASS
  1
ACMWELDSTANDARDDIN
  2
AcmWeldingStdDIN
  3
"Amdt_StdImp|Product Description: AutoCAD Mechanical 2000|Company: Autodesk"
 90
        0
280
     0
281
     0
  0
CLASS
  1
ACMIDSTANDARDDIN
  2
AcmIdStdDIN
  3
"Amdt_StdImp|Product Description: AutoCAD Mechanical 2000|Company: Autodesk"
 90
        0
280
     0
281
     0
  0
CLASS
  1
ACMDATUMSTANDARDDIN
  2
AcmDatumStdDIN
  3
"Amdt_StdImp|Product Description: AutoCAD Mechanical 2000|Company: Autodesk"
 90
        0
280
     0
281
     0
  0
CLASS
  1
ACMBOMSTANDARDDIN
  2
AcmBOMStdDIN
  3
"Amdt_StdImp|Product Description: AutoCAD Mechanical 2000|Company: Autodesk"
 90
        0
280
     0
281
     0
  0
CLASS
  1
ACMDETAILSTANDARDDIN
  2
AmdtDetailSymStdDIN
  3
"Amdt_StdImp|Product Description: AutoCAD Mechanical 2000|Company: Autodesk"
 90
        0
280
     0
281
     0
  0
CLASS
  1
ACMSECTIONSTANDARDDIN
  2
AmdtSectionSymStdDIN
  3
"Amdt_StdImp|Product Description: AutoCAD Mechanical 2000|Company: Autodesk"
 90
        0
280
     0
281
     0
  0
CLASS
  1
ACMCENTERLINESTANDARDDIN
  2
AmdtCenterLineStdDIN
  3
"Amdt_StdImp|Product Description: AutoCAD Mechanical 2000|Company: Autodesk"
 90
        0
280
     0
281
     0
  0
CLASS
  1
ACMThreadLineSTANDARDDIN
  2
AmdtThreadLineStdDIN
  3
"Amdt_StdImp|Product Description: AutoCAD Mechanical 2000|Company: Autodesk"
 90
        0
280
     0
281
     0
  0
CLASS
  1
AMDTBROWSERDBTAB
  2
AmdtBrowserDbTab
  3
McadcomServices
 90
        0
280
     0
281
     0
  0
CLASS
  1
ACAMGFILTERDAT
  2
AcAmgFilterDat
  3
"AcadM|Product Description: AutoCAD Mechanical 2000|Company: Autodesk"
 90
        0
280
     0
281
     0
  0
CLASS
  1
ACAMCOMPENTVIEW
  2
AcAmCompEntView
  3
DesignerAssemblies
 90
        0
280
     0
281
     1
  0
CLASS
  1
AM_CLDFLTS
  2
AcDmClDflts
  3
AcMechDwgViewMgmt
 90
        0
280
     0
281
     0
  0
CLASS
  1
ACDMPARTVIEWDATA
  2
AcDmPartViewData
  3
AcMechDwgViewMgmt
 90
        0
280
     0
281
     0
  0
CLASS
  1
ACDMDISPLAYATTRIBS
  2
AcDmDisplayAttribs
  3
AcMechDwgViewMgmt
 90
        0
280
     0
281
     0
  0
CLASS
  1
ACDMBODYINSTANCEDATA
  2
AcDmBodyInstanceData
  3
AcMechDwgViewMgmt
 90
        0
280
     0
281
     0
  0
CLASS
  1
ACDMVWEDELLIPSE
  2
AcDmViewEdgeEllipse
  3
AcMechDwgViewMgmt
 90
        0
280
     0
281
     1
  0
CLASS
  1
LONG_TRANSACTION
  2
AcDbLongTransaction
  3
AutoCAD 2000
 90
        0
280
     0
281
     0
  0
CLASS
  1
LWPOLYLINE
  2
AcDbPolyline
  3
AutoCAD 2000
 90
        0
280
     0
281
     1
  0
CLASS
  1
HATCH
  2
AcDbHatch
  3
AutoCAD 2000
 90
        0
280
     0
281
     1
  0
CLASS
  1
XRECORD
  2
AcDbXrecord
  3
AutoCAD 2000
 90
        0
280
     0
281
     0
  0
CLASS
  1
LONG_TRANSACTION
  2
AcDbLongTransaction
  3
AutoCAD 2000
 90
        0
280
     0
281
     0
  0
CLASS
  1
LWPOLYLINE
  2
AcDbPolyline
  3
AutoCAD 2000
 90
        0
280
     0
281
     1
  0
CLASS
  1
HATCH
  2
AcDbHatch
  3
AutoCAD 2000
 90
        0
280
     0
281
     1
  0
CLASS
  1
XRECORD
  2
AcDbXrecord
  3
AutoCAD 2000
 90
        0
280
     0
281
     0
  0
ENDSEC
  0
SECTION
  2
TABLES
  0
TABLE
  2
VPORT
  5
1A
330
0
100
AcDbSymbolTable
 70
     2
  0
VPORT
  5
540
330
1A
100
AcDbSymbolTableRecord
100
AcDbViewportTableRecord
  2
*ACTIVE
 70
     0
 10
0.0
 20
0.0
 11
1.0
 21
1.0
 12
345.9226154740479
 22
294.15068002275
 13
0.0
 23
0.0
 14
10.0
 24
10.0
 15
10.0
 25
10.0
 16
0.0
 26
0.0
 36
1.0
 17
0.0
 27
0.0
 37
0.0
 40
492.7994128759193
 41
1.780487804878048
 42
50.0
 43
0.0
 44
0.0
 50
0.0
 51
0.0
 71
     0
 72
   100
 73
     1
 74
     1
 75
     0
 76
     0
 77
     0
 78
     0
  0
ENDTAB
  0
TABLE
  2
LTYPE
  5
15
330
0
100
AcDbSymbolTable
 70
     1
  0
LTYPE
  5
16
330
15
100
AcDbSymbolTableRecord
100
AcDbLinetypeTableRecord
  2
BYBLOCK
 70
     0
  3

 72
    65
 73
     0
 40
0.0
  0
LTYPE
  5
17
330
15
100
AcDbSymbolTableRecord
100
AcDbLinetypeTableRecord
  2
BYLAYER
 70
     0
  3

 72
    65
 73
     0
 40
0.0
  0
LTYPE
  5
9
330
15
100
AcDbSymbolTableRecord
100
AcDbLinetypeTableRecord
  2
CONTINUOUS
 70
     0
  3
Solid line
 72
    65
 73
     0
 40
0.0
  0
ENDTAB
  0
TABLE
  2
LAYER
  5
11
330
0
100
AcDbSymbolTable
 70
     3
  0
LAYER
  5
5
330
11
100
AcDbSymbolTableRecord
100
AcDbLayerTableRecord
  2
0
 70
     0
 62
     7
  6
CONTINUOUS
  0
LAYER
  5
27
330
11
100
AcDbSymbolTableRecord
100
AcDbLayerTableRecord
  2
AM_VIS
 70
     0
 62
     7
  6
CONTINUOUS
  0
LAYER
  5
23
330
11
100
AcDbSymbolTableRecord
100
AcDbLayerTableRecord
  2
DIMS
 70
     0
 62
     2
  6
CONTINUOUS
  0
ENDTAB
  0
TABLE
  2
STYLE
  5
12
330
0
100
AcDbSymbolTable
 70
     1
  0
STYLE
  5
13
330
12
100
AcDbSymbolTableRecord
100
AcDbTextStyleTableRecord
  2
STANDARD
 70
     0
 40
0.0
 41
1.0
 50
0.0
 71
     0
 42
2.5
  3
txt
  4

  0
ENDTAB
  0
TABLE
  2
VIEW
  5
18
330
0
100
AcDbSymbolTable
 70
     0
  0
ENDTAB
  0
TABLE
  2
UCS
  5
19
330
0
100
AcDbSymbolTable
 70
     0
  0
ENDTAB
  0
TABLE
  2
APPID
  5
1C
330
0
100
AcDbSymbolTable
 70
     1
  0
APPID
  5
1D
330
1C
100
AcDbSymbolTableRecord
100
AcDbRegAppTableRecord
  2
ACAD
 70
     0
  0
ENDTAB
  0
TABLE
  2
DIMSTYLE
  5
1E
330
0
100
AcDbSymbolTable
 70
     1
  0
DIMSTYLE
105
25
330
1E
100
AcDbSymbolTableRecord
100
AcDbDimStyleTableRecord
  2
DIMSTYLE1
 70
     0
  3

  4

  5

  6

  7

 40
0.0
 41
2.5
 42
1.0
 43
3.75
 44
1.25
 45
0.0
 46
0.0
 47
0.0
 48
0.0
140
2.5
141
2.5
142
0.0
143
0.0394
144
1.0
145
0.0
146
1.0
147
0.625
 71
     0
 72
     0
 73
     0
 74
     0
 75
     0
 76
     0
 77
     1
 78
     0
170
     0
171
     4
172
     0
173
     0
174
     0
175
     0
176
     0
177
     0
178
     0
270
     2
271
     1
272
     0
273
     8
274
     4
340
13
275
     0
280
     0
281
     0
282
     0
283
     1
284
     0
285
     0
286
     0
287
     0
288
     0
  0
ENDTAB
  0
TABLE
  2
BLOCK_RECORD
  5
1
330
0
100
AcDbSymbolTable
 70
     0
  0
BLOCK_RECORD
  5
2
102
{ACAD_XDICTIONARY
360
3
102
}
330
1
100
AcDbSymbolTableRecord
100
AcDbBlockTableRecord
  2
*MODEL_SPACE
  0
BLOCK_RECORD
  5
D
102
{ACAD_XDICTIONARY
360
539
102
}
330
1
100
AcDbSymbolTableRecord
100
AcDbBlockTableRecord
  2
*PAPER_SPACE
  0
ENDTAB
  0
ENDSEC
  0
SECTION
  2
BLOCKS
  0
BLOCK
  5
4
330
2
100
AcDbEntity
  8
0
100
AcDbBlockBegin
  2
*MODEL_SPACE
 70
     0
 10
0.0
 20
0.0
 30
0.0
  3
*MODEL_SPACE
  1

  0
ENDBLK
  5
A
330
2
100
AcDbEntity
  8
0
100
AcDbBlockEnd
  0
BLOCK
  5
E
330
D
100
AcDbEntity
 67
     1
  8
0
100
AcDbBlockBegin
  2
*PAPER_SPACE
 70
     0
 10
0.0
 20
0.0
 30
0.0
  3
*PAPER_SPACE
  1

  0
ENDBLK
  5
F
330
D
100
AcDbEntity
 67
     1
  8
0
100
AcDbBlockEnd
  0
ENDSEC
  0
SECTION
  2
ENTITIES
  0
CIRCLE
  5
26
330
2
100
AcDbEntity
  8
AM_VIS
100
AcDbCircle
 10
216.7383577988547
 20
307.1185969941398
 30
0.0
 40
7.25
  0
ARC
  5
28
330
2
100
AcDbEntity
  8
AM_VIS
100
AcDbCircle
 10
216.7383577988547
 20
307.1185969941398
 30
0.0
 40
13.0
100
AcDbArc
 50
351.8687201394975
 51
53.32998761477942
  0
LINE
  5
29
330
2
100
AcDbEntity
  8
AM_VIS
100
AcDbLine
 10
229.6076634305114
 20
305.2798548808986
 30
0.0
 11
227.688624863602
 21
291.8485565717732
 31
0.0
  0
ARC
  5
2A
330
2
100
AcDbEntity
  8
AM_VIS
100
AcDbCircle
 10
232.6383577988547
 20
291.1413480666805
 30
0.0
 40
5.0
100
AcDbArc
 50
171.8687201394976
 51
180.0
  0
LINE
  5
2B
330
2
100
AcDbEntity
  8
AM_VIS
100
AcDbLine
 10
227.6383577988547
 20
291.1413480666805
 30
0.0
 11
227.6383577988547
 21
213.3700027056049
 31
0.0
  0
LINE
  5
2C
330
2
100
AcDbEntity
  8
AM_VIS
100
AcDbLine
 10
227.6383577988547
 20
213.3700027056049
 30
0.0
 11
226.8810304964735
 21
211.7459090645577
 31
0.0
  0
LINE
  5
2D
330
2
100
AcDbEntity
  8
AM_VIS
100
AcDbLine
 10
214.2024826442525
 20
184.5566754534582
 30
0.0
 11
205.1383577988547
 21
165.1185969941398
 31
0.0
  0
LINE
  5
2E
330
2
100
AcDbEntity
  8
AM_VIS
100
AcDbLine
 10
205.1383577988547
 20
165.1185969941398
 30
0.0
 11
160.1383577988547
 21
165.1185969941398
 31
0.0
  0
LINE
  5
2F
330
2
100
AcDbEntity
  8
AM_VIS
100
AcDbLine
 10
160.1383577988546
 20
305.1185969941399
 30
0.0
 11
160.1383577988546
 21
320.1185969941398
 31
0.0
  0
LINE
  5
30
330
2
100
AcDbEntity
  8
AM_VIS
100
AcDbLine
 10
160.1383577988546
 20
320.1185969941398
 30
0.0
 11
166.8524610011402
 21
320.1185969941398
 31
0.0
  0
ARC
  5
31
330
2
100
AcDbEntity
  8
AM_VIS
100
AcDbCircle
 10
180.7383577988547
 20
334.6185969941398
 30
0.0
 40
14.5
100
AcDbArc
 50
325.3772012423245
 51
329.0502769211406
  0
ARC
  5
32
330
2
100
AcDbEntity
  8
AM_VIS
100
AcDbCircle
 10
201.7500212265797
 20
322.0185969941398
 30
0.0
 40
10.0
100
AcDbArc
 50
53.32998761477942
 51
149.0502769211406
  0
LINE
  5
33
330
2
100
AcDbEntity
  8
AM_VIS
100
AcDbLine
 10
207.7220755236762
 20
330.0394802043936
 30
0.0
 11
224.50202838508
 21
317.5457451674698
 31
0.0
  0
LINE
  5
34
330
2
100
AcDbEntity
  8
AM_VIS
100
AcDbLine
 10
160.1383577988546
 20
305.1185969941399
 30
0.0
 11
154.1383577988546
 21
305.1185969941399
 31
0.0
  0
LINE
  5
35
330
2
100
AcDbEntity
  8
AM_VIS
100
AcDbLine
 10
154.1383577988546
 20
300.1185969941399
 30
0.0
 11
154.1383577988546
 21
305.1185969941399
 31
0.0
  0
LINE
  5
36
330
2
100
AcDbEntity
  8
AM_VIS
100
AcDbLine
 10
160.1383577988546
 20
300.1185969941399
 30
0.0
 11
160.1383577988546
 21
305.1185969941399
 31
0.0
  0
LINE
  5
37
330
2
100
AcDbEntity
  8
AM_VIS
100
AcDbLine
 10
154.1383577988546
 20
300.1185969941399
 30
0.0
 11
154.1383577988546
 21
170.1185969941399
 31
0.0
  0
LINE
  5
38
330
2
100
AcDbEntity
  8
AM_VIS
100
AcDbLine
 10
160.1383577988546
 20
300.1185969941399
 30
0.0
 11
160.1383577988546
 21
170.1185969941399
 31
0.0
  0
LINE
  5
39
330
2
100
AcDbEntity
  8
AM_VIS
100
AcDbLine
 10
154.1383577988546
 20
165.1185969941399
 30
0.0
 11
154.1383577988546
 21
170.1185969941399
 31
0.0
  0
LINE
  5
3A
330
2
100
AcDbEntity
  8
AM_VIS
100
AcDbLine
 10
160.1383577988546
 20
165.1185969941399
 30
0.0
 11
154.1383577988546
 21
165.1185969941399
 31
0.0
  0
LINE
  5
3B
330
2
100
AcDbEntity
  8
AM_VIS
100
AcDbLine
 10
160.1383577988546
 20
165.1185969941399
 30
0.0
 11
160.1383577988546
 21
170.1185969941399
 31
0.0
  0
LINE
  5
3C
330
2
100
AcDbEntity
  8
AM_VIS
100
AcDbLine
 10
226.8810304964735
 20
211.7459090645577
 30
0.0
 11
239.8774841625791
 21
205.685563191196
 31
0.0
  0
LINE
  5
3D
330
2
100
AcDbEntity
  8
AM_VIS
100
AcDbLine
 10
226.8810304964735
 20
211.7459090645577
 30
0.0
 11
214.2024826442526
 21
184.5566754534582
 31
0.0
  0
LINE
  5
3E
330
2
100
AcDbEntity
  8
AM_VIS
100
AcDbLine
 10
227.1989363103581
 20
178.4963295800965
 30
0.0
 11
214.2024826442525
 21
184.5566754534581
 31
0.0
  0
LINE
  5
3F
330
2
100
AcDbEntity
  8
AM_VIS
100
AcDbLine
 10
239.8774841625791
 20
205.685563191196
 30
0.0
 11
276.2748048899709
 21
188.7132137996895
 31
0.0
  0
ARC
  5
40
330
2
100
AcDbEntity
  8
AM_VIS
100
AcDbCircle
 10
269.9355309638605
 20
175.1185969941398
 30
0.0
 40
15.0
100
AcDbArc
 50
245.0
 51
65.00000000000003
  0
LINE
  5
41
330
2
100
AcDbEntity
  8
AM_VIS
100
AcDbLine
 10
263.59625703775
 20
161.52398018859
 30
0.0
 11
227.1989363103581
 21
178.4963295800965
 31
0.0
  0
ARC
  5
42
330
2
100
AcDbEntity
  8
AM_VIS
100
AcDbCircle
 10
179.2651347816033
 20
369.5053463125824
 30
0.0
 40
4.825
100
AcDbArc
 50
263.0042831886786
 51
264.886254576698
  0
ARC
  5
43
330
2
100
AcDbEntity
  8
AM_VIS
100
AcDbCircle
 10
179.2651347816033
 20
369.5053463125824
 30
0.0
 40
4.825
100
AcDbArc
 50
97.70786617772323
 51
99.58983756580343
  0
LINE
  5
44
330
2
100
AcDbEntity
  8
AM_VIS
100
AcDbLine
 10
193.318668323874
 20
347.4036585584298
 30
0.0
 11
194.045406837261
 21
335.3317664889709
 31
0.0
  0
ARC
  5
45
330
2
100
AcDbEntity
  8
AM_VIS
100
AcDbCircle
 10
181.3683577988546
 20
334.5685969941397
 30
0.0
 40
12.7
100
AcDbArc
 50
332.2544308043063
 51
3.445098455991615
  0
ARC
  5
46
330
2
100
AcDbEntity
  8
AM_VIS
100
AcDbCircle
 10
217.0733923406392
 20
306.9993835978945
 30
0.0
 40
4.799999999999999
100
AcDbArc
 50
244.2615157646751
 51
256.3995885967084
  0
ARC
  5
47
330
2
100
AcDbEntity
  8
AM_VIS
100
AcDbCircle
 10
217.0733923406392
 20
306.9993835978945
 30
0.0
 40
4.799999999999999
100
AcDbArc
 50
64.4268331245003
 51
76.56490595653344
  0
LINE
  5
48
330
2
100
AcDbEntity
  8
AM_VIS
100
AcDbLine
 10
160.1383577988547
 20
311.4993835978946
 30
0.0
 11
105.0733923406391
 21
311.4993835978946
 31
0.0
  0
LINE
  5
49
330
2
100
AcDbEntity
  8
AM_VIS
100
AcDbLine
 10
105.0733923406391
 20
311.4993835978946
 30
0.0
 11
105.0733923406391
 21
336.9993835978945
 31
0.0
  0
LINE
  5
4A
330
2
100
AcDbEntity
  8
AM_VIS
100
AcDbLine
 10
105.0733923406391
 20
336.9993835978945
 30
0.0
 11
166.1327470591612
 21
346.3703212482065
 31
0.0
  0
LINE
  5
4B
330
2
100
AcDbEntity
  8
AM_VIS
100
AcDbLine
 10
193.6203348170217
 20
342.3926604082434
 30
0.0
 11
225.1910364342918
 21
317.1533904114035
 31
0.0
  0
ARC
  5
4C
330
2
100
AcDbEntity
  8
AM_VIS
100
AcDbCircle
 10
217.0733923406392
 20
306.9993835978945
 30
0.0
 40
13.0
100
AcDbArc
 50
338.5715291785255
 51
51.35933157920601
  0
LINE
  5
4D
330
2
100
AcDbEntity
  8
AM_VIS
100
AcDbLine
 10
213.4594449880875
 20
385.9018018299818
 30
0.0
 11
213.5539818670953
 21
382.4535483853832
 31
0.0
  0
LINE
  5
4E
330
2
100
AcDbEntity
  8
AM_VIS
100
AcDbLine
 10
204.5117626539821
 20
382.2056480504899
 30
0.0
 11
204.4843570783306
 21
383.2052724471626
 31
0.0
  0
LINE
  5
4F
330
2
100
AcDbEntity
  8
AM_VIS
100
AcDbLine
 10
213.5539818670953
 20
382.4535483853831
 30
0.0
 11
204.5117626539821
 21
382.2056480504899
 31
0.0
  0
LINE
  5
50
330
2
100
AcDbEntity
  8
AM_VIS
100
AcDbLine
 10
209.0346752664091
 20
368.7813046022938
 30
0.0
 11
212.1133564432586
 21
377.8875620196604
 31
0.0
  0
SPLINE
  5
51
330
2
100
AcDbEntity
  8
AM_VIS
100
AcDbSpline
210
0.0
220
0.0
230
1.0
 70
     8
 71
     3
 72
    22
 73
    18
 74
     0
 42
0.0000000001
 43
0.0000000001
 40
0.0
 40
0.0
 40
0.0
 40
0.0
 40
0.5889833838276715
 40
0.5889833838276715
 40
0.8566651305649763
 40
0.8566651305649763
 40
0.9599717206921782
 40
0.9599717206921782
 40
1.024415718736179
 40
1.024415718736179
 40
1.079555679064598
 40
1.079555679064598
 40
1.142233614402218
 40
1.142233614402218
 40
1.244981188326453
 40
1.244981188326453
 40
1.590020213422303
 40
1.590020213422303
 40
1.590020213422303
 40
1.590020213422303
 10
212.5232178137637
 20
377.2581277524647
 30
0.0
 10
212.5178373375361
 20
377.4543818057011
 30
0.0
 10
212.506189595689
 20
377.6812185185383
 30
0.0
 10
212.4694994972887
 20
377.959122129255
 30
0.0
 10
212.45228085742
 20
378.0608426961451
 30
0.0
 10
212.4167512868439
 20
378.168138972056
 30
0.0
 10
212.4044897992478
 20
378.1977685097087
 30
0.0
 10
212.3802300529479
 20
378.2342696099436
 30
0.0
 10
212.3698319742455
 20
378.2455664406373
 30
0.0
 10
212.348358385989
 20
378.2582434941946
 30
0.0
 10
212.3382060908938
 20
378.2604601822533
 30
0.0
 10
212.3160615342972
 20
378.257957143684
 30
0.0
 10
212.3046299641249
 20
378.2523178956753
 30
0.0
 10
212.276098658298
 20
378.2307086936465
 30
0.0
 10
212.2594452698429
 20
378.2099756258452
 30
0.0
 10
212.1956669053172
 20
378.1136850439005
 30
0.0
 10
212.149420126947
 20
377.9942327556738
 30
0.0
 10
212.1133564432586
 20
377.8875620196604
 30
0.0
  0
LINE
  5
52
330
2
100
AcDbEntity
  8
AM_VIS
100
AcDbLine
 10
212.5232178137637
 20
377.2581277524647
 30
0.0
 11
212.3816619716789
 21
382.4214082118454
 31
0.0
  0
LINE
  5
53
330
2
100
AcDbEntity
  8
AM_VIS
100
AcDbLine
 10
191.36760680842
 20
382.845665285692
 30
0.0
 11
204.4843570783306
 21
383.2052724471625
 31
0.0
  0
LINE
  5
54
330
2
100
AcDbEntity
  8
AM_VIS
100
AcDbLine
 10
192.3737355077635
 20
346.1468997919404
 30
0.0
 11
191.36760680842
 21
382.8456652856921
 31
0.0
  0
ARC
  5
55
330
2
100
AcDbEntity
  8
AM_VIS
100
AcDbCircle
 10
195.1602340895142
 20
345.0354027591501
 30
0.0
 40
3.0
100
AcDbArc
 50
91.57042044326352
 51
158.2536041343638
  0
LINE
  5
56
330
2
100
AcDbEntity
  8
AM_VIS
100
AcDbLine
 10
199.9952861784671
 20
348.1690871672434
 30
0.0
 11
195.0780173625597
 21
348.034275949168
 31
0.0
  0
ARC
  5
57
330
2
100
AcDbEntity
  8
AM_VIS
100
AcDbCircle
 10
199.9130694515126
 20
351.1679603572614
 30
0.0
 40
3.0
100
AcDbArc
 50
271.5704204432642
 51
341.3204204432641
  0
LINE
  5
58
330
2
100
AcDbEntity
  8
AM_VIS
100
AcDbLine
 10
209.0346752664091
 20
368.7813046022937
 30
0.0
 11
202.7550429074937
 21
350.2071342150804
 31
0.0
  0
LINE
  5
59
330
2
100
AcDbEntity
  8
AM_VIS
100
AcDbLine
 10
178.1475649134922
 20
382.4832262941331
 30
0.0
 11
191.36760680842
 21
382.845665285692
 31
0.0
  0
SPLINE
  5
5A
330
2
100
AcDbEntity
  8
AM_VIS
100
AcDbSpline
210
0.0
220
0.0
230
1.0
 70
     8
 71
     3
 72
    14
 73
    10
 74
     0
 42
0.0000000001
 43
0.0000000001
 40
-2.004842538395205
 40
-2.004842538395205
 40
-2.004842538395205
 40
-2.004842538395205
 40
-1.353119575324413
 40
-1.353119575324413
 40
-0.6723927375142416
 40
-0.6723927375142416
 40
0.0
 40
0.0
 40
0.0036149235275292
 40
0.0036149235275292
 40
0.0036149235275292
 40
0.0036149235275292
 10
204.6255105888306
 20
353.6980578323837
 30
0.0
 10
204.4845970929226
 20
353.6941947214685
 30
0.0
 10
204.3473005321004
 20
353.6608163272765
 30
0.0
 10
204.0892538424803
 20
353.5372708584503
 30
0.0
 10
203.9798781012417
 20
353.4496524173368
 30
0.0
 10
203.8095221792589
 20
353.2512222903396
 30
0.0
 10
203.7465491344546
 20
353.1390599636208
 30
0.0
 10
203.7060231602201
 20
353.0199829511926
 30
0.0
 10
203.7058070960759
 20
353.0193459859996
 30
0.0
 10
203.7055916791541
 20
353.0187088164359
 30
0.0
  0
LINE
  5
5B
330
2
100
AcDbEntity
  8
AM_VIS
100
AcDbLine
 10
239.9011016293048
 20
354.6651689614534
 30
0.0
 11
206.0164845964246
 21
353.7361925993234
 31
0.0
  0
SPLINE
  5
5C
330
2
100
AcDbEntity
  8
AM_VIS
100
AcDbSpline
210
0.0
220
0.0
230
1.0
 70
    24
 71
     3
 72
    12
 73
     8
 74
     0
 42
0.0000000001
 43
0.0000000001
 40
1.699269594825773
 40
1.699269594825773
 40
1.699269594825773
 40
1.699269594825773
 40
2.34514707514909
 40
2.34514707514909
 40
2.793680702385363
 40
2.793680702385363
 40
3.21331340697909
 40
3.21331340697909
 40
3.21331340697909
 40
3.21331340697909
 10
204.6255105888305
 20
353.6980578323833
 30
0.0
 10
204.7885995357818
 20
353.7025290582642
 30
0.0
 10
204.9728628602002
 20
353.7075807981921
 30
0.0
 10
205.3087300422658
 20
353.716788890249
 30
0.0
 10
205.4522892667411
 20
353.7207246917359
 30
0.0
 10
205.7365787441736
 20
353.7285187359855
 30
0.0
 10
205.8764104509926
 20
353.7323523443214
 30
0.0
 10
206.0164845964246
 20
353.7361925993234
 30
0.0
  0
ARC
  5
5D
330
2
100
AcDbEntity
  8
AM_VIS
100
AcDbCircle
 10
248.6008702544811
 20
366.9081896479677
 30
0.0
 40
12.0
100
AcDbArc
 50
332.790172605131
 51
39.90479212896472
  0
LINE
  5
5E
330
2
100
AcDbEntity
  8
AM_VIS
100
AcDbLine
 10
223.6678587533647
 20
378.2291383010363
 30
0.0
 11
247.7716486048659
 21
378.8899647459114
 31
0.0
  0
ARC
  5
5F
330
2
100
AcDbEntity
  8
AM_VIS
100
AcDbCircle
 10
223.530830875107
 20
383.2272602843996
 30
0.0
 40
5.0
100
AcDbArc
 50
211.5704204432638
 51
271.5704204432634
  0
LINE
  5
60
330
2
100
AcDbEntity
  8
AM_VIS
100
AcDbLine
 10
215.9763792916307
 20
385.9708057815611
 30
0.0
 11
219.2708442054297
 21
380.6095296691201
 31
0.0
  0
LINE
  5
61
330
2
100
AcDbEntity
  8
AM_VIS
100
AcDbLine
 10
213.4594449880875
 20
385.9018018299817
 30
0.0
 11
215.9763792916308
 21
385.9708057815612
 31
0.0
  0
CIRCLE
  5
62
330
2
100
AcDbEntity
  8
AM_VIS
100
AcDbCircle
 10
178.5038373969619
 20
369.4881091373884
 30
0.0
 40
4.799999999999999
  0
ARC
  5
63
330
2
100
AcDbEntity
  8
AM_VIS
100
AcDbCircle
 10
178.5038373969619
 20
369.4881091373884
 30
0.0
 40
13.0
100
AcDbArc
 50
91.57042044326361
 51
181.5704204432636
  0
LINE
  5
64
330
2
100
AcDbEntity
  8
AM_VIS
100
AcDbLine
 10
167.7532368860767
 20
287.2625985664266
 30
0.0
 11
165.5087202402172
 21
369.1318366539186
 31
0.0
  0
ARC
  5
65
330
2
100
AcDbEntity
  8
AM_VIS
100
AcDbCircle
 10
180.7383577988547
 20
287.6185969941398
 30
0.0
 40
12.99
100
AcDbArc
 50
181.5704204432636
 51
1.570420443263662
  0
LINE
  5
66
330
2
100
AcDbEntity
  8
AM_VIS
100
AcDbLine
 10
192.1613608994961
 20
344.9531860321954
 30
0.0
 11
193.7234787116328
 21
287.974595421853
 31
0.0
  0
ARC
  5
67
330
2
100
AcDbEntity
  8
AM_VIS
100
AcDbCircle
 10
195.1602340895142
 20
345.0354027591501
 30
0.0
 40
3.0
100
AcDbArc
 50
158.2536041343639
 51
181.5704204432635
  0
LINE
  5
68
330
2
100
AcDbEntity
  8
AM_VIS
100
AcDbLine
 10
191.1426820702369
 20
382.8394987776029
 30
0.0
 11
191.0056541919794
 21
387.8376207609662
 31
0.0
  0
LINE
  5
69
330
2
100
AcDbEntity
  8
AM_VIS
100
AcDbLine
 10
215.0665362870248
 20
385.9458616411654
 30
0.0
 11
214.9966397121236
 21
388.4953545766027
 31
0.0
  0
ARC
  5
6A
330
2
100
AcDbEntity
  8
AM_VIS
100
AcDbCircle
 10
203.0011469520515
 20
388.1664876687845
 30
0.0
 40
12.0
100
AcDbArc
 50
1.570420443263586
 51
181.5704204432635
  0
LINE
  5
6B
330
2
100
AcDbEntity
  8
AM_VIS
100
AcDbLine
 10
249.7133637105871
 20
302.6371825117001
 30
0.0
 11
250.707233385317
 21
302.7477405039577
 31
0.0
  0
LINE
  5
6C
330
2
100
AcDbEntity
  8
AM_VIS
100
AcDbLine
 10
260.6459301326174
 20
303.8533204265335
 30
0.0
 11
261.6397998073474
 21
303.963878418791
 31
0.0
  0
LINE
  5
6D
330
2
100
AcDbEntity
  8
AM_VIS
100
AcDbLine
 10
250.0438854317716
 20
308.7109585523378
 30
0.0
 11
250.707233385317
 21
302.7477405039577
 31
0.0
  0
SPLINE
  5
6E
330
2
100
AcDbEntity
  8
AM_VIS
100
AcDbSpline
210
0.0
220
0.0
230
1.0
 70
    24
 71
     3
 72
    10
 73
     6
 74
     0
 42
0.0000000001
 43
0.0000000001
 40
0.0
 40
0.0
 40
0.0
 40
0.0
 40
1.110902832752573
 40
1.110902832752573
 40
2.221805665505147
 40
2.221805665505147
 40
2.221805665505147
 40
2.221805665505147
 10
249.9886064356428
 20
309.2078933897029
 30
0.0
 10
250.0009502283583
 20
309.096927904525
 30
0.0
 10
250.0146456046563
 20
308.9738122535572
 30
0.0
 10
250.0361325929865
 20
308.7806532999019
 30
0.0
 10
250.0438854317716
 20
308.7109585523378
 30
0.0
 10
250.0438854317716
 20
308.7109585523378
 30
0.0
  0
SPLINE
  5
6F
330
2
100
AcDbEntity
  8
AM_VIS
100
AcDbSpline
210
0.0
220
0.0
230
1.0
 70
    24
 71
     3
 72
    10
 73
     6
 74
     0
 42
0.0000000001
 43
0.0000000001
 40
4.564540839656428
 40
4.564540839656428
 40
4.564540839656428
 40
4.564540839656428
 40
5.675443672409028
 40
5.675443672409028
 40
6.786346505161628
 40
6.786346505161628
 40
6.786346505161628
 40
6.786346505161628
 10
259.9825821790719
 20
309.8165384749137
 30
0.0
 10
259.9825821790719
 20
309.8165384749137
 30
0.0
 10
259.9748293402868
 20
309.8862332224777
 30
0.0
 10
259.9533423519566
 20
310.0793921761331
 30
0.0
 10
259.9396469756586
 20
310.2025078271008
 30
0.0
 10
259.927303182943
 20
310.3134733122786
 30
0.0
  0
LINE
  5
70
330
2
100
AcDbEntity
  8
AM_VIS
100
AcDbLine
 10
260.6459301326174
 20
303.8533204265335
 30
0.0
 11
259.9825821790719
 21
309.8165384749137
 31
0.0
  0
LINE
  5
71
330
2
100
AcDbEntity
  8
AM_VIS
100
AcDbLine
 10
250.0438854317716
 20
308.7109585523378
 30
0.0
 11
259.9825821790718
 21
309.8165384749136
 31
0.0
  0
LINE
  5
72
330
2
100
AcDbEntity
  8
AM_VIS
100
AcDbLine
 10
261.6264162575406
 20
195.5438695986224
 30
0.0
 11
249.713363710587
 21
302.6371825117001
 31
0.0
  0
LINE
  5
73
330
2
100
AcDbEntity
  8
AM_VIS
100
AcDbLine
 10
274.3610027783576
 20
189.6056343805281
 30
0.0
 11
261.6397998073474
 21
303.9638784187912
 31
0.0
  0
LINE
  5
74
330
2
100
AcDbEntity
  8
AM_VIS
100
AcDbLine
 10
258.5453282797233
 20
322.736844246404
 30
0.0
 11
259.927303182943
 21
310.3134733122786
 31
0.0
  0
LINE
  5
75
330
2
100
AcDbEntity
  8
AM_VIS
100
AcDbLine
 10
248.6066315324231
 20
321.6312643238282
 30
0.0
 11
249.9886064356428
 21
309.2078933897029
 31
0.0
  0
SPLINE
  5
76
330
2
100
AcDbEntity
  8
AM_VIS
100
AcDbSpline
210
0.0
220
0.0
230
1.0
 70
    28
 71
     2
 72
     6
 73
     3
 74
     0
 42
0.0000000001
 43
0.0000000001
 40
13.04984894672373
 40
13.04984894672373
 40
13.04984894672373
 40
19.48188204589985
 40
19.48188204589985
 40
19.48188204589985
 10
244.1342179961374
 20
321.1337533586691
 30
0.0
 41
1.0
 10
244.1342179961374
 20
321.1337533586691
 30
0.0
 41
1.078466120372227
 10
244.0906810815041
 20
321.5251318406934
 30
0.0
 41
1.079583194719702
  0
LINE
  5
77
330
2
100
AcDbEntity
  8
AM_VIS
100
AcDbLine
 10
244.0906810815041
 20
321.5251318406934
 30
0.0
 11
243.4038489649678
 21
327.699462599755
 31
0.0
  0
SPLINE
  5
78
330
2
100
AcDbEntity
  8
AM_VIS
100
AcDbSpline
210
0.0
220
0.0
230
1.0
 70
    28
 71
     2
 72
     6
 73
     3
 74
     0
 42
0.0000000001
 43
0.0000000001
 40
6.617815847547628
 40
6.617815847547628
 40
6.617815847547628
 40
13.04984894672373
 40
13.04984894672373
 40
13.04984894672373
 10
243.4038489649678
 20
327.699462599755
 30
0.0
 41
1.079583194719702
 10
243.3603120503344
 20
328.0908410817793
 30
0.0
 41
1.078466120372227
 10
243.3603120503344
 20
328.0908410817793
 30
0.0
 41
1.0
  0
SPLINE
  5
79
330
2
100
AcDbEntity
  8
AM_VIS
100
AcDbSpline
210
0.0
220
0.0
230
1.0
 70
    28
 71
     2
 72
     6
 73
     3
 74
     0
 42
0.0000000001
 43
0.0000000001
 40
13.04984894672373
 40
13.04984894672373
 40
13.04984894672373
 40
19.48188204589988
 40
19.48188204589988
 40
19.48188204589988
 10
262.2438358702049
 20
330.1914429346733
 30
0.0
 41
1.0
 10
262.2438358702049
 20
330.1914429346733
 30
0.0
 41
1.078466120372243
 10
262.2873727848383
 20
329.800064452649
 30
0.0
 41
1.079583194719717
  0
LINE
  5
7A
330
2
100
AcDbEntity
  8
AM_VIS
100
AcDbLine
 10
262.9742049013747
 20
323.6257336935874
 30
0.0
 11
262.2873727848384
 21
329.800064452649
 31
0.0
  0
SPLINE
  5
7B
330
2
100
AcDbEntity
  8
AM_VIS
100
AcDbSpline
210
0.0
220
0.0
230
1.0
 70
    28
 71
     2
 72
     6
 73
     3
 74
     0
 42
0.0000000001
 43
0.0000000001
 40
6.617815847547618
 40
6.617815847547618
 40
6.617815847547618
 40
13.04984894672373
 40
13.04984894672373
 40
13.04984894672373
 10
262.9742049013747
 20
323.6257336935874
 30
0.0
 41
1.079583194719703
 10
263.017741816008
 20
323.2343552115631
 30
0.0
 41
1.078466120372228
 10
263.017741816008
 20
323.2343552115631
 30
0.0
 41
1.0
  0
SPLINE
  5
7C
330
2
100
AcDbEntity
  8
AM_VIS
100
AcDbSpline
210
0.0
220
0.0
230
1.0
 70
    12
 71
     2
 72
     6
 73
     3
 74
     0
 42
0.0000000001
 43
0.0000000001
 40
0.0
 40
0.0
 40
0.0
 40
6.424690970355181
 40
6.424690970355181
 40
6.424690970355181
 10
258.3024430882437
 20
322.7098257148985
 30
0.0
 41
1.0
 10
260.4907695506193
 20
322.9537230483027
 30
0.0
 41
1.078316916438947
 10
262.9742049013747
 20
323.6257336935874
 30
0.0
 41
1.07948173344588
  0
SPLINE
  5
7D
330
2
100
AcDbEntity
  8
AM_VIS
100
AcDbSpline
210
0.0
220
0.0
230
1.0
 70
    12
 71
     2
 72
     6
 73
     3
 74
     0
 42
0.0000000001
 43
0.0000000001
 40
6.618686710241831
 40
6.618686710241831
 40
6.618686710241831
 40
13.043377680597
 40
13.043377680597
 40
13.043377680597
 10
262.2873727848383
 20
329.800064452649
 30
0.0
 41
1.079481733445879
 10
259.716966464287
 20
329.909886108196
 30
0.0
 41
1.078316916438945
 10
257.5285371424407
 20
329.6669134380087
 30
0.0
 41
1.0
  0
SPLINE
  5
7E
330
2
100
AcDbEntity
  8
AM_VIS
100
AcDbSpline
210
0.0
220
0.0
230
1.0
 70
    12
 71
     2
 72
     6
 73
     3
 74
     0
 42
0.0000000001
 43
0.0000000001
 40
0.0
 40
0.0
 40
0.0
 40
6.424688169171937
 40
6.424688169171937
 40
6.424688169171937
 10
257.5173704869226
 20
329.6656712600394
 30
0.0
 41
1.0
 10
255.3290449093674
 20
329.4217740252518
 30
0.0
 41
1.078316882292519
 10
252.8456108370244
 20
328.7497638667152
 30
0.0
 41
1.079481732430106
  0
LINE
  5
7F
330
2
100
AcDbEntity
  8
AM_VIS
100
AcDbLine
 10
253.5324430293181
 20
322.5754324266272
 30
0.0
 11
252.8456108370245
 21
328.7497638667152
 31
0.0
  0
SPLINE
  5
80
330
2
100
AcDbEntity
  8
AM_VIS
100
AcDbSpline
210
0.0
220
0.0
230
1.0
 70
    12
 71
     2
 72
     6
 73
     3
 74
     0
 42
0.0000000001
 43
0.0000000001
 40
6.618689511425067
 40
6.618689511425067
 40
6.618689511425067
 40
13.043377680597
 40
13.043377680597
 40
13.043377680597
 10
253.5324430293181
 20
322.5754324266272
 30
0.0
 41
1.079481732430125
 10
256.1028479957411
 20
322.4656109649846
 30
0.0
 41
1.078316882292539
 10
258.2912764327257
 20
322.7085835369292
 30
0.0
 41
1.0
  0
LINE
  5
81
330
2
100
AcDbEntity
  8
AM_VIS
100
AcDbLine
 10
258.2912764327128
 20
322.7085835369277
 30
0.0
 11
258.3024430882568
 21
322.7098257149
 31
0.0
  0
SPLINE
  5
82
330
2
100
AcDbEntity
  8
AM_VIS
100
AcDbSpline
210
0.0
220
0.0
230
1.0
 70
    12
 71
     2
 72
     6
 73
     3
 74
     0
 42
0.0000000001
 43
0.0000000001
 40
0.0
 40
0.0
 40
0.0
 40
6.424688169162345
 40
6.424688169162345
 40
6.424688169162345
 10
248.8606833794271
 20
321.6595250333038
 30
0.0
 41
1.0
 10
251.049008956979
 20
321.9034222680916
 30
0.0
 41
1.078316882292358
 10
253.5324430293181
 20
322.5754324266272
 30
0.0
 41
1.079481732430007
  0
SPLINE
  5
83
330
2
100
AcDbEntity
  8
AM_VIS
100
AcDbSpline
210
0.0
220
0.0
230
1.0
 70
    12
 71
     2
 72
     6
 73
     3
 74
     0
 42
0.0000000001
 43
0.0000000001
 40
6.618689511426148
 40
6.618689511426148
 40
6.618689511426148
 40
13.04337768058853
 40
13.04337768058853
 40
13.04337768058853
 10
252.8456108370244
 20
328.7497638667152
 30
0.0
 41
1.079481732430041
 10
250.2752058706054
 20
328.8595853283576
 30
0.0
 41
1.078316882292392
 10
248.0867774336241
 20
328.616612756414
 30
0.0
 41
1.0
  0
SPLINE
  5
84
330
2
100
AcDbEntity
  8
AM_VIS
100
AcDbSpline
210
0.0
220
0.0
230
1.0
 70
    12
 71
     2
 72
     6
 73
     3
 74
     0
 42
0.0000000001
 43
0.0000000001
 40
0.0
 40
0.0
 40
0.0
 40
6.424690970345568
 40
6.424690970345568
 40
6.424690970345568
 10
248.0756107780914
 20
328.6153705784431
 30
0.0
 41
1.0
 10
245.8872843157193
 20
328.3714732450386
 30
0.0
 41
1.078316916438779
 10
243.4038489649679
 20
327.699462599755
 30
0.0
 41
1.079481733445776
  0
SPLINE
  5
85
330
2
100
AcDbEntity
  8
AM_VIS
100
AcDbSpline
210
0.0
220
0.0
230
1.0
 70
    12
 71
     2
 72
     6
 73
     3
 74
     0
 42
0.0000000001
 43
0.0000000001
 40
6.618686710242966
 40
6.618686710242966
 40
6.618686710242966
 40
13.04337768058852
 40
13.04337768058852
 40
13.04337768058852
 10
244.0906810815041
 20
321.5251318406934
 30
0.0
 41
1.079481733445777
 10
246.6610874020513
 20
321.4153101851465
 30
0.0
 41
1.078316916438781
 10
248.8495167238944
 20
321.6582828553329
 30
0.0
 41
1.0
  0
LINE
  5
86
330
2
100
AcDbEntity
  8
AM_VIS
100
AcDbLine
 10
248.849516723884
 20
321.6582828553317
 30
0.0
 11
248.8606833794375
 21
321.659525033305
 31
0.0
  0
LINE
  5
87
330
2
100
AcDbEntity
  8
AM_VIS
100
AcDbLine
 10
244.1342179961374
 20
321.1337533586691
 30
0.0
 11
248.849516723884
 21
321.6582828553317
 31
0.0
  0
LINE
  5
88
330
2
100
AcDbEntity
  8
AM_VIS
100
AcDbLine
 10
248.8606833794375
 20
321.659525033305
 30
0.0
 11
258.2912764327127
 21
322.7085835369277
 31
0.0
  0
LINE
  5
89
330
2
100
AcDbEntity
  8
AM_VIS
100
AcDbLine
 10
258.3024430882567
 20
322.7098257149
 30
0.0
 11
263.017741816008
 21
323.2343552115632
 31
0.0
  0
LINE
  5
8A
330
2
100
AcDbEntity
  8
AM_VIS
100
AcDbLine
 10
237.6671515768631
 20
374.7474367979618
 30
0.0
 11
240.3170866242805
 21
378.0607197989247
 31
0.0
  0
LINE
  5
8B
330
2
100
AcDbEntity
  8
AM_VIS
100
AcDbLine
 10
254.2312620705009
 20
379.6085316905308
 30
0.0
 11
240.3170866242805
 21
378.0607197989247
 31
0.0
  0
LINE
  5
8C
330
2
100
AcDbEntity
  8
AM_VIS
100
AcDbLine
 10
254.2312620705009
 20
379.6085316905307
 30
0.0
 11
257.5445450714637
 21
376.9585966431134
 31
0.0
  0
LINE
  5
8D
330
2
100
AcDbEntity
  8
AM_VIS
100
AcDbLine
 10
262.7407707075699
 20
330.2467219308021
 30
0.0
 11
257.5445450714637
 21
376.9585966431134
 31
0.0
  0
LINE
  5
8E
330
2
100
AcDbEntity
  8
AM_VIS
100
AcDbLine
 10
242.8633772129693
 20
328.0355620856505
 30
0.0
 11
237.6671515768631
 21
374.7474367979618
 31
0.0
  0
LINE
  5
8F
330
2
100
AcDbEntity
  8
AM_VIS
100
AcDbLine
 10
262.7407707075699
 20
330.2467219308021
 30
0.0
 11
242.8633772129693
 21
328.0355620856505
 31
0.0
  0
SPLINE
  5
90
330
2
100
AcDbEntity
  8
AM_VIS
100
AcDbSpline
210
0.0
220
0.0
230
1.0
 70
    28
 71
     2
 72
     6
 73
     3
 74
     0
 42
0.0000000001
 43
0.0000000001
 40
0.0
 40
0.0
 40
0.0
 40
4.489346956745006
 40
4.489346956745006
 40
4.489346956745006
 10
263.8636780827582
 20
187.1186025891489
 30
0.0
 41
1.0
 10
266.1881650952051
 20
187.1186025891489
 30
0.0
 41
1.01528023573722
 10
268.2818596602205
 20
187.1186025891489
 30
0.0
 41
1.0
  0
ARC
  5
91
330
2
100
AcDbEntity
  8
AM_VIS
100
AcDbCircle
 10
269.9355309638605
 20
175.1185969941397
 30
0.0
 40
13.4487
100
AcDbArc
 50
116.8388403378705
 51
123.1608956827663
  0
SPLINE
  5
92
330
2
100
AcDbEntity
  8
AM_VIS
100
AcDbSpline
210
0.0
220
0.0
230
1.0
 70
    28
 71
     2
 72
     6
 73
     3
 74
     0
 42
0.0000000001
 43
0.0000000001
 40
0.0
 40
0.0
 40
0.0
 40
4.489200933507459
 40
4.489200933507459
 40
4.489200933507459
 10
260.3701826471714
 20
182.5508829574989
 30
0.0
 41
1.0
 10
261.4169949328647
 20
184.3640150223072
 30
0.0
 41
1.015279190562461
 10
262.5791995844998
 20
186.3770125277321
 30
0.0
 41
1.0
  0
ARC
  5
93
330
2
100
AcDbEntity
  8
AM_VIS
100
AcDbCircle
 10
269.9355309638605
 20
175.1185969941397
 30
0.0
 40
12.11341252747277
100
AcDbArc
 50
97.84627610852357
 51
142.1527546826731
  0
SPLINE
  5
94
330
2
100
AcDbEntity
  8
AM_VIS
100
AcDbSpline
210
0.0
220
0.0
230
1.0
 70
    28
 71
     2
 72
     6
 73
     3
 74
     0
 42
0.0000000001
 43
0.0000000001
 40
0.0
 40
0.0
 40
0.0
 40
4.489200933507414
 40
4.489200933507414
 40
4.489200933507414
 10
256.5072914157279
 20
175.8601590805265
 30
0.0
 41
1.0
 10
257.669496067363
 20
177.8731565859514
 30
0.0
 41
1.015279190563105
 10
258.7163083530563
 20
179.6862886507596
 30
0.0
 41
1.0
  0
ARC
  5
95
330
2
100
AcDbEntity
  8
AM_VIS
100
AcDbCircle
 10
269.9355309638605
 20
175.1185969941397
 30
0.0
 40
13.4487
100
AcDbArc
 50
176.8391043172337
 51
183.1610012742079
  0
SPLINE
  5
96
330
2
100
AcDbEntity
  8
AM_VIS
100
AcDbSpline
210
0.0
220
0.0
230
1.0
 70
    28
 71
     2
 72
     6
 73
     3
 74
     0
 42
0.0000000001
 43
0.0000000001
 40
0.0
 40
0.0
 40
0.0
 40
4.489259339835058
 40
4.489259339835058
 40
4.489259339835058
 10
258.7163392587889
 20
170.5508294272001
 30
0.0
 41
1.0
 10
257.6695129750758
 20
172.3639857372897
 30
0.0
 41
1.015279608606588
 10
256.507292782389
 20
174.3770101606056
 30
0.0
 41
1.0
  0
ARC
  5
97
330
2
100
AcDbEntity
  8
AM_VIS
100
AcDbCircle
 10
269.9355309638605
 20
175.1185969941397
 30
0.0
 40
12.11341252747277
100
AcDbArc
 50
157.8472453173269
 51
202.1531423518619
  0
SPLINE
  5
98
330
2
100
AcDbEntity
  8
AM_VIS
100
AcDbSpline
210
0.0
220
0.0
230
1.0
 70
    28
 71
     2
 72
     6
 73
     3
 74
     0
 42
0.0000000001
 43
0.0000000001
 40
0.0
 40
0.0
 40
0.0
 40
4.489259339835054
 40
4.489259339835054
 40
4.489259339835054
 10
262.5791788361721
 20
163.8601950176843
 30
0.0
 41
1.0
 10
261.4169586434854
 20
165.8732194410002
 30
0.0
 41
1.015279608606679
 10
260.3701323597722
 20
167.6863757510899
 30
0.0
 41
1.0
  0
ARC
  5
99
330
2
100
AcDbEntity
  8
AM_VIS
100
AcDbCircle
 10
269.9355309638605
 20
175.1185969941397
 30
0.0
 40
13.4487
100
AcDbArc
 50
236.8389987257921
 51
243.1610540700359
  0
SPLINE
  5
9A
330
2
100
AcDbEntity
  8
AM_VIS
100
AcDbSpline
210
0.0
220
0.0
230
1.0
 70
    28
 71
     2
 72
     6
 73
     3
 74
     0
 42
0.0000000001
 43
0.0000000001
 40
0.0
 40
0.0
 40
0.0
 40
4.489288544457886
 40
4.489288544457886
 40
4.489288544457886
 10
268.2817784609377
 20
163.1186025891489
 30
0.0
 41
1.0
 10
266.1881118947975
 20
163.1186025891489
 30
0.0
 41
1.015279817641361
 10
263.8636559676019
 20
163.1186025891489
 30
0.0
 41
1.0
  0
ARC
  5
9B
330
2
100
AcDbEntity
  8
AM_VIS
100
AcDbCircle
 10
269.9355309638605
 20
175.1185969941397
 30
0.0
 40
12.11341252747277
100
AcDbArc
 50
217.846857648138
 51
262.1533361934593
  0
SPLINE
  5
9C
330
2
100
AcDbEntity
  8
AM_VIS
100
AcDbSpline
210
0.0
220
0.0
230
1.0
 70
    28
 71
     2
 72
     6
 73
     3
 74
     0
 42
0.0000000001
 43
0.0000000001
 40
0.0
 40
0.0
 40
0.0
 40
4.489288544457886
 40
4.489288544457886
 40
4.489288544457886
 10
276.007405960119
 20
163.1186025891489
 30
0.0
 41
1.0
 10
273.6829500329235
 20
163.1186025891489
 30
0.0
 41
1.015279817641361
 10
271.5892834667832
 20
163.1186025891489
 30
0.0
 41
1.0
  0
ARC
  5
9D
330
2
100
AcDbEntity
  8
AM_VIS
100
AcDbCircle
 10
269.9355309638605
 20
175.1185969941397
 30
0.0
 40
13.4487
100
AcDbArc
 50
296.8389459299641
 51
303.1611068660347
  0
SPLINE
  5
9E
330
2
100
AcDbEntity
  8
AM_VIS
100
AcDbSpline
210
0.0
220
0.0
230
1.0
 70
    28
 71
     2
 72
     6
 73
     3
 74
     0
 42
0.0000000001
 43
0.0000000001
 40
0.0
 40
0.0
 40
0.0
 40
4.489317750108253
 40
4.489317750108253
 40
4.489317750108253
 10
279.5009798573792
 20
167.6864404749176
 30
0.0
 41
1.0
 10
278.4541395747077
 20
165.8732599179207
 30
0.0
 41
1.015280026684792
 10
277.2919038399272
 20
163.860208574909
 30
0.0
 41
1.0
  0
ARC
  5
9F
330
2
100
AcDbEntity
  8
AM_VIS
100
AcDbCircle
 10
269.9355309638605
 20
175.1185969941397
 30
0.0
 40
12.11341252747277
100
AcDbArc
 50
277.8466638065406
 51
322.1535300400877
  0
SPLINE
  5
A0
330
2
100
AcDbEntity
  8
AM_VIS
100
AcDbSpline
210
0.0
220
0.0
230
1.0
 70
    28
 71
     2
 72
     6
 73
     3
 74
     0
 42
0.0000000001
 43
0.0000000001
 40
0.0
 40
0.0
 40
0.0
 40
4.489317750108252
 40
4.489317750108252
 40
4.489317750108252
 10
283.3637677786203
 20
174.3769854133705
 30
0.0
 41
1.0
 10
282.2015320438399
 20
172.3639340703588
 30
0.0
 41
1.015280026685218
 10
281.1546917611683
 20
170.5507535133619
 30
0.0
 41
1.0
  0
ARC
  5
A1
330
2
100
AcDbEntity
  8
AM_VIS
100
AcDbCircle
 10
269.9355309638605
 20
175.1185969941397
 30
0.0
 40
13.4487
100
AcDbArc
 50
356.8388931339653
 51
3.161001274208159
  0
SPLINE
  5
A2
330
2
100
AcDbEntity
  8
AM_VIS
100
AcDbSpline
210
0.0
220
0.0
230
1.0
 70
    28
 71
     2
 72
     6
 73
     3
 74
     0
 42
0.0000000001
 43
0.0000000001
 40
0.0
 40
0.0
 40
0.0
 40
4.489259339835413
 40
4.489259339835413
 40
4.489259339835413
 10
281.1547226689319
 20
179.6863645610797
 30
0.0
 41
1.0
 10
282.2015489526453
 20
177.8732082509898
 30
0.0
 41
1.015279608607052
 10
283.363769145332
 20
175.8601838276739
 30
0.0
 41
1.0
  0
ARC
  5
A3
330
2
100
AcDbEntity
  8
AM_VIS
100
AcDbCircle
 10
269.9355309638605
 20
175.1185969941397
 30
0.0
 40
12.11341252747277
100
AcDbArc
 50
337.846469959912
 51
22.15314235186383
  0
SPLINE
  5
A4
330
2
100
AcDbEntity
  8
AM_VIS
100
AcDbSpline
210
0.0
220
0.0
230
1.0
 70
    28
 71
     2
 72
     6
 73
     3
 74
     0
 42
0.0000000001
 43
0.0000000001
 40
0.0
 40
0.0
 40
0.0
 40
4.489259339835388
 40
4.489259339835388
 40
4.489259339835388
 10
277.2918830915489
 20
186.3769989705952
 30
0.0
 41
1.0
 10
278.4541032842357
 20
184.3639745472791
 30
0.0
 41
1.01527960860693
 10
279.500929567949
 20
182.5508182371893
 30
0.0
 41
1.0
  0
ARC
  5
A5
330
2
100
AcDbEntity
  8
AM_VIS
100
AcDbCircle
 10
269.9355309638605
 20
175.1185969941397
 30
0.0
 40
13.4487
100
AcDbArc
 50
56.83899872579164
 51
63.16115966212948
  0
SPLINE
  5
A6
330
2
100
AcDbEntity
  8
AM_VIS
100
AcDbSpline
210
0.0
220
0.0
230
1.0
 70
    28
 71
     2
 72
     6
 73
     3
 74
     0
 42
0.0000000001
 43
0.0000000001
 40
0.0
 40
0.0
 40
0.0
 40
4.489346956745006
 40
4.489346956745006
 40
4.489346956745006
 10
271.5892022675004
 20
187.1186025891489
 30
0.0
 41
1.0
 10
273.6828968325159
 20
187.1186025891489
 30
0.0
 41
1.01528023573722
 10
276.0073838449627
 20
187.1186025891489
 30
0.0
 41
1.0
  0
ARC
  5
A7
330
2
100
AcDbEntity
  8
AM_VIS
100
AcDbCircle
 10
269.9355309638605
 20
175.1185969941397
 30
0.0
 40
12.11341252747277
100
AcDbArc
 50
37.84685764813611
 51
82.15372389147644
  0
LINE
  5
A8
330
2
100
AcDbEntity
  8
AM_VIS
100
AcDbLine
 10
271.5892022675004
 20
187.1186025891489
 30
0.0
 11
268.2818596602205
 21
187.1186025891489
 31
0.0
  0
LINE
  5
A9
330
2
100
AcDbEntity
  8
AM_VIS
100
AcDbLine
 10
260.3701826471714
 20
182.550882957499
 30
0.0
 11
258.7163083530563
 21
179.6862886507596
 31
0.0
  0
LINE
  5
AA
330
2
100
AcDbEntity
  8
AM_VIS
100
AcDbLine
 10
258.7163392587888
 20
170.5508294272002
 30
0.0
 11
260.3701323597724
 21
167.6863757510897
 31
0.0
  0
LINE
  5
AB
330
2
100
AcDbEntity
  8
AM_VIS
100
AcDbLine
 10
268.2817784609377
 20
163.1186025891489
 30
0.0
 11
271.5892834667832
 21
163.1186025891489
 31
0.0
  0
LINE
  5
AC
330
2
100
AcDbEntity
  8
AM_VIS
100
AcDbLine
 10
279.500979857379
 20
167.6864404749174
 30
0.0
 11
281.1546917611684
 21
170.550753513362
 31
0.0
  0
LINE
  5
AD
330
2
100
AcDbEntity
  8
AM_VIS
100
AcDbLine
 10
281.1547226689321
 20
179.6863645610796
 30
0.0
 11
279.5009295679489
 21
182.5508182371894
 31
0.0
  0
CIRCLE
  5
AE
330
2
100
AcDbEntity
  8
AM_VIS
100
AcDbCircle
 10
269.9355503455271
 20
175.1185858041293
 30
0.0
 40
0.0005
  0
CIRCLE
  5
AF
330
2
100
AcDbEntity
  8
AM_VIS
100
AcDbCircle
 10
269.9355309638605
 20
175.1185969941398
 30
0.0
 40
13.5
  0
CIRCLE
  5
B0
330
2
100
AcDbEntity
  8
AM_VIS
100
AcDbCircle
 10
249.3351503052068
 20
366.2737949014666
 30
0.0
 40
8.5
  0
CIRCLE
  5
B1
330
2
100
AcDbEntity
  8
AM_VIS
100
AcDbCircle
 10
249.3351503052071
 20
366.2737949014659
 30
0.0
 40
5.0
  0
CIRCLE
  5
B2
330
2
100
AcDbEntity
  8
AM_VIS
100
AcDbCircle
 10
216.7383577988547
 20
307.1185969941398
 30
0.0
 40
4.849999999999999
  0
CIRCLE
  5
B3
330
2
100
AcDbEntity
  8
AM_VIS
100
AcDbCircle
 10
216.7383577988547
 20
307.1185969941398
 30
0.0
 40
7.365
  0
LINE
  5
B4
330
2
100
AcDbEntity
  8
AM_VIS
100
AcDbLine
 10
296.0280666922883
 20
150.8545890964177
 30
0.0
 11
307.7060353703661
 21
152.1536455054443
 31
0.0
  0
LINE
  5
B5
330
2
100
AcDbEntity
  8
AM_VIS
100
AcDbLine
 10
311.0227751380936
 20
122.3375552635434
 30
0.0
 11
307.7060353703662
 21
152.1536455054443
 31
0.0
  0
LINE
  5
B6
330
2
100
AcDbEntity
  8
AM_VIS
100
AcDbLine
 10
299.3448064600157
 20
121.0384988545168
 30
0.0
 11
253.1298665850694
 21
115.8975522145394
 31
0.0
  0
LINE
  5
B7
330
2
100
AcDbEntity
  8
AM_VIS
100
AcDbLine
 10
238.1351581392642
 20
144.4145860474137
 30
0.0
 11
249.813126817342
 21
145.7136424564403
 31
0.0
  0
LINE
  5
B8
330
2
100
AcDbEntity
  8
AM_VIS
100
AcDbLine
 10
238.1351581392642
 20
144.4145860474137
 30
0.0
 11
241.4518979069915
 21
114.5984958055129
 31
0.0
  0
LINE
  5
B9
330
2
100
AcDbEntity
  8
AM_VIS
100
AcDbLine
 10
296.0280666922884
 20
150.8545890964177
 30
0.0
 11
249.8131268173421
 21
145.7136424564403
 31
0.0
  0
LINE
  5
BA
330
2
100
AcDbEntity
  8
AM_VIS
100
AcDbLine
 10
318.6685604376892
 20
-82.07022826524612
 30
0.0
 11
278.9137734484881
 21
-86.49254795554927
 31
0.0
  0
LINE
  5
BB
330
2
100
AcDbEntity
  8
AM_VIS
100
AcDbLine
 10
318.2263284686589
 20
-78.09474956632602
 30
0.0
 11
318.6685604376892
 21
-82.07022826524612
 31
0.0
  0
LINE
  5
BC
330
2
100
AcDbEntity
  8
AM_VIS
100
AcDbLine
 10
278.4715414794577
 20
-82.51706925662919
 30
0.0
 11
278.9137734484881
 21
-86.49254795554933
 31
0.0
  0
LINE
  5
BD
330
2
100
AcDbEntity
  8
AM_VIS
100
AcDbLine
 10
333.1343735896093
 20
-76.43637968246236
 30
0.0
 11
321.4564049115315
 21
-77.73543609148891
 31
0.0
  0
LINE
  5
BE
330
2
100
AcDbEntity
  8
AM_VIS
100
AcDbLine
 10
333.1343735896093
 20
-76.43637968246236
 30
0.0
 11
329.8176338218819
 21
-46.62028944056149
 31
0.0
  0
LINE
  5
BF
330
2
100
AcDbEntity
  8
AM_VIS
100
AcDbLine
 10
321.4564049115315
 20
-77.73543609148891
 30
0.0
 11
275.2414650365851
 21
-82.87638273146631
 31
0.0
  0
LINE
  5
C0
330
2
100
AcDbEntity
  8
AM_VIS
100
AcDbLine
 10
275.2414650365851
 20
-82.87638273146631
 30
0.0
 11
263.5634963585073
 21
-84.17543914049288
 31
0.0
  0
LINE
  5
C1
330
2
100
AcDbEntity
  8
AM_VIS
100
AcDbLine
 10
260.24675659078
 20
-54.35934889859201
 30
0.0
 11
263.5634963585073
 21
-84.17543914049288
 31
0.0
  0
LINE
  5
C2
330
2
100
AcDbEntity
  8
AM_VIS
100
AcDbLine
 10
318.1396651438042
 20
-47.91934584958804
 30
0.0
 11
271.9247252688578
 21
-53.06029248956545
 31
0.0
  0
LINE
  5
C3
330
2
100
AcDbEntity
  8
AM_VIS
100
AcDbLine
 10
300.1379980508689
 20
179.4844854327259
 30
0.0
 11
285.7268877672835
 21
177.8813945449911
 31
0.0
  0
LINE
  5
C4
330
2
100
AcDbEntity
  8
AM_VIS
100
AcDbLine
 10
302.125737400329
 20
179.7056014172411
 30
0.0
 11
300.1379980508689
 21
179.4844854327259
 31
0.0
  0
LINE
  5
C5
330
2
100
AcDbEntity
  8
AM_VIS
100
AcDbLine
 10
239.5119478923371
 20
172.7404479050137
 30
0.0
 11
237.5242085428771
 21
172.5193319204985
 31
0.0
  0
LINE
  5
C6
330
2
100
AcDbEntity
  8
AM_VIS
100
AcDbLine
 10
239.5365866922667
 20
172.7431887233735
 30
0.0
 11
239.5119478923372
 21
172.7404479050137
 31
0.0
  0
LINE
  5
C7
330
2
100
AcDbEntity
  8
AM_VIS
100
AcDbLine
 10
305.2213611835412
 20
151.8772505248003
 30
0.0
 11
302.125737400329
 21
179.7056014172411
 31
0.0
  0
LINE
  5
C8
330
2
100
AcDbEntity
  8
AM_VIS
100
AcDbLine
 10
300.1379980508689
 20
179.4844854327259
 30
0.0
 11
303.2336218340812
 21
151.6561345402851
 31
0.0
  0
ARC
  5
C9
330
2
100
AcDbEntity
  8
AM_VIS
100
AcDbCircle
 10
285.5057717827684
 20
179.8691338944511
 30
0.0
 40
2.0
100
AcDbArc
 50
244.4566905651953
 51
276.3474823670481
  0
LINE
  5
CA
330
2
100
AcDbEntity
  8
AM_VIS
100
AcDbLine
 10
283.2543334010281
 20
182.0185608809798
 30
0.0
 11
283.075800464278
 21
183.6234966088561
 31
0.0
  0
LINE
  5
CB
330
2
100
AcDbEntity
  8
AM_VIS
100
AcDbLine
 10
283.075800464278
 20
183.6234966088561
 30
0.0
 11
280.8669451303018
 21
185.3901199738018
 31
0.0
  0
LINE
  5
CC
330
2
100
AcDbEntity
  8
AM_VIS
100
AcDbLine
 10
277.5536621293406
 20
188.0400550212178
 30
0.0
 11
276.4492344623524
 21
188.9233667036908
 31
0.0
  0
LINE
  5
CD
330
2
100
AcDbEntity
  8
AM_VIS
100
AcDbLine
 10
276.4492344623523
 20
188.9233667036908
 30
0.0
 11
275.9445301647496
 21
188.8672234333552
 31
0.0
  0
LINE
  5
CE
330
2
100
AcDbEntity
  8
AM_VIS
100
AcDbLine
 10
242.6075716755494
 20
144.9120970125729
 30
0.0
 11
239.5119478923372
 21
172.7404479050137
 31
0.0
  0
LINE
  5
CF
330
2
100
AcDbEntity
  8
AM_VIS
100
AcDbLine
 10
237.5242085428771
 20
172.5193319204985
 30
0.0
 11
240.6198323260893
 21
144.6909810280577
 31
0.0
  0
LINE
  5
D0
330
2
100
AcDbEntity
  8
AM_VIS
100
AcDbLine
 10
241.4518979069914
 20
114.5984958055129
 30
0.0
 11
252.8813991663867
 21
115.869912716475
 31
0.0
  0
LINE
  5
D1
330
2
100
AcDbEntity
  8
AM_VIS
100
AcDbLine
 10
252.8813991663867
 20
115.869912716475
 30
0.0
 11
261.329291401592
 21
116.8096556506644
 31
0.0
  0
LINE
  5
D2
330
2
100
AcDbEntity
  8
AM_VIS
100
AcDbLine
 10
272.7587926609873
 20
118.0810725616266
 30
0.0
 11
279.7158803840976
 21
118.8549785074296
 31
0.0
  0
LINE
  5
D3
330
2
100
AcDbEntity
  8
AM_VIS
100
AcDbLine
 10
292.6361861555879
 20
120.2922324067782
 30
0.0
 11
299.5932738786981
 21
121.0661383525812
 31
0.0
  0
LINE
  5
D4
330
2
100
AcDbEntity
  8
AM_VIS
100
AcDbLine
 10
299.5932738786982
 20
121.0661383525812
 30
0.0
 11
311.0227751380936
 21
122.3375552635434
 31
0.0
  0
LINE
  5
D5
330
2
100
AcDbEntity
  8
AM_VIS
100
AcDbLine
 10
261.329291401592
 20
116.8096556506645
 30
0.0
 11
280.1241500853804
 21
-52.1481890534404
 31
0.0
  0
LINE
  5
D6
330
2
100
AcDbEntity
  8
AM_VIS
100
AcDbLine
 10
271.2679881488923
 20
117.9152355732402
 30
0.0
 11
290.0628468326806
 21
-51.04260913086463
 31
0.0
  0
LINE
  5
D7
330
2
100
AcDbEntity
  8
AM_VIS
100
AcDbLine
 10
300.0015435799809
 20
-49.93702920828884
 30
0.0
 11
281.2066848961925
 21
119.020815495816
 31
0.0
  0
LINE
  5
D8
330
2
100
AcDbEntity
  8
AM_VIS
100
AcDbLine
 10
291.1453816434928
 20
120.1263954183918
 30
0.0
 11
309.9402403272812
 21
-48.83144928571306
 31
0.0
  0
LINE
  5
D9
330
2
100
AcDbEntity
  8
AM_VIS
100
AcDbLine
 10
329.8176338218819
 20
-46.62028944056146
 30
0.0
 11
311.0227751380935
 21
122.3375552635434
 31
0.0
  0
LINE
  5
DA
330
2
100
AcDbEntity
  8
AM_VIS
100
AcDbLine
 10
271.6762578501751
 20
-53.08793198762981
 30
0.0
 11
260.2467565907797
 21
-54.35934889859197
 31
0.0
  0
LINE
  5
DB
330
2
100
AcDbEntity
  8
AM_VIS
100
AcDbLine
 10
241.4518979069914
 20
114.5984958055128
 30
0.0
 11
260.2467565907797
 21
-54.35934889859201
 31
0.0
  0
LINE
  5
DC
330
2
100
AcDbEntity
  8
AM_VIS
100
AcDbLine
 10
329.8176338218819
 20
-46.62028944056146
 30
0.0
 11
318.3881325624866
 21
-47.89170635152362
 31
0.0
  0
LINE
  5
DD
330
2
100
AcDbEntity
  8
AM_VIS
100
AcDbLine
 10
291.5536513447757
 20
-50.87677214247825
 30
0.0
 11
298.510739067886
 21
-50.10286619667519
 31
0.0
  0
LINE
  5
DE
330
2
100
AcDbEntity
  8
AM_VIS
100
AcDbLine
 10
311.4310448393763
 20
-48.66561229732671
 30
0.0
 11
318.3881325624866
 21
-47.89170635152365
 31
0.0
  0
LINE
  5
DF
330
2
100
AcDbEntity
  8
AM_VIS
100
AcDbLine
 10
271.6762578501751
 20
-53.08793198762984
 30
0.0
 11
280.1241500853804
 21
-52.1481890534404
 31
0.0
  0
CIRCLE
  5
E0
330
2
100
AcDbEntity
  8
AM_VIS
100
AcDbCircle
 10
178.5038373969622
 20
369.488109137388
 30
0.0
 40
4.774999999999999
  0
CIRCLE
  5
E1
330
2
100
AcDbEntity
  8
AM_VIS
100
AcDbCircle
 10
216.7383577988547
 20
307.1185969941398
 30
0.0
 40
4.774999999999999
  0
CIRCLE
  5
E2
330
2
100
AcDbEntity
  8
AM_VIS
100
AcDbCircle
 10
180.738357798855
 20
287.6185969941394
 30
0.0
 40
5.5
  0
CIRCLE
  5
E3
330
2
100
AcDbEntity
  8
AM_VIS
100
AcDbCircle
 10
180.738357798855
 20
287.6185969941394
 30
0.0
 40
6.0
  0
LINE
  5
E4
330
2
100
AcDbEntity
  8
AM_VIS
100
AcDbLine
 10
-101.1248994977326
 20
305.1185969941399
 30
0.0
 11
-101.1248994977326
 21
320.1185969941398
 31
0.0
  0
LINE
  5
E5
330
2
100
AcDbEntity
  8
AM_VIS
100
AcDbLine
 10
-107.1248994977326
 20
320.1185969941398
 30
0.0
 11
-101.1248994977326
 21
320.1185969941398
 31
0.0
  0
LINE
  5
E6
330
2
100
AcDbEntity
  8
AM_VIS
100
AcDbLine
 10
-107.1248994977326
 20
305.1185969941399
 30
0.0
 11
-107.1248994977326
 21
311.4993835978946
 31
0.0
  0
LINE
  5
E7
330
2
100
AcDbEntity
  8
AM_VIS
100
AcDbLine
 10
-119.1248994977326
 20
305.1185969941399
 30
0.0
 11
-119.1248994977326
 21
311.4993835978946
 31
0.0
  0
LINE
  5
E8
330
2
100
AcDbEntity
  8
AM_VIS
100
AcDbLine
 10
-125.1248994977326
 20
320.1185969941398
 30
0.0
 11
-119.1248994977326
 21
320.1185969941398
 31
0.0
  0
LINE
  5
E9
330
2
100
AcDbEntity
  8
AM_VIS
100
AcDbLine
 10
-125.1248994977326
 20
305.1185969941399
 30
0.0
 11
-125.1248994977326
 21
320.1185969941398
 31
0.0
  0
CIRCLE
  5
EA
330
2
100
AcDbEntity
  8
AM_VIS
100
AcDbCircle
 10
-83.1248994977327
 20
275.1185969941399
 30
0.0
 40
4.2
  0
CIRCLE
  5
EB
330
2
100
AcDbEntity
  8
AM_VIS
100
AcDbCircle
 10
-83.1248994977327
 20
175.1185969941399
 30
0.0
 40
4.2
  0
CIRCLE
  5
EC
330
2
100
AcDbEntity
  8
AM_VIS
100
AcDbCircle
 10
-143.1248994977327
 20
275.1185969941399
 30
0.0
 40
4.2
  0
CIRCLE
  5
ED
330
2
100
AcDbEntity
  8
AM_VIS
100
AcDbCircle
 10
-143.1248994977327
 20
175.1185969941399
 30
0.0
 40
4.2
  0
LINE
  5
EE
330
2
100
AcDbEntity
  8
AM_VIS
100
AcDbLine
 10
-153.1248994977327
 20
305.1185969941399
 30
0.0
 11
-73.12489949773277
 21
305.1185969941399
 31
0.0
  0
ARC
  5
EF
330
2
100
AcDbEntity
  8
AM_VIS
100
AcDbCircle
 10
-73.12489949773277
 20
300.1185969941399
 30
0.0
 40
5.0
100
AcDbArc
 50
0.0
 51
90.0
  0
LINE
  5
F0
330
2
100
AcDbEntity
  8
AM_VIS
100
AcDbLine
 10
-68.12489949773274
 20
300.1185969941399
 30
0.0
 11
-68.12489949773267
 21
170.1185969941399
 31
0.0
  0
ARC
  5
F1
330
2
100
AcDbEntity
  8
AM_VIS
100
AcDbCircle
 10
-73.12489949773271
 20
170.1185969941399
 30
0.0
 40
5.0
100
AcDbArc
 50
270.0
 51
0.0
  0
LINE
  5
F2
330
2
100
AcDbEntity
  8
AM_VIS
100
AcDbLine
 10
-73.12489949773265
 20
165.1185969941399
 30
0.0
 11
-153.1248994977326
 21
165.1185969941399
 31
0.0
  0
ARC
  5
F3
330
2
100
AcDbEntity
  8
AM_VIS
100
AcDbCircle
 10
-153.1248994977327
 20
170.1185969941399
 30
0.0
 40
5.0
100
AcDbArc
 50
180.0
 51
270.0
  0
LINE
  5
F4
330
2
100
AcDbEntity
  8
AM_VIS
100
AcDbLine
 10
-158.1248994977326
 20
170.1185969941399
 30
0.0
 11
-158.1248994977327
 21
300.1185969941399
 31
0.0
  0
ARC
  5
F5
330
2
100
AcDbEntity
  8
AM_VIS
100
AcDbCircle
 10
-153.1248994977327
 20
300.1185969941399
 30
0.0
 40
5.0
100
AcDbArc
 50
90.0
 51
180.0
  0
LINE
  5
F6
330
2
100
AcDbEntity
  8
AM_VIS
100
AcDbLine
 10
-150.2148994977327
 20
161.52398018859
 30
0.0
 11
-150.2148994977327
 21
160.1185969941398
 31
0.0
  0
LINE
  5
F7
330
2
100
AcDbEntity
  8
AM_VIS
100
AcDbLine
 10
-150.2148994977327
 20
161.52398018859
 30
0.0
 11
-150.2148994977327
 21
165.1185969941399
 31
0.0
  0
ELLIPSE
  5
F8
330
2
100
AcDbEntity
  8
AM_VIS
100
AcDbEllipse
 10
-135.8748994977327
 20
178.4963295800965
 30
0.0
 11
7.999999999999998
 21
-0.0000000000000018
 31
0.0
210
0.0
220
0.0
230
1.0
 40
0.4226182617406992
 41
2.906117838422318
 42
3.141592653589792
  0
ELLIPSE
  5
F9
330
2
100
AcDbEntity
  8
AM_VIS
100
AcDbEllipse
 10
-90.3748994977327
 20
178.4963295800965
 30
0.0
 11
7.999999999999999
 21
-0.0000000000000018
 31
0.0
210
0.0
220
0.0
230
1.0
 40
0.4226182617406992
 41
0.0
 42
0.2354748151674824
  0
LINE
  5
FA
330
2
100
AcDbEntity
  8
AM_VIS
100
AcDbLine
 10
-143.8748994977327
 20
161.52398018859
 30
0.0
 11
-143.8748994977327
 21
165.1185969941399
 31
0.0
  0
LINE
  5
FB
330
2
100
AcDbEntity
  8
AM_VIS
100
AcDbLine
 10
-143.8748994977327
 20
170.9861037999531
 30
0.0
 11
-143.8748994977327
 21
178.4963295800965
 31
0.0
  0
LINE
  5
FC
330
2
100
AcDbEntity
  8
AM_VIS
100
AcDbLine
 10
-143.8748994977327
 20
161.52398018859
 30
0.0
 11
-143.8748994977327
 21
160.1185969941398
 31
0.0
  0
LINE
  5
FD
330
2
100
AcDbEntity
  8
AM_VIS
100
AcDbLine
 10
-82.37489949773269
 20
160.1185969941398
 30
0.0
 11
-82.37489949773269
 21
161.52398018859
 31
0.0
  0
LINE
  5
FE
330
2
100
AcDbEntity
  8
AM_VIS
100
AcDbLine
 10
-82.37489949773268
 20
178.4963295800965
 30
0.0
 11
-82.37489949773268
 21
170.9861037999531
 31
0.0
  0
LINE
  5
FF
330
2
100
AcDbEntity
  8
AM_VIS
100
AcDbLine
 10
-82.37489949773268
 20
165.1185969941399
 30
0.0
 11
-82.37489949773268
 21
161.52398018859
 31
0.0
  0
LINE
  5
100
330
2
100
AcDbEntity
  8
AM_VIS
100
AcDbLine
 10
-76.0148994977327
 20
161.52398018859
 30
0.0
 11
-76.0148994977327
 21
160.1185969941398
 31
0.0
  0
LINE
  5
101
330
2
100
AcDbEntity
  8
AM_VIS
100
AcDbLine
 10
-76.0148994977327
 20
161.52398018859
 30
0.0
 11
-76.0148994977327
 21
165.1185969941399
 31
0.0
  0
LINE
  5
102
330
2
100
AcDbEntity
  8
AM_VIS
100
AcDbLine
 10
-150.2148994977327
 20
160.1185969941398
 30
0.0
 11
-143.8748994977327
 21
160.1185969941398
 31
0.0
  0
LINE
  5
103
330
2
100
AcDbEntity
  8
AM_VIS
100
AcDbLine
 10
-82.37489949773268
 20
160.1185969941398
 30
0.0
 11
-76.01489949773268
 21
160.1185969941398
 31
0.0
  0
LINE
  5
104
330
2
100
AcDbEntity
  8
AM_VIS
100
AcDbLine
 10
-119.1248994977327
 20
382.2053463125825
 30
0.0
 11
-119.1248994977327
 21
368.7421768177512
 31
0.0
  0
LINE
  5
105
330
2
100
AcDbEntity
  8
AM_VIS
100
AcDbLine
 10
-119.1248994977327
 20
346.6443689957397
 30
0.0
 11
-119.1248994977327
 21
368.7421768177513
 31
0.0
  0
LINE
  5
106
330
2
100
AcDbEntity
  8
AM_VIS
100
AcDbLine
 10
-125.1248994977327
 20
382.2053463125825
 30
0.0
 11
-119.1248994977327
 21
382.2053463125825
 31
0.0
  0
LINE
  5
107
330
2
100
AcDbEntity
  8
AM_VIS
100
AcDbLine
 10
-125.1248994977327
 20
321.8685969941398
 30
0.0
 11
-119.1248994977327
 21
321.8685969941398
 31
0.0
  0
LINE
  5
108
330
2
100
AcDbEntity
  8
AM_VIS
100
AcDbLine
 10
-107.1248994977326
 20
382.2053463125824
 30
0.0
 11
-107.1248994977326
 21
368.7421768177512
 31
0.0
  0
LINE
  5
109
330
2
100
AcDbEntity
  8
AM_VIS
100
AcDbLine
 10
-107.1248994977326
 20
346.6443689957397
 30
0.0
 11
-107.1248994977326
 21
368.7421768177512
 31
0.0
  0
LINE
  5
10A
330
2
100
AcDbEntity
  8
AM_VIS
100
AcDbLine
 10
-107.1248994977326
 20
382.2053463125824
 30
0.0
 11
-101.1248994977326
 21
382.2053463125824
 31
0.0
  0
LINE
  5
10B
330
2
100
AcDbEntity
  8
AM_VIS
100
AcDbLine
 10
-107.1248994977326
 20
321.8685969941398
 30
0.0
 11
-101.1248994977326
 21
321.8685969941398
 31
0.0
  0
LINE
  5
10C
330
2
100
AcDbEntity
  8
AM_VIS
100
AcDbLine
 10
-119.1248994977326
 20
311.4993835978946
 30
0.0
 11
-107.1248994977326
 21
311.4993835978946
 31
0.0
  0
LINE
  5
10D
330
2
100
AcDbEntity
  8
AM_VIS
100
AcDbLine
 10
-107.1248994977326
 20
311.4993835978946
 30
0.0
 11
-107.1248994977326
 21
336.9993835978945
 31
0.0
  0
LINE
  5
10E
330
2
100
AcDbEntity
  8
AM_VIS
100
AcDbLine
 10
-119.1248994977326
 20
336.9993835978945
 30
0.0
 11
-107.1248994977326
 21
336.9993835978945
 31
0.0
  0
LINE
  5
10F
330
2
100
AcDbEntity
  8
AM_VIS
100
AcDbLine
 10
-119.1248994977326
 20
336.9993835978945
 30
0.0
 11
-119.1248994977326
 21
311.4993835978946
 31
0.0
  0
LINE
  5
110
330
2
100
AcDbEntity
  8
AM_VIS
100
AcDbLine
 10
-107.1248994977326
 20
336.9993835978945
 30
0.0
 11
-107.1248994977326
 21
346.6443689957397
 31
0.0
  0
LINE
  5
111
330
2
100
AcDbEntity
  8
AM_VIS
100
AcDbLine
 10
-119.1248994977326
 20
346.6443689957397
 30
0.0
 11
-119.1248994977326
 21
336.9993835978945
 31
0.0
  0
LINE
  5
112
330
2
100
AcDbEntity
  8
AM_VIS
100
AcDbLine
 10
-119.1248994977326
 20
348.4993835978945
 30
0.0
 11
-107.1248994977326
 21
348.4993835978945
 31
0.0
  0
ELLIPSE
  5
113
330
2
100
AcDbEntity
  8
AM_VIS
100
AcDbEllipse
 10
-113.1248994977327
 20
383.1683656854211
 30
0.0
 11
12.0
 21
0.0
 31
0.0
210
0.0
220
0.0
230
1.0
 40
0.0274055756515198
 41
3.141592653589788
 42
4.322628247587211
  0
LINE
  5
114
330
2
100
AcDbEntity
  8
AM_VIS
100
AcDbLine
 10
-117.6845047438039
 20
382.0053463125825
 30
0.0
 11
-117.6845047438039
 21
382.8641637956893
 31
0.0
  0
LINE
  5
115
330
2
100
AcDbEntity
  8
AM_VIS
100
AcDbLine
 10
-108.5652942516614
 20
382.8641637956893
 30
0.0
 11
-108.5652942516614
 21
382.0053463125825
 31
0.0
  0
ELLIPSE
  5
116
330
2
100
AcDbEntity
  8
AM_VIS
100
AcDbEllipse
 10
-113.1248994977327
 20
383.1683656854211
 30
0.0
 11
12.0
 21
0.0
 31
0.0
210
0.0
220
0.0
230
1.0
 40
0.0274055756515198
 41
5.102149713182164
 42
6.283185307179586
  0
LINE
  5
117
330
2
100
AcDbEntity
  8
AM_VIS
100
AcDbLine
 10
-93.62489949773269
 20
382.845665285692
 30
0.0
 11
-101.1248994977326
 21
383.2016741564853
 31
0.0
  0
LINE
  5
118
330
2
100
AcDbEntity
  8
AM_VIS
100
AcDbLine
 10
-125.1248994977327
 20
382.8641637956893
 30
0.0
 11
-117.6845047438039
 21
382.8641637956893
 31
0.0
  0
LINE
  5
119
330
2
100
AcDbEntity
  8
AM_VIS
100
AcDbLine
 10
-108.5652942516615
 20
382.8641637956893
 30
0.0
 11
-101.1248994977327
 21
382.8641637956893
 31
0.0
  0
LINE
  5
11A
330
2
100
AcDbEntity
  8
AM_VIS
100
AcDbLine
 10
-125.1248994977327
 20
383.2016741564853
 30
0.0
 11
-132.6248994977327
 21
382.845665285692
 31
0.0
  0
LINE
  5
11B
330
2
100
AcDbEntity
  8
AM_VIS
100
AcDbLine
 10
-132.6248994977327
 20
382.845665285692
 30
0.0
 11
-132.6248994977327
 21
382.4832262941331
 31
0.0
  0
LINE
  5
11C
330
2
100
AcDbEntity
  8
AM_VIS
100
AcDbLine
 10
-125.1248994977327
 20
382.4832262941331
 30
0.0
 11
-125.1248994977327
 21
382.8641637956893
 31
0.0
  0
LINE
  5
11D
330
2
100
AcDbEntity
  8
AM_VIS
100
AcDbLine
 10
-101.1248994977326
 20
382.8641637956893
 30
0.0
 11
-101.1248994977326
 21
382.4832262941331
 31
0.0
  0
LINE
  5
11E
330
2
100
AcDbEntity
  8
AM_VIS
100
AcDbLine
 10
-93.62489949773271
 20
382.4832262941331
 30
0.0
 11
-93.62489949773271
 21
382.845665285692
 31
0.0
  0
LINE
  5
11F
330
2
100
AcDbEntity
  8
AM_VIS
100
AcDbLine
 10
-101.1248994977326
 20
369.1318366539186
 30
0.0
 11
-101.1248994977326
 21
382.4832262941331
 31
0.0
  0
LINE
  5
120
330
2
100
AcDbEntity
  8
AM_VIS
100
AcDbLine
 10
-101.1248994977326
 20
369.1318366539186
 30
0.0
 11
-101.1248994977326
 21
320.1185969941398
 31
0.0
  0
LINE
  5
121
330
2
100
AcDbEntity
  8
AM_VIS
100
AcDbLine
 10
-125.1248994977327
 20
382.4832262941331
 30
0.0
 11
-125.1248994977327
 21
369.1318366539186
 31
0.0
  0
LINE
  5
122
330
2
100
AcDbEntity
  8
AM_VIS
100
AcDbLine
 10
-125.1248994977327
 20
320.1185969941398
 30
0.0
 11
-125.1248994977327
 21
369.1318366539186
 31
0.0
  0
LINE
  5
123
330
2
100
AcDbEntity
  8
AM_VIS
100
AcDbLine
 10
-93.62489949773271
 20
382.4832262941331
 30
0.0
 11
-93.62489949773271
 21
369.1318366539186
 31
0.0
  0
LINE
  5
124
330
2
100
AcDbEntity
  8
AM_VIS
100
AcDbLine
 10
-93.62489949773271
 20
305.1185969941399
 30
0.0
 11
-93.62489949773271
 21
369.1318366539186
 31
0.0
  0
LINE
  5
125
330
2
100
AcDbEntity
  8
AM_VIS
100
AcDbLine
 10
-132.6248994977327
 20
369.1318366539186
 30
0.0
 11
-132.6248994977327
 21
382.4832262941331
 31
0.0
  0
LINE
  5
126
330
2
100
AcDbEntity
  8
AM_VIS
100
AcDbLine
 10
-132.6248994977327
 20
369.1318366539186
 30
0.0
 11
-132.6248994977327
 21
305.1185969941399
 31
0.0
  0
LINE
  5
127
330
2
100
AcDbEntity
  8
AM_VIS
100
AcDbLine
 10
-125.1248994977327
 20
383.1683656854211
 30
0.0
 11
-125.1248994977327
 21
388.1664876687845
 31
0.0
  0
LINE
  5
128
330
2
100
AcDbEntity
  8
AM_VIS
100
AcDbLine
 10
-101.1248994977326
 20
383.1683656854211
 30
0.0
 11
-101.1248994977326
 21
388.1664876687845
 31
0.0
  0
ARC
  5
129
330
2
100
AcDbEntity
  8
AM_VIS
100
AcDbCircle
 10
-113.1248994977327
 20
388.1664876687845
 30
0.0
 40
12.0
100
AcDbArc
 50
0.0
 51
180.0
  0
SPLINE
  5
12A
330
2
100
AcDbEntity
  8
AM_VIS
100
AcDbSpline
210
0.0
220
0.0
230
1.0
 70
    28
 71
     2
 72
     6
 73
     3
 74
     0
 42
0.0000000001
 43
0.0000000001
 40
0.0
 40
0.0
 40
0.0
 40
4.489346956745006
 40
4.489346956745006
 40
4.489346956745006
 10
-155.9439709160235
 20
163.1185913991306
 30
0.0
 41
1.0
 10
-156.5498799544315
 20
163.1185913991306
 30
0.0
 41
1.01528023573722
 10
-156.7148994977326
 20
163.1185913991306
 30
0.0
 41
1.0
  0
LINE
  5
12B
330
2
100
AcDbEntity
  8
AM_VIS
100
AcDbLine
 10
-155.9439709160235
 20
163.8601814605475
 30
0.0
 11
-155.9439709160235
 21
163.1185913991306
 31
0.0
  0
SPLINE
  5
12C
330
2
100
AcDbEntity
  8
AM_VIS
100
AcDbSpline
210
0.0
220
0.0
230
1.0
 70
    12
 71
     2
 72
     6
 73
     3
 74
     0
 42
0.0000000001
 43
0.0000000001
 40
1.453647156624158
 40
1.453647156624158
 40
1.453647156624158
 40
4.489200933507459
 40
4.489200933507459
 40
4.489200933507459
 10
-156.561715385102
 20
166.4870275598146
 30
0.0
 41
1.00669097162676
 10
-156.3556769995937
 20
165.2280162792426
 30
0.0
 41
1.010331639261992
 10
-155.9439709160235
 20
163.8601814605474
 30
0.0
 41
1.0
  0
LINE
  5
12D
330
2
100
AcDbEntity
  8
AM_VIS
100
AcDbLine
 10
-156.7148994977326
 20
166.6383814835716
 30
0.0
 11
-156.7148994977326
 21
163.1185913991306
 31
0.0
  0
LINE
  5
12E
330
2
100
AcDbEntity
  8
AM_VIS
100
AcDbLine
 10
-152.5439709160235
 20
163.1185913991306
 30
0.0
 11
-155.9439709160235
 21
163.1185913991306
 31
0.0
  0
LINE
  5
12F
330
2
100
AcDbEntity
  8
AM_VIS
100
AcDbLine
 10
-152.5439709160235
 20
163.8601814605475
 30
0.0
 11
-152.5439709160235
 21
163.1185913991306
 31
0.0
  0
LINE
  5
130
330
2
100
AcDbEntity
  8
AM_VIS
100
AcDbLine
 10
-155.9439709160235
 20
163.8601814605475
 30
0.0
 11
-152.5439709160235
 21
163.8601814605475
 31
0.0
  0
SPLINE
  5
131
330
2
100
AcDbEntity
  8
AM_VIS
100
AcDbSpline
210
0.0
220
0.0
230
1.0
 70
    28
 71
     2
 72
     6
 73
     3
 74
     0
 42
0.0000000001
 43
0.0000000001
 40
0.0
 40
0.0
 40
0.0
 40
5.590835352818166
 40
5.590835352818166
 40
5.590835352818166
 10
-151.7148994977326
 20
163.1185913991306
 30
0.0
 41
1.0
 10
-151.7840185252459
 20
163.1185913991306
 30
0.0
 41
1.02435951945957
 10
-152.5439709160235
 20
163.1185913991306
 30
0.0
 41
1.0
  0
SPLINE
  5
132
330
2
100
AcDbEntity
  8
AM_VIS
100
AcDbSpline
210
0.0
220
0.0
230
1.0
 70
    12
 71
     2
 72
     6
 73
     3
 74
     0
 42
0.0000000001
 43
0.0000000001
 40
0.0
 40
0.0
 40
0.0
 40
1.399151268342828
 40
1.399151268342828
 40
1.399151268342828
 10
-152.5439709160235
 20
163.8601814605475
 30
0.0
 41
1.0
 10
-152.3503338098692
 20
164.5035131638159
 30
0.0
 41
1.006095498726888
 10
-152.2030367888911
 20
165.1185969941399
 30
0.0
 41
1.009139803043076
  0
SPLINE
  5
133
330
2
100
AcDbEntity
  8
AM_VIS
100
AcDbSpline
210
0.0
220
0.0
230
1.0
 70
    12
 71
     2
 72
     6
 73
     3
 74
     0
 42
0.0000000001
 43
0.0000000001
 40
0.0
 40
0.0
 40
0.0
 40
3.062624707419715
 40
3.062624707419715
 40
3.062624707419715
 10
-70.28582807944181
 20
163.8601950176843
 30
0.0
 41
1.0
 10
-69.87048954962043
 20
165.2401031475138
 30
0.0
 41
1.010423925929892
 10
-69.66441391624539
 20
166.5095750296295
 30
0.0
 41
1.006625205902167
  0
LINE
  5
134
330
2
100
AcDbEntity
  8
AM_VIS
100
AcDbLine
 10
-70.28582807944182
 20
163.1186025891489
 30
0.0
 11
-70.28582807944182
 21
163.8601950176843
 31
0.0
  0
SPLINE
  5
135
330
2
100
AcDbEntity
  8
AM_VIS
100
AcDbSpline
210
0.0
220
0.0
230
1.0
 70
    28
 71
     2
 72
     6
 73
     3
 74
     0
 42
0.0000000001
 43
0.0000000001
 40
0.0
 40
0.0
 40
0.0
 40
4.489288544457886
 40
4.489288544457886
 40
4.489288544457886
 10
-69.51489949773268
 20
163.1186025891489
 30
0.0
 41
1.0
 10
-69.67992493698812
 20
163.1186025891489
 30
0.0
 41
1.015279817641361
 10
-70.28582807944182
 20
163.1186025891489
 30
0.0
 41
1.0
  0
LINE
  5
136
330
2
100
AcDbEntity
  8
AM_VIS
100
AcDbLine
 10
-69.5148994977327
 20
163.1186025891489
 30
0.0
 11
-69.5148994977327
 21
166.65913171754
 31
0.0
  0
LINE
  5
137
330
2
100
AcDbEntity
  8
AM_VIS
100
AcDbLine
 10
-73.68582807944182
 20
163.8601950176843
 30
0.0
 11
-70.28582807944181
 21
163.8601950176843
 31
0.0
  0
LINE
  5
138
330
2
100
AcDbEntity
  8
AM_VIS
100
AcDbLine
 10
-73.68582807944182
 20
163.1186025891489
 30
0.0
 11
-73.68582807944182
 21
163.8601950176843
 31
0.0
  0
LINE
  5
139
330
2
100
AcDbEntity
  8
AM_VIS
100
AcDbLine
 10
-70.28582807944182
 20
163.1186025891489
 30
0.0
 11
-73.68582807944182
 21
163.1186025891489
 31
0.0
  0
SPLINE
  5
13A
330
2
100
AcDbEntity
  8
AM_VIS
100
AcDbSpline
210
0.0
220
0.0
230
1.0
 70
    12
 71
     2
 72
     6
 73
     3
 74
     0
 42
0.0000000001
 43
0.0000000001
 40
4.191373442224329
 40
4.191373442224329
 40
4.191373442224329
 40
5.590505691017281
 40
5.590505691017281
 40
5.590505691017281
 10
-74.02675751708224
 20
165.1185969941399
 30
0.0
 41
1.009140239375089
 10
-73.87946233446898
 20
164.5035195915935
 30
0.0
 41
1.006095682113281
 10
-73.68582807944182
 20
163.8601950176843
 30
0.0
 41
1.0
  0
SPLINE
  5
13B
330
2
100
AcDbEntity
  8
AM_VIS
100
AcDbSpline
210
0.0
220
0.0
230
1.0
 70
    28
 71
     2
 72
     6
 73
     3
 74
     0
 42
0.0000000001
 43
0.0000000001
 40
0.0
 40
0.0
 40
0.0
 40
5.59061555148098
 40
5.59061555148098
 40
5.59061555148098
 10
-73.68582807944182
 20
163.1186025891489
 30
0.0
 41
1.0
 10
-74.44575281240378
 20
163.1186025891489
 30
0.0
 41
1.024357497129432
 10
-74.5148994977327
 20
163.1186025891489
 30
0.0
 41
1.0
  0
LINE
  5
13C
330
2
100
AcDbEntity
  8
AM_VIS
100
AcDbLine
 10
-151.7148994977326
 20
161.6185969941399
 30
0.0
 11
-151.7148994977326
 21
165.1185969941398
 31
0.0
  0
LINE
  5
13D
330
2
100
AcDbEntity
  8
AM_VIS
100
AcDbLine
 10
-150.2148994977327
 20
161.6185969941398
 30
0.0
 11
-151.7148994977326
 21
161.6185969941398
 31
0.0
  0
LINE
  5
13E
330
2
100
AcDbEntity
  8
AM_VIS
100
AcDbLine
 10
-74.5148994977327
 20
165.1185969941399
 30
0.0
 11
-74.5148994977327
 21
161.6185969941398
 31
0.0
  0
LINE
  5
13F
330
2
100
AcDbEntity
  8
AM_VIS
100
AcDbLine
 10
-76.0148994977327
 20
161.6185969941398
 30
0.0
 11
-74.5148994977327
 21
161.6185969941398
 31
0.0
  0
LINE
  5
140
330
2
100
AcDbEntity
  8
AM_VIS
100
AcDbLine
 10
-134.0248994977327
 20
362.3737949014659
 30
0.0
 11
-134.0248994977327
 21
370.1737949014658
 31
0.0
  0
LINE
  5
141
330
2
100
AcDbEntity
  8
AM_VIS
100
AcDbLine
 10
-132.6248994977327
 20
362.3737949014659
 30
0.0
 11
-134.0248994977327
 21
362.3737949014659
 31
0.0
  0
LINE
  5
142
330
2
100
AcDbEntity
  8
AM_VIS
100
AcDbLine
 10
-132.6248994977327
 20
370.1737949014658
 30
0.0
 11
-134.0248994977327
 21
370.1737949014658
 31
0.0
  0
ELLIPSE
  5
143
330
2
100
AcDbEntity
  8
AM_VIS
100
AcDbEllipse
 10
-89.8748994977331
 20
150.8545890964177
 30
0.0
 11
11.75
 21
-0.0000000000000038
 31
0.0
210
0.0
220
0.0
230
1.0
 40
0.1105579922575787
 41
0.0
 42
0.9326038239102022
  0
ELLIPSE
  5
144
330
2
100
AcDbEntity
  8
AM_VIS
100
AcDbEllipse
 10
-89.8748994977331
 20
115.8975522145394
 30
0.0
 11
11.75
 21
-0.0000000000000038
 31
0.0
210
0.0
220
0.0
230
1.0
 40
0.1105579922575787
 41
4.712388980384689
 42
6.283185307179586
  0
LINE
  5
145
330
2
100
AcDbEntity
  8
AM_VIS
100
AcDbLine
 10
-89.8748994977331
 20
114.5984958055129
 30
0.0
 11
-136.3748994977331
 21
114.5984958055129
 31
0.0
  0
ELLIPSE
  5
146
330
2
100
AcDbEntity
  8
AM_VIS
100
AcDbEllipse
 10
-136.3748994977331
 20
115.8975522145395
 30
0.0
 11
11.75
 21
-0.0000000000000038
 31
0.0
210
0.0
220
0.0
230
1.0
 40
0.1105579922575787
 41
3.141592653589794
 42
4.712388980384689
  0
ELLIPSE
  5
147
330
2
100
AcDbEntity
  8
AM_VIS
100
AcDbEllipse
 10
-89.8748994977331
 20
145.7136424564403
 30
0.0
 11
11.75
 21
-0.0000000000000038
 31
0.0
210
0.0
220
0.0
230
1.0
 40
0.1105579922575787
 41
4.712388980384689
 42
6.283185307179586
  0
LINE
  5
148
330
2
100
AcDbEntity
  8
AM_VIS
100
AcDbLine
 10
-78.12489949773311
 20
115.8975522145394
 30
0.0
 11
-78.12489949773311
 21
145.7136424564403
 31
0.0
  0
LINE
  5
149
330
2
100
AcDbEntity
  8
AM_VIS
100
AcDbLine
 10
-89.8748994977331
 20
144.4145860474137
 30
0.0
 11
-136.3748994977331
 21
144.4145860474138
 31
0.0
  0
ELLIPSE
  5
14A
330
2
100
AcDbEntity
  8
AM_VIS
100
AcDbEllipse
 10
-136.3748994977331
 20
145.7136424564403
 30
0.0
 11
11.75
 21
-0.0000000000000038
 31
0.0
210
0.0
220
0.0
230
1.0
 40
0.1105579922575787
 41
3.141592653589792
 42
4.712388980384689
  0
LINE
  5
14B
330
2
100
AcDbEntity
  8
AM_VIS
100
AcDbLine
 10
-148.1248994977331
 20
145.7136424564403
 30
0.0
 11
-148.1248994977331
 21
115.8975522145395
 31
0.0
  0
ELLIPSE
  5
14C
330
2
100
AcDbEntity
  8
AM_VIS
100
AcDbEllipse
 10
-136.3748994977331
 20
150.8545890964177
 30
0.0
 11
11.75
 21
-0.0000000000000038
 31
0.0
210
0.0
220
0.0
230
1.0
 40
0.1105579922575787
 41
2.20898882967959
 42
3.141592653589792
  0
LINE
  5
14D
330
2
100
AcDbEntity
  8
AM_VIS
100
AcDbLine
 10
-78.12489949773311
 20
150.8545890964177
 30
0.0
 11
-78.12489949773311
 21
145.7136424564403
 31
0.0
  0
LINE
  5
14E
330
2
100
AcDbEntity
  8
AM_VIS
100
AcDbLine
 10
-148.1248994977331
 20
145.7136424564403
 30
0.0
 11
-148.1248994977331
 21
150.8545890964177
 31
0.0
  0
ELLIPSE
  5
14F
330
2
100
AcDbEntity
  8
AM_VIS
100
AcDbEllipse
 10
-113.1248994977332
 20
-84.28138811039771
 30
0.0
 11
20.0
 21
-0.0000000000000065
 31
0.0
210
0.0
220
0.0
230
1.0
 40
0.1105579922575787
 41
4.712388980384689
 42
6.283185307179586
  0
ELLIPSE
  5
150
330
2
100
AcDbEntity
  8
AM_VIS
100
AcDbEllipse
 10
-113.1248994977332
 20
-84.28138811039771
 30
0.0
 11
20.0
 21
-0.0000000000000065
 31
0.0
210
0.0
220
0.0
230
1.0
 40
0.1105579922575787
 41
3.141592653589794
 42
4.712388980384689
  0
LINE
  5
151
330
2
100
AcDbEntity
  8
AM_VIS
100
AcDbLine
 10
-93.12489949773322
 20
-84.17543914049288
 30
0.0
 11
-93.12489949773322
 21
-84.28138811039771
 31
0.0
  0
LINE
  5
152
330
2
100
AcDbEntity
  8
AM_VIS
100
AcDbLine
 10
-133.1248994977332
 20
-84.17543914049288
 30
0.0
 11
-133.1248994977332
 21
-84.28138811039771
 31
0.0
  0
ELLIPSE
  5
153
330
2
100
AcDbEntity
  8
AM_VIS
100
AcDbEllipse
 10
-89.87489949773328
 20
-82.87638273146631
 30
0.0
 11
11.75
 21
-0.0000000000000038
 31
0.0
210
0.0
220
0.0
230
1.0
 40
0.1105579922575787
 41
4.712388980384689
 42
6.283185307179586
  0
LINE
  5
154
330
2
100
AcDbEntity
  8
AM_VIS
100
AcDbLine
 10
-89.87489949773328
 20
-84.17543914049288
 30
0.0
 11
-136.3748994977332
 21
-84.17543914049288
 31
0.0
  0
ELLIPSE
  5
155
330
2
100
AcDbEntity
  8
AM_VIS
100
AcDbEllipse
 10
-136.3748994977332
 20
-82.8763827314663
 30
0.0
 11
11.75
 21
-0.0000000000000038
 31
0.0
210
0.0
220
0.0
230
1.0
 40
0.1105579922575787
 41
3.141592653589794
 42
4.712388980384689
  0
LINE
  5
156
330
2
100
AcDbEntity
  8
AM_VIS
100
AcDbLine
 10
-78.12489949773328
 20
-82.87638273146631
 30
0.0
 11
-78.12489949773328
 21
-53.08793198762981
 31
0.0
  0
LINE
  5
157
330
2
100
AcDbEntity
  8
AM_VIS
100
AcDbLine
 10
-89.87489949773328
 20
-54.35934889859201
 30
0.0
 11
-136.3748994977332
 21
-54.35934889859201
 31
0.0
  0
LINE
  5
158
330
2
100
AcDbEntity
  8
AM_VIS
100
AcDbLine
 10
-148.1248994977332
 20
-53.08793198762981
 30
0.0
 11
-148.1248994977332
 21
-82.8763827314663
 31
0.0
  0
ELLIPSE
  5
159
330
2
100
AcDbEntity
  8
AM_VIS
100
AcDbEllipse
 10
-136.3748994977331
 20
173.0450585115161
 30
0.0
 11
4.25
 21
-0.0000000000000014
 31
0.0
210
0.0
220
0.0
230
1.0
 40
0.1105579922575786
 41
2.329525743287296
 42
2.718025214434461
  0
ELLIPSE
  5
15A
330
2
100
AcDbEntity
  8
AM_VIS
100
AcDbEllipse
 10
-136.3748994977331
 20
173.5419933488811
 30
0.0
 11
4.75
 21
-0.0000000000000015
 31
0.0
210
0.0
220
0.0
230
1.0
 40
0.1105579922575786
 41
2.177726657278511
 42
4.016306204746115
  0
LINE
  5
15B
330
2
100
AcDbEntity
  8
AM_VIS
100
AcDbLine
 10
-143.3748994977331
 20
172.7404479050137
 30
0.0
 11
-143.3748994977331
 21
174.3435387927485
 31
0.0
  0
LINE
  5
15C
330
2
100
AcDbEntity
  8
AM_VIS
100
AcDbLine
 10
-141.3748994977331
 20
172.5193319204985
 30
0.0
 11
-143.3748994977331
 21
172.7404479050137
 31
0.0
  0
LINE
  5
15D
330
2
100
AcDbEntity
  8
AM_VIS
100
AcDbLine
 10
-139.8258358310314
 20
172.5193319204985
 30
0.0
 11
-141.374899497733
 21
172.5193319204985
 31
0.0
  0
LINE
  5
15E
330
2
100
AcDbEntity
  8
AM_VIS
100
AcDbLine
 10
-131.3748994977331
 20
165.1185969941399
 30
0.0
 11
-131.3748994977331
 21
144.6909810280577
 31
0.0
  0
LINE
  5
15F
330
2
100
AcDbEntity
  8
AM_VIS
100
AcDbLine
 10
-131.3748994977331
 20
144.6909810280577
 30
0.0
 11
-129.3748994977331
 21
144.9120970125729
 31
0.0
  0
LINE
  5
160
330
2
100
AcDbEntity
  8
AM_VIS
100
AcDbLine
 10
-129.3748994977331
 20
144.9120970125729
 30
0.0
 11
-129.3748994977331
 21
165.1185969941399
 31
0.0
  0
LINE
  5
161
330
2
100
AcDbEntity
  8
AM_VIS
100
AcDbLine
 10
-141.3748994977331
 20
144.6909810280577
 30
0.0
 11
-141.3748994977331
 21
165.1185969941399
 31
0.0
  0
LINE
  5
162
330
2
100
AcDbEntity
  8
AM_VIS
100
AcDbLine
 10
-141.3748994977331
 20
171.3005477540172
 30
0.0
 11
-141.3748994977331
 21
172.5193319204985
 31
0.0
  0
LINE
  5
163
330
2
100
AcDbEntity
  8
AM_VIS
100
AcDbLine
 10
-131.3748994977331
 20
144.6909810280577
 30
0.0
 11
-141.3748994977331
 21
144.6909810280577
 31
0.0
  0
LINE
  5
164
330
2
100
AcDbEntity
  8
AM_VIS
100
AcDbLine
 10
-143.3748994977331
 20
172.7404479050137
 30
0.0
 11
-143.3748994977331
 21
170.9260440725896
 31
0.0
  0
LINE
  5
165
330
2
100
AcDbEntity
  8
AM_VIS
100
AcDbLine
 10
-143.3748994977331
 20
165.1185969941399
 30
0.0
 11
-143.3748994977331
 21
144.9120970125729
 31
0.0
  0
LINE
  5
166
330
2
100
AcDbEntity
  8
AM_VIS
100
AcDbLine
 10
-143.3748994977331
 20
144.9120970125729
 30
0.0
 11
-141.3748994977331
 21
144.6909810280577
 31
0.0
  0
LINE
  5
167
330
2
100
AcDbEntity
  8
AM_VIS
100
AcDbLine
 10
-143.3748994977331
 20
176.5523941267238
 30
0.0
 11
-143.3748994977331
 21
174.3435387927485
 31
0.0
  0
LINE
  5
168
330
2
100
AcDbEntity
  8
AM_VIS
100
AcDbLine
 10
-143.3748994977331
 20
176.5523941267238
 30
0.0
 11
-143.3748994977331
 21
179.3111499156902
 31
0.0
  0
ELLIPSE
  5
169
330
2
100
AcDbEntity
  8
AM_VIS
100
AcDbEllipse
 10
-89.8748994977331
 20
173.0450585115161
 30
0.0
 11
4.25
 21
-0.0000000000000004
 31
0.0
210
0.0
220
0.0
230
1.0
 40
0.1105579922575788
 41
0.4235674391553034
 42
0.8120669103022214
  0
ELLIPSE
  5
16A
330
2
100
AcDbEntity
  8
AM_VIS
100
AcDbEllipse
 10
-89.8748994977331
 20
173.5419933488811
 30
0.0
 11
4.75
 21
-0.0000000000000005
 31
0.0
210
0.0
220
0.0
230
1.0
 40
0.1105579922575788
 41
5.408471756023459
 42
7.247051303490653
  0
LINE
  5
16B
330
2
100
AcDbEntity
  8
AM_VIS
100
AcDbLine
 10
-84.8748994977331
 20
172.5193319204985
 30
0.0
 11
-86.42396316443392
 21
172.5193319204985
 31
0.0
  0
LINE
  5
16C
330
2
100
AcDbEntity
  8
AM_VIS
100
AcDbLine
 10
-82.87489949773311
 20
172.7404479050137
 30
0.0
 11
-84.8748994977331
 21
172.5193319204985
 31
0.0
  0
LINE
  5
16D
330
2
100
AcDbEntity
  8
AM_VIS
100
AcDbLine
 10
-82.87489949773311
 20
174.3435387927485
 30
0.0
 11
-82.87489949773311
 21
172.7404479050137
 31
0.0
  0
LINE
  5
16E
330
2
100
AcDbEntity
  8
AM_VIS
100
AcDbLine
 10
-82.87489949773311
 20
179.3111499156903
 30
0.0
 11
-82.87489949773311
 21
176.5523941267238
 31
0.0
  0
LINE
  5
16F
330
2
100
AcDbEntity
  8
AM_VIS
100
AcDbLine
 10
-82.87489949773311
 20
174.3435387927485
 30
0.0
 11
-82.87489949773311
 21
176.5523941267237
 31
0.0
  0
LINE
  5
170
330
2
100
AcDbEntity
  8
AM_VIS
100
AcDbLine
 10
-82.87489949773311
 20
144.9120970125729
 30
0.0
 11
-82.87489949773311
 21
165.1185969941399
 31
0.0
  0
LINE
  5
171
330
2
100
AcDbEntity
  8
AM_VIS
100
AcDbLine
 10
-82.87489949773311
 20
170.9260440725896
 30
0.0
 11
-82.87489949773311
 21
172.7404479050137
 31
0.0
  0
LINE
  5
172
330
2
100
AcDbEntity
  8
AM_VIS
100
AcDbLine
 10
-96.87489949773311
 20
165.1185969941399
 30
0.0
 11
-96.87489949773311
 21
144.9120970125729
 31
0.0
  0
LINE
  5
173
330
2
100
AcDbEntity
  8
AM_VIS
100
AcDbLine
 10
-96.87489949773311
 20
144.9120970125729
 30
0.0
 11
-94.8748994977331
 21
144.6909810280577
 31
0.0
  0
LINE
  5
174
330
2
100
AcDbEntity
  8
AM_VIS
100
AcDbLine
 10
-94.8748994977331
 20
144.6909810280577
 30
0.0
 11
-94.8748994977331
 21
165.1185969941399
 31
0.0
  0
LINE
  5
175
330
2
100
AcDbEntity
  8
AM_VIS
100
AcDbLine
 10
-84.8748994977331
 20
144.6909810280577
 30
0.0
 11
-94.8748994977331
 21
144.6909810280577
 31
0.0
  0
LINE
  5
176
330
2
100
AcDbEntity
  8
AM_VIS
100
AcDbLine
 10
-84.8748994977331
 20
172.5193319204985
 30
0.0
 11
-84.8748994977331
 21
171.3005477540176
 31
0.0
  0
LINE
  5
177
330
2
100
AcDbEntity
  8
AM_VIS
100
AcDbLine
 10
-84.8748994977331
 20
165.1185969941399
 30
0.0
 11
-84.8748994977331
 21
144.6909810280577
 31
0.0
  0
LINE
  5
178
330
2
100
AcDbEntity
  8
AM_VIS
100
AcDbLine
 10
-84.8748994977331
 20
144.6909810280577
 30
0.0
 11
-82.87489949773311
 21
144.9120970125729
 31
0.0
  0
LINE
  5
179
330
2
100
AcDbEntity
  8
AM_VIS
100
AcDbLine
 10
-148.124899497733
 20
115.8975522145395
 30
0.0
 11
-148.124899497733
 21
115.869912716475
 31
0.0
  0
ELLIPSE
  5
17A
330
2
100
AcDbEntity
  8
AM_VIS
100
AcDbEllipse
 10
-136.624899497733
 20
115.869912716475
 30
0.0
 11
11.5
 21
-0.0000000000000037
 31
0.0
210
0.0
220
0.0
230
1.0
 40
0.1105579922575787
 41
3.141592653589792
 42
4.712388980384689
  0
LINE
  5
17B
330
2
100
AcDbEntity
  8
AM_VIS
100
AcDbLine
 10
-136.624899497733
 20
114.5984958055129
 30
0.0
 11
-129.6248994977331
 21
114.5984958055129
 31
0.0
  0
LINE
  5
17C
330
2
100
AcDbEntity
  8
AM_VIS
100
AcDbLine
 10
-116.624899497733
 20
114.5984958055129
 30
0.0
 11
-109.624899497733
 21
114.5984958055129
 31
0.0
  0
LINE
  5
17D
330
2
100
AcDbEntity
  8
AM_VIS
100
AcDbLine
 10
-96.62489949773309
 20
114.5984958055129
 30
0.0
 11
-89.62489949773308
 21
114.5984958055129
 31
0.0
  0
ELLIPSE
  5
17E
330
2
100
AcDbEntity
  8
AM_VIS
100
AcDbEllipse
 10
-89.62489949773308
 20
115.869912716475
 30
0.0
 11
11.5
 21
-0.0000000000000037
 31
0.0
210
0.0
220
0.0
230
1.0
 40
0.1105579922575787
 41
4.712388980384689
 42
6.283185307179586
  0
LINE
  5
17F
330
2
100
AcDbEntity
  8
AM_VIS
100
AcDbLine
 10
-78.12489949773308
 20
115.869912716475
 30
0.0
 11
-78.12489949773308
 21
115.8975522145394
 31
0.0
  0
ELLIPSE
  5
180
330
2
100
AcDbEntity
  8
AM_VIS
100
AcDbEllipse
 10
-129.6248994977331
 20
-54.19351191020559
 30
0.0
 11
1.5
 21
-0.0000000000000005
 31
0.0
210
0.0
220
0.0
230
1.0
 40
0.1105579922575787
 41
4.712388980384689
 42
6.283185307179586
  0
LINE
  5
181
330
2
100
AcDbEntity
  8
AM_VIS
100
AcDbLine
 10
-128.1248994977331
 20
-54.19351191020561
 30
0.0
 11
-128.1248994977331
 21
114.5984958055129
 31
0.0
  0
ELLIPSE
  5
182
330
2
100
AcDbEntity
  8
AM_VIS
100
AcDbEllipse
 10
-126.6248994977331
 20
-53.97239592569047
 30
0.0
 11
1.5
 21
-0.0000000000000005
 31
0.0
210
0.0
220
0.0
230
1.0
 40
0.1105579922575787
 41
1.570796326794896
 42
3.141592653589792
  0
ELLIPSE
  5
183
330
2
100
AcDbEntity
  8
AM_VIS
100
AcDbEllipse
 10
-119.6248994977331
 20
-53.97239592569047
 30
0.0
 11
1.5
 21
-0.0000000000000005
 31
0.0
210
0.0
220
0.0
230
1.0
 40
0.1105579922575787
 41
0.0
 42
1.570796326794896
  0
LINE
  5
184
330
2
100
AcDbEntity
  8
AM_VIS
100
AcDbLine
 10
-126.6248994977331
 20
-53.80655893730409
 30
0.0
 11
-119.6248994977331
 21
-53.80655893730409
 31
0.0
  0
ELLIPSE
  5
185
330
2
100
AcDbEntity
  8
AM_VIS
100
AcDbEllipse
 10
-116.6248994977331
 20
-54.19351191020564
 30
0.0
 11
1.5
 21
-0.0000000000000005
 31
0.0
210
0.0
220
0.0
230
1.0
 40
0.1105579922575787
 41
3.141592653589794
 42
4.712388980384689
  0
LINE
  5
186
330
2
100
AcDbEntity
  8
AM_VIS
100
AcDbLine
 10
-118.124899497733
 20
114.5984958055129
 30
0.0
 11
-118.1248994977331
 21
-54.19351191020561
 31
0.0
  0
LINE
  5
187
330
2
100
AcDbEntity
  8
AM_VIS
100
AcDbLine
 10
-116.6248994977331
 20
-54.35934889859197
 30
0.0
 11
-109.6248994977331
 21
-54.35934889859197
 31
0.0
  0
ELLIPSE
  5
188
330
2
100
AcDbEntity
  8
AM_VIS
100
AcDbEllipse
 10
-106.6248994977331
 20
-53.97239592569047
 30
0.0
 11
1.5
 21
-0.0000000000000005
 31
0.0
210
0.0
220
0.0
230
1.0
 40
0.1105579922575787
 41
1.570796326794896
 42
3.141592653589792
  0
LINE
  5
189
330
2
100
AcDbEntity
  8
AM_VIS
100
AcDbLine
 10
-108.1248994977331
 20
-54.19351191020561
 30
0.0
 11
-108.124899497733
 21
114.5984958055129
 31
0.0
  0
ELLIPSE
  5
18A
330
2
100
AcDbEntity
  8
AM_VIS
100
AcDbEllipse
 10
-109.6248994977331
 20
-54.19351191020564
 30
0.0
 11
1.5
 21
-0.0000000000000005
 31
0.0
210
0.0
220
0.0
230
1.0
 40
0.1105579922575787
 41
4.712388980384689
 42
6.283185307179586
  0
ELLIPSE
  5
18B
330
2
100
AcDbEntity
  8
AM_VIS
100
AcDbEllipse
 10
-99.62489949773313
 20
-53.97239592569047
 30
0.0
 11
1.5
 21
-0.0000000000000005
 31
0.0
210
0.0
220
0.0
230
1.0
 40
0.1105579922575787
 41
0.0
 42
1.570796326794896
  0
LINE
  5
18C
330
2
100
AcDbEntity
  8
AM_VIS
100
AcDbLine
 10
-106.6248994977331
 20
-53.80655893730409
 30
0.0
 11
-99.62489949773313
 21
-53.80655893730409
 31
0.0
  0
ELLIPSE
  5
18D
330
2
100
AcDbEntity
  8
AM_VIS
100
AcDbEllipse
 10
-96.62489949773314
 20
-54.19351191020564
 30
0.0
 11
1.5
 21
-0.0000000000000005
 31
0.0
210
0.0
220
0.0
230
1.0
 40
0.1105579922575787
 41
3.141592653589794
 42
4.712388980384689
  0
LINE
  5
18E
330
2
100
AcDbEntity
  8
AM_VIS
100
AcDbLine
 10
-98.12489949773308
 20
114.5984958055129
 30
0.0
 11
-98.12489949773315
 21
-54.19351191020561
 31
0.0
  0
ELLIPSE
  5
18F
330
2
100
AcDbEntity
  8
AM_VIS
100
AcDbEllipse
 10
-136.6248994977331
 20
-53.08793198762981
 30
0.0
 11
11.5
 21
-0.0000000000000037
 31
0.0
210
0.0
220
0.0
230
1.0
 40
0.1105579922575787
 41
3.141592653589794
 42
4.712388980384689
  0
LINE
  5
190
330
2
100
AcDbEntity
  8
AM_VIS
100
AcDbLine
 10
-148.124899497733
 20
115.869912716475
 30
0.0
 11
-148.1248994977331
 21
-53.08793198762981
 31
0.0
  0
ELLIPSE
  5
191
330
2
100
AcDbEntity
  8
AM_VIS
100
AcDbEllipse
 10
-89.62489949773313
 20
-53.08793198762981
 30
0.0
 11
11.5
 21
-0.0000000000000037
 31
0.0
210
0.0
220
0.0
230
1.0
 40
0.1105579922575787
 41
4.712388980384689
 42
6.283185307179586
  0
LINE
  5
192
330
2
100
AcDbEntity
  8
AM_VIS
100
AcDbLine
 10
-78.12489949773314
 20
-53.08793198762984
 30
0.0
 11
-78.12489949773308
 21
115.869912716475
 31
0.0
  0
LINE
  5
193
330
2
100
AcDbEntity
  8
AM_VIS
100
AcDbLine
 10
-96.62489949773314
 20
-54.35934889859197
 30
0.0
 11
-89.62489949773313
 21
-54.35934889859197
 31
0.0
  0
LINE
  5
194
330
2
100
AcDbEntity
  8
AM_VIS
100
AcDbLine
 10
-136.6248994977331
 20
-54.35934889859197
 30
0.0
 11
-129.6248994977331
 21
-54.35934889859197
 31
0.0
  0
LINE
  5
195
330
2
100
AcDbEntity
  8
AM_VIS
100
AcDbLine
 10
-96.87489949773308
 20
154.9060727560019
 30
0.0
 11
-129.374899497733
 21
154.9060727560019
 31
0.0
  0
LINE
  5
196
330
2
100
AcDbEntity
  8
AM_VIS
100
AcDbLine
 10
-96.87489949773308
 20
144.9673760087017
 30
0.0
 11
-129.374899497733
 21
144.9673760087017
 31
0.0
  0
LINE
  5
197
330
2
100
AcDbEntity
  8
AM_VIS
100
AcDbLine
 10
-97.12489949773312
 20
158.7732979738408
 30
0.0
 11
-97.12489949773312
 21
156.5644426398656
 31
0.0
  0
LINE
  5
198
330
2
100
AcDbEntity
  8
AM_VIS
100
AcDbLine
 10
-129.1248994977331
 20
156.5644426398656
 30
0.0
 11
-129.1248994977331
 21
158.7732979738408
 31
0.0
  0
LINE
  5
199
330
2
100
AcDbEntity
  8
AM_VIS
100
AcDbLine
 10
-129.1248994977331
 20
158.7732979738408
 30
0.0
 11
-129.1248994977331
 21
165.1185969941399
 31
0.0
  0
LINE
  5
19A
330
2
100
AcDbEntity
  8
AM_VIS
100
AcDbLine
 10
-97.12489949773312
 20
165.1185969941399
 30
0.0
 11
-97.12489949773312
 21
158.7732979738408
 31
0.0
  0
LINE
  5
19B
330
2
100
AcDbEntity
  8
AM_VIS
100
AcDbLine
 10
-107.2248994977327
 20
374.263109137388
 30
0.0
 11
-107.1248994977326
 21
374.263109137388
 31
0.0
  0
LINE
  5
19C
330
2
100
AcDbEntity
  8
AM_VIS
100
AcDbLine
 10
-107.2248994977327
 20
364.713109137388
 30
0.0
 11
-107.1248994977326
 21
364.713109137388
 31
0.0
  0
LINE
  5
19D
330
2
100
AcDbEntity
  8
AM_VIS
100
AcDbLine
 10
-107.2248994977327
 20
382.0053463125825
 30
0.0
 11
-107.2248994977327
 21
357.0053463125824
 31
0.0
  0
LINE
  5
19E
330
2
100
AcDbEntity
  8
AM_VIS
100
AcDbLine
 10
-119.1248994977327
 20
382.0053463125825
 30
0.0
 11
-107.2248994977327
 21
382.0053463125825
 31
0.0
  0
LINE
  5
19F
330
2
100
AcDbEntity
  8
AM_VIS
100
AcDbLine
 10
-119.1248994977327
 20
357.0053463125824
 30
0.0
 11
-107.2248994977327
 21
357.0053463125824
 31
0.0
  0
LINE
  5
1A0
330
2
100
AcDbEntity
  8
AM_VIS
100
AcDbLine
 10
535.3826059019218
 20
305.2798548808986
 30
0.0
 11
535.3826059019218
 21
317.5457451674698
 31
0.0
  0
LINE
  5
1A1
330
2
100
AcDbEntity
  8
AM_VIS
100
AcDbLine
 10
535.3826059019218
 20
305.2798548808986
 30
0.0
 11
535.3826059019218
 21
291.8485565717732
 31
0.0
  0
LINE
  5
1A2
330
2
100
AcDbEntity
  8
AM_VIS
100
AcDbLine
 10
535.3826059019218
 20
291.8485565717732
 30
0.0
 11
535.3826059019218
 21
291.1413480666805
 31
0.0
  0
LINE
  5
1A3
330
2
100
AcDbEntity
  8
AM_VIS
100
AcDbLine
 10
535.3826059019218
 20
291.1413480666805
 30
0.0
 11
535.3826059019218
 21
213.3700027056049
 31
0.0
  0
LINE
  5
1A4
330
2
100
AcDbEntity
  8
AM_VIS
100
AcDbLine
 10
541.3826059019218
 20
213.3700027056049
 30
0.0
 11
535.3826059019218
 21
213.3700027056049
 31
0.0
  0
LINE
  5
1A5
330
2
100
AcDbEntity
  8
AM_VIS
100
AcDbLine
 10
535.3826059019218
 20
213.3700027056049
 30
0.0
 11
535.3826059019218
 21
211.7459090645577
 31
0.0
  0
LINE
  5
1A6
330
2
100
AcDbEntity
  8
AM_VIS
100
AcDbLine
 10
535.3826059019218
 20
181.8772756740221
 30
0.0
 11
535.3826059019218
 21
175.3219885587574
 31
0.0
  0
LINE
  5
1A7
330
2
100
AcDbEntity
  8
AM_VIS
100
AcDbLine
 10
535.3826059019218
 20
328.0355620856505
 30
0.0
 11
535.3826059019218
 21
317.5457451674698
 31
0.0
  0
LINE
  5
1A8
330
2
100
AcDbEntity
  8
AM_VIS
100
AcDbLine
 10
559.3826059019217
 20
305.2798548808986
 30
0.0
 11
559.3826059019217
 21
317.5457451674698
 31
0.0
  0
LINE
  5
1A9
330
2
100
AcDbEntity
  8
AM_VIS
100
AcDbLine
 10
559.3826059019217
 20
305.2798548808986
 30
0.0
 11
559.3826059019217
 21
291.8485565717732
 31
0.0
  0
LINE
  5
1AA
330
2
100
AcDbEntity
  8
AM_VIS
100
AcDbLine
 10
559.3826059019217
 20
291.8485565717732
 30
0.0
 11
559.3826059019217
 21
291.1413480666805
 31
0.0
  0
LINE
  5
1AB
330
2
100
AcDbEntity
  8
AM_VIS
100
AcDbLine
 10
559.3826059019217
 20
213.3700027056049
 30
0.0
 11
553.3826059019218
 21
213.3700027056049
 31
0.0
  0
LINE
  5
1AC
330
2
100
AcDbEntity
  8
AM_VIS
100
AcDbLine
 10
559.3826059019217
 20
291.1413480666805
 30
0.0
 11
559.3826059019217
 21
213.3700027056049
 31
0.0
  0
LINE
  5
1AD
330
2
100
AcDbEntity
  8
AM_VIS
100
AcDbLine
 10
559.3826059019217
 20
213.3700027056049
 30
0.0
 11
559.3826059019217
 21
211.7459090645577
 31
0.0
  0
LINE
  5
1AE
330
2
100
AcDbEntity
  8
AM_VIS
100
AcDbLine
 10
559.3826059019217
 20
181.8772756740221
 30
0.0
 11
559.3826059019217
 21
175.3219885587576
 31
0.0
  0
LINE
  5
1AF
330
2
100
AcDbEntity
  8
AM_VIS
100
AcDbLine
 10
559.3826059019217
 20
328.0355620856505
 30
0.0
 11
559.3826059019217
 21
317.5457451674698
 31
0.0
  0
CIRCLE
  5
1B0
330
2
100
AcDbEntity
  8
AM_VIS
100
AcDbCircle
 10
517.3826059019217
 20
275.1185969941399
 30
0.0
 40
4.2
  0
CIRCLE
  5
1B1
330
2
100
AcDbEntity
  8
AM_VIS
100
AcDbCircle
 10
577.3826059019218
 20
275.1185969941399
 30
0.0
 40
4.2
  0
LINE
  5
1B2
330
2
100
AcDbEntity
  8
AM_VIS
100
AcDbLine
 10
587.3826059019218
 20
305.1185969941399
 30
0.0
 11
566.8826059019218
 21
305.1185969941399
 31
0.0
  0
LINE
  5
1B3
330
2
100
AcDbEntity
  8
AM_VIS
100
AcDbLine
 10
527.8826059019218
 20
305.1185969941399
 30
0.0
 11
507.3826059019218
 21
305.1185969941399
 31
0.0
  0
ARC
  5
1B4
330
2
100
AcDbEntity
  8
AM_VIS
100
AcDbCircle
 10
507.3826059019218
 20
300.1185969941399
 30
0.0
 40
5.0
100
AcDbArc
 50
90.0
 51
180.0
  0
LINE
  5
1B5
330
2
100
AcDbEntity
  8
AM_VIS
100
AcDbLine
 10
502.3826059019218
 20
300.1185969941399
 30
0.0
 11
502.3826059019218
 21
170.1185969941399
 31
0.0
  0
ARC
  5
1B6
330
2
100
AcDbEntity
  8
AM_VIS
100
AcDbCircle
 10
507.3826059019218
 20
170.1185969941399
 30
0.0
 40
5.0
100
AcDbArc
 50
180.0
 51
223.7801480371935
  0
LINE
  5
1B7
330
2
100
AcDbEntity
  8
AM_VIS
100
AcDbLine
 10
516.6326059019218
 20
165.1185969941399
 30
0.0
 11
517.1326059019222
 21
165.1185969941399
 31
0.0
  0
LINE
  5
1B8
330
2
100
AcDbEntity
  8
AM_VIS
100
AcDbLine
 10
577.6326059019221
 20
165.1185969941399
 30
0.0
 11
578.1326059019217
 21
165.1185969941399
 31
0.0
  0
ARC
  5
1B9
330
2
100
AcDbEntity
  8
AM_VIS
100
AcDbCircle
 10
587.3826059019218
 20
170.1185969941399
 30
0.0
 40
5.0
100
AcDbArc
 50
315.8896026464921
 51
0.0
  0
LINE
  5
1BA
330
2
100
AcDbEntity
  8
AM_VIS
100
AcDbLine
 10
592.3826059019217
 20
170.1185969941399
 30
0.0
 11
592.3826059019217
 21
300.1185969941399
 31
0.0
  0
ARC
  5
1BB
330
2
100
AcDbEntity
  8
AM_VIS
100
AcDbCircle
 10
587.3826059019218
 20
300.1185969941399
 30
0.0
 40
5.0
100
AcDbArc
 50
0.0
 51
90.0
  0
ELLIPSE
  5
1BC
330
2
100
AcDbEntity
  8
AM_VIS
100
AcDbEllipse
 10
524.6126059019218
 20
205.685563191196
 30
0.0
 11
-14.34
 21
-0.0000000000000032
 31
0.0
210
0.0
220
0.0
230
1.0
 40
0.4226182617406992
 41
4.712388980384689
 42
6.283185307179586
  0
LINE
  5
1BD
330
2
100
AcDbEntity
  8
AM_VIS
100
AcDbLine
 10
570.1326059019217
 20
211.7459090645577
 30
0.0
 11
553.3826059019202
 21
211.7459090645577
 31
0.0
  0
LINE
  5
1BE
330
2
100
AcDbEntity
  8
AM_VIS
100
AcDbLine
 10
541.3826059019202
 20
211.7459090645577
 30
0.0
 11
524.6126059019218
 21
211.7459090645577
 31
0.0
  0
LINE
  5
1BF
330
2
100
AcDbEntity
  8
AM_VIS
100
AcDbLine
 10
510.2726059019217
 20
205.685563191196
 30
0.0
 11
510.2726059019217
 21
188.7132137996895
 31
0.0
  0
LINE
  5
1C0
330
2
100
AcDbEntity
  8
AM_VIS
100
AcDbLine
 10
516.6326059019218
 20
188.7132137996895
 30
0.0
 11
516.6326059019218
 21
205.685563191196
 31
0.0
  0
ELLIPSE
  5
1C1
330
2
100
AcDbEntity
  8
AM_VIS
100
AcDbEllipse
 10
524.6326059019217
 20
205.685563191196
 30
0.0
 11
-7.999999999999999
 21
-0.0000000000000018
 31
0.0
210
0.0
220
0.0
230
1.0
 40
0.4226182617406992
 41
4.712388980384689
 42
6.283185307179586
  0
LINE
  5
1C2
330
2
100
AcDbEntity
  8
AM_VIS
100
AcDbLine
 10
524.6326059019217
 20
209.0665092851216
 30
0.0
 11
541.3826059019202
 21
209.0665092851216
 31
0.0
  0
LINE
  5
1C3
330
2
100
AcDbEntity
  8
AM_VIS
100
AcDbLine
 10
553.3826059019202
 20
209.0665092851216
 30
0.0
 11
570.1326059019217
 21
209.0665092851216
 31
0.0
  0
ELLIPSE
  5
1C4
330
2
100
AcDbEntity
  8
AM_VIS
100
AcDbEllipse
 10
570.1326059019217
 20
205.685563191196
 30
0.0
 11
-7.999999999999998
 21
-0.0000000000000018
 31
0.0
210
0.0
220
0.0
230
1.0
 40
0.4226182617406992
 41
3.141592653589793
 42
4.712388980384689
  0
LINE
  5
1C5
330
2
100
AcDbEntity
  8
AM_VIS
100
AcDbLine
 10
578.1326059019217
 20
205.685563191196
 30
0.0
 11
578.1326059019217
 21
188.7132137996895
 31
0.0
  0
LINE
  5
1C6
330
2
100
AcDbEntity
  8
AM_VIS
100
AcDbLine
 10
584.4726059019218
 20
205.685563191196
 30
0.0
 11
584.4726059019218
 21
188.7132137996895
 31
0.0
  0
ELLIPSE
  5
1C7
330
2
100
AcDbEntity
  8
AM_VIS
100
AcDbEllipse
 10
570.1326059019217
 20
205.685563191196
 30
0.0
 11
-14.34
 21
-0.0000000000000032
 31
0.0
210
0.0
220
0.0
230
1.0
 40
0.4226182617406992
 41
3.141592653589793
 42
4.712388980384689
  0
LINE
  5
1C8
330
2
100
AcDbEntity
  8
AM_VIS
100
AcDbLine
 10
584.4726059019218
 20
160.1185969941398
 30
0.0
 11
584.4726059019218
 21
188.7132137996895
 31
0.0
  0
LINE
  5
1C9
330
2
100
AcDbEntity
  8
AM_VIS
100
AcDbLine
 10
563.3826059019222
 20
181.8772756740221
 30
0.0
 11
553.3826059019202
 21
181.8772756740221
 31
0.0
  0
LINE
  5
1CA
330
2
100
AcDbEntity
  8
AM_VIS
100
AcDbLine
 10
541.3826059019202
 20
181.8772756740221
 30
0.0
 11
531.3826059019223
 21
181.8772756740221
 31
0.0
  0
LINE
  5
1CB
330
2
100
AcDbEntity
  8
AM_VIS
100
AcDbLine
 10
578.1326059019217
 20
160.1185969941398
 30
0.0
 11
578.1326059019217
 21
188.7132137996895
 31
0.0
  0
LINE
  5
1CC
330
2
100
AcDbEntity
  8
AM_VIS
100
AcDbLine
 10
516.6326059019218
 20
188.7132137996895
 30
0.0
 11
516.6326059019218
 21
160.1185969941398
 31
0.0
  0
LINE
  5
1CD
330
2
100
AcDbEntity
  8
AM_VIS
100
AcDbLine
 10
510.2726059019217
 20
160.1185969941398
 30
0.0
 11
510.2726059019217
 21
188.7132137996895
 31
0.0
  0
LINE
  5
1CE
330
2
100
AcDbEntity
  8
AM_VIS
100
AcDbLine
 10
584.4726059019218
 20
160.1185969941398
 30
0.0
 11
578.1326059019217
 21
160.1185969941398
 31
0.0
  0
LINE
  5
1CF
330
2
100
AcDbEntity
  8
AM_VIS
100
AcDbLine
 10
516.6326059019218
 20
160.1185969941398
 30
0.0
 11
510.2726059019217
 21
160.1185969941398
 31
0.0
  0
LINE
  5
1D0
330
2
100
AcDbEntity
  8
AM_VIS
100
AcDbLine
 10
541.3826059019218
 20
321.3697438230548
 30
0.0
 11
541.3826059019218
 21
317.1533904114035
 31
0.0
  0
LINE
  5
1D1
330
2
100
AcDbEntity
  8
AM_VIS
100
AcDbLine
 10
553.3826059019218
 20
317.1533904114035
 30
0.0
 11
553.3826059019218
 21
321.3697438230548
 31
0.0
  0
LINE
  5
1D2
330
2
100
AcDbEntity
  8
AM_VIS
100
AcDbLine
 10
541.3826059019218
 20
309.2637485136258
 30
0.0
 11
541.3826059019218
 21
317.1533904114035
 31
0.0
  0
LINE
  5
1D3
330
2
100
AcDbEntity
  8
AM_VIS
100
AcDbLine
 10
553.3826059019218
 20
317.1533904114035
 30
0.0
 11
553.3826059019218
 21
309.2637485136258
 31
0.0
  0
ELLIPSE
  5
1D4
330
2
100
AcDbEntity
  8
AM_VIS
100
AcDbEllipse
 10
547.3826059019217
 20
382.1687412887484
 30
0.0
 11
-11.0
 21
0.0
 31
0.0
210
0.0
220
0.0
230
1.0
 40
0.0274055756515198
 41
3.665191429188093
 42
4.135457635148231
  0
LINE
  5
1D5
330
2
100
AcDbEntity
  8
AM_VIS
100
AcDbLine
 10
559.306801105207
 20
382.2056480504899
 30
0.0
 11
556.9088853435506
 21
382.3194719548318
 31
0.0
  0
ELLIPSE
  5
1D6
330
2
100
AcDbEntity
  8
AM_VIS
100
AcDbEllipse
 10
547.3826059019217
 20
382.1687412887484
 30
0.0
 11
-12.0
 21
0.0
 31
0.0
210
0.0
220
0.0
230
1.0
 40
0.0274055756515198
 41
3.254053566865739
 42
4.188790204786391
  0
LINE
  5
1D7
330
2
100
AcDbEntity
  8
AM_VIS
100
AcDbLine
 10
559.306801105207
 20
383.2052724471626
 30
0.0
 11
559.306801105207
 21
382.2056480504899
 31
0.0
  0
LINE
  5
1D8
330
2
100
AcDbEntity
  8
AM_VIS
100
AcDbLine
 10
535.4584106986366
 20
382.2056480504899
 30
0.0
 11
535.4584106986366
 21
383.2052724471626
 31
0.0
  0
ELLIPSE
  5
1D9
330
2
100
AcDbEntity
  8
AM_VIS
100
AcDbEllipse
 10
547.3826059019217
 20
382.1687412887484
 30
0.0
 11
-12.0
 21
0.0
 31
0.0
210
0.0
220
0.0
230
1.0
 40
0.0274055756515198
 41
5.235987755982987
 42
6.170724393903636
  0
LINE
  5
1DA
330
2
100
AcDbEntity
  8
AM_VIS
100
AcDbLine
 10
537.8563264602929
 20
382.3194719548319
 30
0.0
 11
535.4584106986366
 21
382.2056480504899
 31
0.0
  0
ELLIPSE
  5
1DB
330
2
100
AcDbEntity
  8
AM_VIS
100
AcDbEllipse
 10
547.3826059019217
 20
382.1687412887484
 30
0.0
 11
-11.0
 21
0.0
 31
0.0
210
0.0
220
0.0
230
1.0
 40
0.0274055756515198
 41
5.289320325621146
 42
5.759586531581287
  0
ELLIPSE
  5
1DC
330
2
100
AcDbEntity
  8
AM_VIS
100
AcDbEllipse
 10
547.3826059019217
 20
353.7277712303967
 30
0.0
 11
0.0
 21
30.1070667437941
 31
0.0
210
0.0
220
0.0
230
1.0
 40
0.3653627267514329
 41
0.6393857091360192
 42
0.6897750007854818
  0
SPLINE
  5
1DD
330
2
100
AcDbEntity
  8
AM_VIS
100
AcDbSpline
210
0.0
220
0.0
230
1.0
 70
     8
 71
     3
 72
    22
 73
    18
 74
     0
 42
0.0000000001
 43
0.0000000001
 40
0.0
 40
0.0
 40
0.0
 40
0.0
 40
0.5889833838276715
 40
0.5889833838276715
 40
0.8566651305649763
 40
0.8566651305649763
 40
0.9599717206921782
 40
0.9599717206921782
 40
1.024415718736179
 40
1.024415718736179
 40
1.079555679064598
 40
1.079555679064598
 40
1.142233614402218
 40
1.142233614402218
 40
1.244981188326453
 40
1.244981188326453
 40
1.590020213422303
 40
1.590020213422303
 40
1.590020213422303
 40
1.590020213422303
 10
541.3826059019218
 20
377.2581277524647
 30
0.0
 10
541.3826059019218
 20
377.4543818057011
 30
0.0
 10
541.3741651828774
 20
377.6812185185383
 30
0.0
 10
541.3299211407474
 20
377.959122129255
 30
0.0
 10
541.3079634492135
 20
378.0608426961451
 30
0.0
 10
541.2591938234654
 20
378.168138972056
 30
0.0
 10
541.2421174128512
 20
378.1977685097087
 30
0.0
 10
541.2077332600788
 20
378.2342696099436
 30
0.0
 10
541.1928797247453
 20
378.2455664406373
 30
0.0
 10
541.1619772616743
 20
378.2582434941946
 30
0.0
 10
541.147287900367
 20
378.2604601822533
 30
0.0
 10
541.1151312217121
 20
378.257957143684
 30
0.0
 10
541.0984639747697
 20
378.2523178956753
 30
0.0
 10
541.0567940614082
 20
378.2307086936465
 30
0.0
 10
541.0323979132629
 20
378.2099756258452
 30
0.0
 10
540.9389636156394
 20
378.1136850439005
 30
0.0
 10
540.8712898813008
 20
377.9942327556738
 30
0.0
 10
540.8188772070968
 20
377.8875620196604
 30
0.0
  0
LINE
  5
1DE
330
2
100
AcDbEntity
  8
AM_VIS
100
AcDbLine
 10
527.8826059019218
 20
382.845665285692
 30
0.0
 11
535.4584106986366
 21
383.2052724471625
 31
0.0
  0
LINE
  5
1DF
330
2
100
AcDbEntity
  8
AM_VIS
100
AcDbLine
 10
527.8826059019218
 20
346.1468997919404
 30
0.0
 11
527.8826059019218
 21
382.8456652856921
 31
0.0
  0
ELLIPSE
  5
1E0
330
2
100
AcDbEntity
  8
AM_VIS
100
AcDbEllipse
 10
529.4732005516595
 20
345.0354027591501
 30
0.0
 11
-0.0711550489571985
 21
-2.999719128920153
 31
0.0
210
0.0
220
0.0
230
1.0
 40
0.5769168852030643
 41
3.182685604418765
 42
4.346526715540651
  0
LINE
  5
1E1
330
2
100
AcDbEntity
  8
AM_VIS
100
AcDbLine
 10
532.3132537596363
 20
348.1690871672434
 30
0.0
 11
529.4732005516595
 21
348.034275949168
 31
0.0
  0
ELLIPSE
  5
1E2
330
2
100
AcDbEntity
  8
AM_VIS
100
AcDbEllipse
 10
532.3132537596363
 20
351.1679603572614
 30
0.0
 11
-0.0711550489571986
 21
-2.999719128920153
 31
0.0
210
0.0
220
0.0
230
1.0
 40
0.5769168852030643
 41
0.0410929508289808
 42
1.258460104095025
  0
LINE
  5
1E3
330
2
100
AcDbEntity
  8
AM_VIS
100
AcDbLine
 10
534.8826059019219
 20
354.6839850962598
 30
0.0
 11
533.9382488206748
 21
350.2071342150804
 31
0.0
  0
LINE
  5
1E4
330
2
100
AcDbEntity
  8
AM_VIS
100
AcDbLine
 10
559.306801105207
 20
383.2052724471626
 30
0.0
 11
566.8826059019218
 21
382.845665285692
 31
0.0
  0
SPLINE
  5
1E5
330
2
100
AcDbEntity
  8
AM_VIS
100
AcDbSpline
210
0.0
220
0.0
230
1.0
 70
     8
 71
     3
 72
    10
 73
     6
 74
     0
 42
0.0000000001
 43
0.0000000001
 40
-0.6229445324518242
 40
-0.6229445324518242
 40
-0.6229445324518242
 40
-0.6229445324518242
 40
-0.5577399396127286
 40
-0.5577399396127286
 40
0.0
 40
0.0
 40
0.0
 40
0.0
 10
554.3826059019218
 20
353.57817789135
 30
0.0
 10
554.363070838447
 20
353.5858538034137
 30
0.0
 10
554.3436521330383
 20
353.5932317986166
 30
0.0
 10
554.1593965255981
 20
353.660784100396
 30
0.0
 10
554.0162883271159
 20
353.6941926881185
 30
0.0
 10
553.8951565802871
 20
353.6980578323837
 30
0.0
  0
SPLINE
  5
1E6
330
2
100
AcDbEntity
  8
AM_VIS
100
AcDbSpline
210
0.0
220
0.0
230
1.0
 70
     8
 71
     3
 72
    10
 73
     6
 74
     0
 42
0.0000000001
 43
0.0000000001
 40
-2.004842538395205
 40
-2.004842538395205
 40
-2.004842538395205
 40
-2.004842538395205
 40
-1.353119575324413
 40
-1.353119575324413
 40
-1.276579576655876
 40
-1.276579576655876
 40
-1.276579576655876
 40
-1.276579576655876
 10
540.8700552235559
 20
353.6980578323837
 30
0.0
 10
540.7489823476838
 20
353.6941947214685
 30
0.0
 10
540.6059526975758
 20
353.6608163272765
 30
0.0
 10
540.4217164363323
 20
353.5932913901439
 30
0.0
 10
540.4022198175645
 20
353.5858848063151
 30
0.0
 10
540.382605901922
 20
353.5781778913502
 30
0.0
  0
SPLINE
  5
1E7
330
2
100
AcDbEntity
  8
AM_VIS
100
AcDbSpline
210
0.0
220
0.0
230
1.0
 70
     8
 71
     3
 72
    10
 73
     6
 74
     0
 42
0.0000000001
 43
0.0000000001
 40
0.0
 40
0.0
 40
0.0
 40
0.0
 40
0.8503465259514019
 40
0.8503465259514019
 40
1.518414406064152
 40
1.518414406064152
 40
1.518414406064152
 40
1.518414406064152
 10
553.3826059019218
 20
353.7361925993234
 30
0.0
 10
553.3826059019218
 20
353.7284245206411
 30
0.0
 10
553.4388351600057
 20
353.72071115484
 30
0.0
 10
553.6333849318768
 20
353.7079060035686
 30
0.0
 10
553.7505285523289
 20
353.7026727100473
 30
0.0
 10
553.8951565802872
 20
353.6980578323832
 30
0.0
  0
LINE
  5
1E8
330
2
100
AcDbEntity
  8
AM_VIS
100
AcDbLine
 10
553.3826059019218
 20
353.7361925993234
 30
0.0
 11
553.3826059019218
 21
354.9126968878957
 31
0.0
  0
LINE
  5
1E9
330
2
100
AcDbEntity
  8
AM_VIS
100
AcDbLine
 10
541.3826059019218
 20
354.9126968878957
 30
0.0
 11
541.3826059019218
 21
353.7361925993234
 31
0.0
  0
SPLINE
  5
1EA
330
2
100
AcDbEntity
  8
AM_VIS
100
AcDbSpline
210
0.0
220
0.0
230
1.0
 70
     8
 71
     3
 72
    12
 73
     8
 74
     0
 42
0.0000000001
 43
0.0000000001
 40
1.699269594825773
 40
1.699269594825773
 40
1.699269594825773
 40
1.699269594825773
 40
2.34514707514909
 40
2.34514707514909
 40
2.793680702385363
 40
2.793680702385363
 40
3.21331340697909
 40
3.21331340697909
 40
3.21331340697909
 40
3.21331340697909
 10
540.8700552235561
 20
353.6980578323833
 30
0.0
 10
541.0101812742936
 20
353.7025290582642
 30
0.0
 10
541.1245077572783
 20
353.7075807981921
 30
0.0
 10
541.2682516346284
 20
353.716788890249
 30
0.0
 10
541.3125909520773
 20
353.7207246917359
 30
0.0
 10
541.3688640993989
 20
353.7285187359855
 30
0.0
 10
541.3826059019218
 20
353.7323523443214
 30
0.0
 10
541.3826059019218
 20
353.7361925993234
 30
0.0
  0
SPLINE
  5
1EB
330
2
100
AcDbEntity
  8
AM_VIS
100
AcDbSpline
210
0.0
220
0.0
230
1.0
 70
     8
 71
     3
 72
    22
 73
    18
 74
     0
 42
0.0000000001
 43
0.0000000001
 40
0.0
 40
0.0
 40
0.0
 40
0.0
 40
0.3843935934070707
 40
0.3843935934070707
 40
0.4970579287457809
 40
0.4970579287457809
 40
0.5675626134961947
 40
0.5675626134961947
 40
0.6278511022461167
 40
0.6278511022461167
 40
0.695792847699252
 40
0.695792847699252
 40
0.806695456903251
 40
0.806695456903251
 40
1.060347680092821
 40
1.060347680092821
 40
1.784613865305957
 40
1.784613865305957
 40
1.784613865305957
 40
1.784613865305957
 10
553.9463345967467
 20
377.8875620196604
 30
0.0
 10
553.8922641465013
 20
377.9976066760695
 30
0.0
 10
553.821097580494
 20
378.1229934494007
 30
0.0
 10
553.7234306499141
 20
378.2181590242519
 30
0.0
 10
553.6981312461437
 20
378.2379949466601
 30
0.0
 10
553.654566693383
 20
378.2565823840437
 30
0.0
 10
553.6371110705949
 20
378.2604933865536
 30
0.0
 10
553.6042510122339
 20
378.2584907723339
 30
0.0
 10
553.5898446532634
 20
378.2539750910062
 30
0.0
 10
553.560784426509
 20
378.2372101856043
 30
0.0
 10
553.5471661450334
 20
378.2245331801339
 30
0.0
 10
553.5155930523403
 20
378.1859208645014
 30
0.0
 10
553.4997257567281
 20
378.1559080710054
 30
0.0
 10
553.4579663297201
 20
378.0573198525518
 30
0.0
 10
553.4385777563982
 20
377.9725332534428
 30
0.0
 10
553.3883863606121
 20
377.6813001425951
 30
0.0
 10
553.3826059019218
 20
377.4228815888917
 30
0.0
 10
553.3826059019218
 20
377.258127752465
 30
0.0
  0
LINE
  5
1EC
330
2
100
AcDbEntity
  8
AM_VIS
100
AcDbLine
 10
560.8269629831686
 20
350.2071342150804
 30
0.0
 11
559.8826059019219
 21
354.6839850962584
 31
0.0
  0
ELLIPSE
  5
1ED
330
2
100
AcDbEntity
  8
AM_VIS
100
AcDbEllipse
 10
547.3826059019217
 20
353.7277712303967
 30
0.0
 11
0.0
 21
30.1070667437941
 31
0.0
210
0.0
220
0.0
230
1.0
 40
0.3653627267514329
 41
5.593410306394068
 42
5.643799598043566
  0
LINE
  5
1EE
330
2
100
AcDbEntity
  8
AM_VIS
100
AcDbLine
 10
541.3826059019218
 20
354.9126968878956
 30
0.0
 11
541.3826059019218
 21
378.9081896479677
 31
0.0
  0
LINE
  5
1EF
330
2
100
AcDbEntity
  8
AM_VIS
100
AcDbLine
 10
541.3826059019218
 20
380.6095296691202
 30
0.0
 11
541.3826059019218
 21
378.9081896479677
 31
0.0
  0
LINE
  5
1F0
330
2
100
AcDbEntity
  8
AM_VIS
100
AcDbLine
 10
541.3826059019218
 20
385.9708057815611
 30
0.0
 11
541.3826059019218
 21
380.6095296691201
 31
0.0
  0
LINE
  5
1F1
330
2
100
AcDbEntity
  8
AM_VIS
100
AcDbLine
 10
553.3826059019218
 20
378.9081896479677
 30
0.0
 11
553.3826059019218
 21
380.6095296691202
 31
0.0
  0
LINE
  5
1F2
330
2
100
AcDbEntity
  8
AM_VIS
100
AcDbLine
 10
553.3826059019218
 20
380.6095296691201
 30
0.0
 11
553.3826059019218
 21
385.9708057815611
 31
0.0
  0
LINE
  5
1F3
330
2
100
AcDbEntity
  8
AM_VIS
100
AcDbLine
 10
553.3826059019218
 20
378.9081896479677
 30
0.0
 11
553.3826059019218
 21
354.9126968878956
 31
0.0
  0
LINE
  5
1F4
330
2
100
AcDbEntity
  8
AM_VIS
100
AcDbLine
 10
541.3826059019218
 20
385.9708057815613
 30
0.0
 11
553.3826059019218
 21
385.9708057815613
 31
0.0
  0
ELLIPSE
  5
1F5
330
2
100
AcDbEntity
  8
AM_VIS
100
AcDbEllipse
 10
562.4519580442073
 20
351.1679603572614
 30
0.0
 11
-0.0711550489571986
 21
2.999719128920154
 31
0.0
210
0.0
220
0.0
230
1.0
 40
0.5769168852030637
 41
1.883132549494768
 42
3.100499702760812
  0
LINE
  5
1F6
330
2
100
AcDbEntity
  8
AM_VIS
100
AcDbLine
 10
565.2920112521838
 20
348.034275949168
 30
0.0
 11
562.4519580442072
 21
348.1690871672434
 31
0.0
  0
ELLIPSE
  5
1F7
330
2
100
AcDbEntity
  8
AM_VIS
100
AcDbEllipse
 10
565.2920112521839
 20
345.0354027591501
 30
0.0
 11
-0.0711550489571982
 21
2.999719128920153
 31
0.0
210
0.0
220
0.0
230
0.9999999999999998
 40
0.576916885203064
 41
5.078251245228727
 42
6.242092356350614
  0
LINE
  5
1F8
330
2
100
AcDbEntity
  8
AM_VIS
100
AcDbLine
 10
566.8826059019218
 20
382.845665285692
 30
0.0
 11
566.8826059019218
 21
370.1737949014658
 31
0.0
  0
LINE
  5
1F9
330
2
100
AcDbEntity
  8
AM_VIS
100
AcDbLine
 10
566.8826059019218
 20
362.3737949014659
 30
0.0
 11
566.8826059019218
 21
346.1468997919404
 31
0.0
  0
LINE
  5
1FA
330
2
100
AcDbEntity
  8
AM_VIS
100
AcDbLine
 10
527.8826059019218
 20
274.6285969941398
 30
0.0
 11
527.8826059019218
 21
287.974595421853
 31
0.0
  0
LINE
  5
1FB
330
2
100
AcDbEntity
  8
AM_VIS
100
AcDbLine
 10
566.8826059019218
 20
287.9745954218531
 30
0.0
 11
566.8826059019218
 21
274.6285969941398
 31
0.0
  0
LINE
  5
1FC
330
2
100
AcDbEntity
  8
AM_VIS
100
AcDbLine
 10
527.8826059019218
 20
344.9531860321954
 30
0.0
 11
527.8826059019218
 21
287.974595421853
 31
0.0
  0
LINE
  5
1FD
330
2
100
AcDbEntity
  8
AM_VIS
100
AcDbLine
 10
566.8826059019218
 20
344.9531860321954
 30
0.0
 11
566.8826059019218
 21
346.1468997919403
 31
0.0
  0
LINE
  5
1FE
330
2
100
AcDbEntity
  8
AM_VIS
100
AcDbLine
 10
566.8826059019218
 20
287.9745954218531
 30
0.0
 11
566.8826059019218
 21
344.9531860321955
 31
0.0
  0
LINE
  5
1FF
330
2
100
AcDbEntity
  8
AM_VIS
100
AcDbLine
 10
527.8826059019218
 20
346.1468997919404
 30
0.0
 11
527.8826059019218
 21
344.9531860321955
 31
0.0
  0
LINE
  5
200
330
2
100
AcDbEntity
  8
AM_VIS
100
AcDbLine
 10
535.3826059019218
 20
383.2016741564853
 30
0.0
 11
535.3826059019218
 21
388.1664876687845
 31
0.0
  0
LINE
  5
201
330
2
100
AcDbEntity
  8
AM_VIS
100
AcDbLine
 10
559.3826059019217
 20
383.2016741564853
 30
0.0
 11
559.3826059019217
 21
388.1664876687845
 31
0.0
  0
ARC
  5
202
330
2
100
AcDbEntity
  8
AM_VIS
100
AcDbCircle
 10
547.3826059019217
 20
388.1664876687845
 30
0.0
 40
12.0
100
AcDbArc
 50
0.0
 51
180.0
  0
LINE
  5
203
330
2
100
AcDbEntity
  8
AM_VIS
100
AcDbLine
 10
541.3826059019218
 20
378.9081896479677
 30
0.0
 11
553.3826059019218
 21
378.9081896479677
 31
0.0
  0
LINE
  5
204
330
2
100
AcDbEntity
  8
AM_VIS
100
AcDbLine
 10
535.3826059019218
 20
274.6285969941398
 30
0.0
 11
527.8826059019218
 21
274.6285969941398
 31
0.0
  0
LINE
  5
205
330
2
100
AcDbEntity
  8
AM_VIS
100
AcDbLine
 10
566.8826059019218
 20
274.6285969941398
 30
0.0
 11
559.3826059019217
 21
274.6285969941398
 31
0.0
  0
ELLIPSE
  5
206
330
2
100
AcDbEntity
  8
AM_VIS
100
AcDbEllipse
 10
547.3826059019201
 20
303.3005304652456
 30
0.0
 11
-6.0
 21
-0.0000000000000007
 31
0.0
210
0.0
220
0.0
230
1.0
 40
0.1105579922575787
 41
4.126703436927531
 42
5.298074523841845
  0
LINE
  5
207
330
2
100
AcDbEntity
  8
AM_VIS
100
AcDbLine
 10
550.6992306922755
 20
309.8165384749137
 30
0.0
 11
550.6992306922755
 21
303.8533204265335
 31
0.0
  0
LINE
  5
208
330
2
100
AcDbEntity
  8
AM_VIS
100
AcDbLine
 10
549.673893749398
 20
309.8165384749137
 30
0.0
 11
550.6992306922755
 21
309.8165384749137
 31
0.0
  0
SPLINE
  5
209
330
2
100
AcDbEntity
  8
AM_VIS
100
AcDbSpline
210
0.0
220
0.0
230
1.0
 70
     8
 71
     3
 72
    10
 73
     6
 74
     0
 42
0.0000000001
 43
0.0000000001
 40
0.0
 40
0.0
 40
0.0
 40
0.0
 40
1.110902832752599
 40
1.110902832752599
 40
2.221805665505198
 40
2.221805665505198
 40
2.221805665505198
 40
2.221805665505198
 10
547.3826059019201
 20
310.3134733122786
 30
0.0
 10
547.7356739990256
 20
310.2025078271008
 30
0.0
 10
548.1236235655534
 20
310.0793921761331
 30
0.0
 10
548.9075395155968
 20
309.8862332224777
 30
0.0
 10
549.3035928051472
 20
309.8165384749137
 30
0.0
 10
549.673893749398
 20
309.8165384749137
 30
0.0
  0
SPLINE
  5
20A
330
2
100
AcDbEntity
  8
AM_VIS
100
AcDbSpline
210
0.0
220
0.0
230
1.0
 70
     8
 71
     3
 72
    10
 73
     6
 74
     0
 42
0.0000000001
 43
0.0000000001
 40
4.564540839656428
 40
4.564540839656428
 40
4.564540839656428
 40
4.564540839656428
 40
5.675443672409028
 40
5.675443672409028
 40
6.786346505161628
 40
6.786346505161628
 40
6.786346505161628
 40
6.786346505161628
 10
545.0913180544423
 20
309.8165384749137
 30
0.0
 10
545.4616189986932
 20
309.8165384749137
 30
0.0
 10
545.8576722882435
 20
309.8862332224777
 30
0.0
 10
546.641588238287
 20
310.0793921761331
 30
0.0
 10
547.0295378048147
 20
310.2025078271008
 30
0.0
 10
547.3826059019201
 20
310.3134733122786
 30
0.0
  0
LINE
  5
20B
330
2
100
AcDbEntity
  8
AM_VIS
100
AcDbLine
 10
544.0659811115647
 20
309.8165384749137
 30
0.0
 11
545.0913180544422
 21
309.8165384749137
 31
0.0
  0
LINE
  5
20C
330
2
100
AcDbEntity
  8
AM_VIS
100
AcDbLine
 10
544.0659811115647
 20
303.8533204265335
 30
0.0
 11
544.0659811115647
 21
309.8165384749137
 31
0.0
  0
ELLIPSE
  5
20D
330
2
100
AcDbEntity
  8
AM_VIS
100
AcDbEllipse
 10
547.3826059019201
 20
309.2637485136258
 30
0.0
 11
-6.0
 21
-0.0000000000000007
 31
0.0
210
0.0
220
0.0
230
1.0
 40
0.1105579922575786
 41
3.141592653589794
 42
4.12670343692753
  0
ELLIPSE
  5
20E
330
2
100
AcDbEntity
  8
AM_VIS
100
AcDbEllipse
 10
547.3826059019201
 20
309.2637485136258
 30
0.0
 11
-6.0
 21
-0.0000000000000007
 31
0.0
210
0.0
220
0.0
230
1.0
 40
0.1105579922575786
 41
5.298074523841845
 42
6.283185307179586
  0
LINE
  5
20F
330
2
100
AcDbEntity
  8
AM_VIS
100
AcDbLine
 10
541.3826059019202
 20
175.7787931803857
 30
0.0
 11
541.3826059019202
 21
309.2637485136258
 31
0.0
  0
LINE
  5
210
330
2
100
AcDbEntity
  8
AM_VIS
100
AcDbLine
 10
553.3826059019202
 20
175.7787931803859
 30
0.0
 11
553.3826059019202
 21
309.2637485136258
 31
0.0
  0
SPLINE
  5
211
330
2
100
AcDbEntity
  8
AM_VIS
100
AcDbSpline
210
0.0
220
0.0
230
1.0
 70
     8
 71
     1
 72
     7
 73
     5
 74
     0
 42
0.0000000001
 43
0.0000000001
 40
3.141592653589793
 40
3.141592653589793
 40
3.151720170574092
 40
3.161847687558391
 40
3.17197520454269
 40
3.177850578348486
 40
3.177850578348486
 10
552.3826059019202
 20
309.7606833509908
 30
0.0
 10
552.384408684836
 20
309.7212290626862
 30
0.0
 10
552.3896656253155
 20
309.6828830662178
 30
0.0
 10
552.3979520085426
 20
309.6466237582106
 30
0.0
 10
552.4041569592242
 20
309.627235339435
 30
0.0
  0
SPLINE
  5
212
330
2
100
AcDbEntity
  8
AM_VIS
100
AcDbSpline
210
0.0
220
0.0
230
1.0
 70
     8
 71
     1
 72
     7
 73
     5
 74
     0
 42
0.0000000001
 43
0.0000000001
 40
6.246927382420877
 40
6.246927382420877
 40
6.250935763951747
 40
6.26168561169436
 40
6.272435459436973
 40
6.283185307179586
 40
6.283185307179586
 10
542.3610080525159
 20
309.6273515471868
 30
0.0
 10
542.3654486485072
 20
309.6402312952287
 30
0.0
 10
542.3746800230953
 20
309.6782967659041
 30
0.0
 10
542.3805765877309
 20
309.7188298941807
 30
0.0
 10
542.3826059019202
 20
309.7606833509908
 30
0.0
  0
LINE
  5
213
330
2
100
AcDbEntity
  8
AM_VIS
100
AcDbLine
 10
552.3826059019202
 20
322.2951636922278
 30
0.0
 11
552.3826059019202
 21
309.7606833509908
 31
0.0
  0
LINE
  5
214
330
2
100
AcDbEntity
  8
AM_VIS
100
AcDbLine
 10
542.3826059019203
 20
322.2951636922263
 30
0.0
 11
542.3826059019203
 21
309.7606833509908
 31
0.0
  0
SPLINE
  5
215
330
2
100
AcDbEntity
  8
AM_VIS
100
AcDbSpline
210
0.0
220
0.0
230
1.0
 70
    12
 71
     2
 72
     6
 73
     3
 74
     0
 42
0.0000000001
 43
0.0000000001
 40
6.12747856521644
 40
6.12747856521644
 40
6.12747856521644
 40
11.80001881405684
 40
11.80001881405684
 40
11.80001881405684
 10
558.352263573826
 20
322.5754337886796
 30
0.0
 41
1.24726503856845
 10
557.1290133349363
 20
322.0154314972194
 30
0.0
 41
1.32653786317912
 10
556.0647995375135
 20
321.7576014109909
 30
0.0
 41
1.340673637528317
  0
LINE
  5
216
330
2
100
AcDbEntity
  8
AM_VIS
100
AcDbLine
 10
558.352263573826
 20
322.5754337886796
 30
0.0
 11
558.352263573826
 21
328.7497625046628
 31
0.0
  0
SPLINE
  5
217
330
2
100
AcDbEntity
  8
AM_VIS
100
AcDbSpline
210
0.0
220
0.0
230
1.0
 70
    12
 71
     2
 72
     6
 73
     3
 74
     0
 42
0.0000000001
 43
0.0000000001
 40
6.127481352770829
 40
6.127481352770829
 40
6.127481352770829
 40
19.93462170228486
 40
19.93462170228486
 40
19.93462170228486
 10
552.8674360165246
 20
323.6257343746136
 30
0.0
 41
1.24726511647967
 10
555.6098496353439
 20
322.3702614145876
 30
0.0
 41
1.440217572580999
 10
558.352263573826
 20
322.5754337886796
 30
0.0
 41
1.247265038568449
  0
SPLINE
  5
218
330
2
100
AcDbEntity
  8
AM_VIS
100
AcDbSpline
210
0.0
220
0.0
230
1.0
 70
    12
 71
     2
 72
     6
 73
     3
 74
     0
 42
0.0000000001
 43
0.0000000001
 40
6.127478565216442
 40
6.127478565216442
 40
6.127478565216442
 40
19.9346189147304
 40
19.9346189147304
 40
19.9346189147304
 10
558.352263573826
 20
328.7497625046627
 30
0.0
 41
1.24726503856845
 10
555.6098496353439
 20
330.0052358664147
 30
0.0
 41
1.440217572580998
 10
552.8674360165246
 20
329.8000637716228
 30
0.0
 41
1.247265116479671
  0
LINE
  5
219
330
2
100
AcDbEntity
  8
AM_VIS
100
AcDbLine
 10
552.8674360165246
 20
323.6257343746135
 30
0.0
 11
552.8674360165246
 21
329.8000637716228
 31
0.0
  0
SPLINE
  5
21A
330
2
100
AcDbEntity
  8
AM_VIS
100
AcDbSpline
210
0.0
220
0.0
230
1.0
 70
    12
 71
     2
 72
     6
 73
     3
 74
     0
 42
0.0000000001
 43
0.0000000001
 40
13.04984894672373
 40
13.04984894672373
 40
13.04984894672373
 40
19.48188764778955
 40
19.48188764778955
 40
19.48188764778955
 10
547.3826059019216
 20
323.2343552115631
 30
0.0
 41
1.0
 10
549.9281242578574
 20
323.2343552115631
 30
0.0
 41
1.078466188711203
 10
552.8674360165246
 20
323.6257343746135
 30
0.0
 41
1.079583196665444
  0
SPLINE
  5
21B
330
2
100
AcDbEntity
  8
AM_VIS
100
AcDbSpline
210
0.0
220
0.0
230
1.0
 70
    12
 71
     2
 72
     6
 73
     3
 74
     0
 42
0.0000000001
 43
0.0000000001
 40
6.617810245657917
 40
6.617810245657917
 40
6.617810245657917
 40
13.04984894672373
 40
13.04984894672373
 40
13.04984894672373
 10
552.8674360165246
 20
329.8000637716228
 30
0.0
 41
1.079583196665445
 10
549.9281242578574
 20
330.1914429346733
 30
0.0
 41
1.078466188711203
 10
547.3826059019216
 20
330.1914429346733
 30
0.0
 41
1.0
  0
SPLINE
  5
21C
330
2
100
AcDbEntity
  8
AM_VIS
100
AcDbSpline
210
0.0
220
0.0
230
1.0
 70
    12
 71
     2
 72
     6
 73
     3
 74
     0
 42
0.0000000001
 43
0.0000000001
 40
13.04984894672373
 40
13.04984894672373
 40
13.04984894672373
 40
19.48188204589988
 40
19.48188204589988
 40
19.48188204589988
 10
547.3826059019216
 20
330.1914429346733
 30
0.0
 41
1.0
 10
544.8370896016663
 20
330.1914429346733
 30
0.0
 41
1.078466120372243
 10
541.8977809019216
 20
329.800064452649
 30
0.0
 41
1.079583194719717
  0
LINE
  5
21D
330
2
100
AcDbEntity
  8
AM_VIS
100
AcDbLine
 10
541.8977809019216
 20
323.6257336935874
 30
0.0
 11
541.8977809019216
 21
329.800064452649
 31
0.0
  0
SPLINE
  5
21E
330
2
100
AcDbEntity
  8
AM_VIS
100
AcDbSpline
210
0.0
220
0.0
230
1.0
 70
    12
 71
     2
 72
     6
 73
     3
 74
     0
 42
0.0000000001
 43
0.0000000001
 40
6.617815847547618
 40
6.617815847547618
 40
6.617815847547618
 40
13.04984894672373
 40
13.04984894672373
 40
13.04984894672373
 10
541.8977809019216
 20
323.6257336935874
 30
0.0
 41
1.079583194719703
 10
544.8370896016663
 20
323.2343552115631
 30
0.0
 41
1.078466120372228
 10
547.3826059019216
 20
323.2343552115631
 30
0.0
 41
1.0
  0
SPLINE
  5
21F
330
2
100
AcDbEntity
  8
AM_VIS
100
AcDbSpline
210
0.0
220
0.0
230
1.0
 70
    12
 71
     2
 72
     6
 73
     3
 74
     0
 42
0.0000000001
 43
0.0000000001
 40
0.0
 40
0.0
 40
0.0
 40
6.424690970355181
 40
6.424690970355181
 40
6.424690970355181
 10
539.1586099029437
 20
322.7098257148985
 30
0.0
 41
1.0
 10
540.4298636671176
 20
322.9537230483027
 30
0.0
 41
1.078316916438947
 10
541.8977809019216
 20
323.6257336935874
 30
0.0
 41
1.07948173344588
  0
SPLINE
  5
220
330
2
100
AcDbEntity
  8
AM_VIS
100
AcDbSpline
210
0.0
220
0.0
230
1.0
 70
    12
 71
     2
 72
     6
 73
     3
 74
     0
 42
0.0000000001
 43
0.0000000001
 40
6.618686710241831
 40
6.618686710241831
 40
6.618686710241831
 40
13.043377680597
 40
13.043377680597
 40
13.043377680597
 10
541.8977809019216
 20
329.800064452649
 30
0.0
 41
1.079481733445879
 10
540.4298636671176
 20
329.909886108196
 30
0.0
 41
1.078316916438945
 10
539.1586099029437
 20
329.6669134380087
 30
0.0
 41
1.0
  0
LINE
  5
221
330
2
100
AcDbEntity
  8
AM_VIS
100
AcDbLine
 10
539.1586099029511
 20
329.6669134380101
 30
0.0
 11
539.1521230649399
 21
329.6656712600379
 31
0.0
  0
SPLINE
  5
222
330
2
100
AcDbEntity
  8
AM_VIS
100
AcDbSpline
210
0.0
220
0.0
230
1.0
 70
    12
 71
     2
 72
     6
 73
     3
 74
     0
 42
0.0000000001
 43
0.0000000001
 40
0.0
 40
0.0
 40
0.0
 40
6.424688169171937
 40
6.424688169171937
 40
6.424688169171937
 10
539.1521230649474
 20
329.6656712600394
 30
0.0
 41
1.0
 10
537.8808698147877
 20
329.4217740252518
 30
0.0
 41
1.078316882292519
 10
536.4129533446202
 20
328.7497638667152
 30
0.0
 41
1.079481732430106
  0
LINE
  5
223
330
2
100
AcDbEntity
  8
AM_VIS
100
AcDbLine
 10
536.4129533446202
 20
322.5754324266272
 30
0.0
 11
536.4129533446202
 21
328.7497638667152
 31
0.0
  0
SPLINE
  5
224
330
2
100
AcDbEntity
  8
AM_VIS
100
AcDbSpline
210
0.0
220
0.0
230
1.0
 70
    12
 71
     2
 72
     6
 73
     3
 74
     0
 42
0.0000000001
 43
0.0000000001
 40
6.618689511425067
 40
6.618689511425067
 40
6.618689511425067
 40
13.043377680597
 40
13.043377680597
 40
13.043377680597
 10
536.4129533446202
 20
322.5754324266272
 30
0.0
 41
1.079481732430125
 10
537.8808698147877
 20
322.4656109649846
 30
0.0
 41
1.078316882292539
 10
539.1521230649474
 20
322.7085835369292
 30
0.0
 41
1.0
  0
LINE
  5
225
330
2
100
AcDbEntity
  8
AM_VIS
100
AcDbLine
 10
539.1521230649399
 20
322.7085835369277
 30
0.0
 11
539.1586099029511
 21
322.7098257149
 31
0.0
  0
SPLINE
  5
226
330
2
100
AcDbEntity
  8
AM_VIS
100
AcDbSpline
210
0.0
220
0.0
230
1.0
 70
    12
 71
     2
 72
     6
 73
     3
 74
     0
 42
0.0000000001
 43
0.0000000001
 40
1.069879781312263
 40
1.069879781312263
 40
1.069879781312263
 40
6.424688169162345
 40
6.424688169162345
 40
6.424688169162345
 10
538.7004163144025
 20
321.7576004302529
 30
0.0
 41
1.02394414232998
 10
537.6362030131693
 20
322.015430396268
 30
0.0
 41
1.078510860517871
 10
536.4129533446202
 20
322.5754324266272
 30
0.0
 41
1.079481732430007
  0
LINE
  5
227
330
2
100
AcDbEntity
  8
AM_VIS
100
AcDbLine
 10
539.1586099029539
 20
321.6582828553317
 30
0.0
 11
539.1521230649372
 21
321.659525033305
 31
0.0
  0
ELLIPSE
  5
228
330
2
100
AcDbEntity
  8
AM_VIS
100
AcDbEllipse
 10
547.3826059019216
 20
322.1840542851161
 30
0.0
 11
-9.5
 21
-0.0000000000000031
 31
0.0
210
0.0
220
0.0
230
1.0
 40
0.1105579922575784
 41
0.5242816007057503
 42
1.016534492342394
  0
ELLIPSE
  5
229
330
2
100
AcDbEntity
  8
AM_VIS
100
AcDbEllipse
 10
547.3826059019216
 20
322.1840542851161
 30
0.0
 11
-9.5
 21
-0.0000000000000031
 31
0.0
210
0.0
220
0.0
230
1.0
 40
0.1105579922575784
 41
5.760269356688167
 42
6.806101257670427
  0
ELLIPSE
  5
22A
330
2
100
AcDbEntity
  8
AM_VIS
100
AcDbEllipse
 10
547.3826059019216
 20
322.1840542851161
 30
0.0
 11
-9.5
 21
-0.0000000000000031
 31
0.0
210
0.0
220
0.0
230
1.0
 40
0.1105579922575784
 41
4.712388980384687
 42
5.758903706474411
  0
ELLIPSE
  5
22B
330
2
100
AcDbEntity
  8
AM_VIS
100
AcDbEllipse
 10
547.3826059019216
 20
322.1840542851161
 30
0.0
 11
-9.5
 21
-0.0000000000000031
 31
0.0
210
0.0
220
0.0
230
1.0
 40
0.1105579922575784
 41
2.125058161247049
 42
4.712388980384687
  0
ELLIPSE
  5
22C
330
2
100
AcDbEntity
  8
AM_VIS
100
AcDbEllipse
 10
547.3826059019216
 20
322.1840542851161
 30
0.0
 11
-5.099999999999999
 21
-0.0000000000000017
 31
0.0
210
0.0
220
0.0
230
1.0
 40
0.1105579922575784
 41
2.943238131429568
 42
3.141592653589792
  0
ELLIPSE
  5
22D
330
2
100
AcDbEntity
  8
AM_VIS
100
AcDbEllipse
 10
547.3826059019216
 20
322.1840542851161
 30
0.0
 11
-5.099999999999999
 21
-0.0000000000000017
 31
0.0
210
0.0
220
0.0
230
1.0
 40
0.1105579922575784
 41
3.141592653589794
 42
6.481539829336986
  0
ELLIPSE
  5
22E
330
2
100
AcDbEntity
  8
AM_VIS
100
AcDbEllipse
 10
547.3826059019216
 20
329.1411420082263
 30
0.0
 11
-9.5
 21
-0.0000000000000031
 31
0.0
210
0.0
220
0.0
230
1.0
 40
0.1105579922575784
 41
5.760269356688167
 42
5.855074258546037
  0
ELLIPSE
  5
22F
330
2
100
AcDbEntity
  8
AM_VIS
100
AcDbEllipse
 10
547.3826059019216
 20
329.1411420082263
 30
0.0
 11
-9.5
 21
-0.0000000000000031
 31
0.0
210
0.0
220
0.0
230
1.0
 40
0.1105579922575784
 41
3.569703702223347
 42
4.712388980384687
  0
ELLIPSE
  5
230
330
2
100
AcDbEntity
  8
AM_VIS
100
AcDbEllipse
 10
547.3826059019216
 20
329.1411420082263
 30
0.0
 11
-9.5
 21
-0.0000000000000031
 31
0.0
210
0.0
220
0.0
230
1.0
 40
0.1105579922575784
 41
4.712388980384687
 42
5.758903706474411
  0
LINE
  5
231
330
2
100
AcDbEntity
  8
AM_VIS
100
AcDbLine
 10
538.7399659278156
 20
321.7480186335675
 30
0.0
 11
538.7004163144025
 21
321.7576004302528
 31
0.0
  0
LINE
  5
232
330
2
100
AcDbEntity
  8
AM_VIS
100
AcDbLine
 10
538.7399659278156
 20
329.5771776597748
 30
0.0
 11
538.7004163144024
 21
329.5675958630895
 31
0.0
  0
LINE
  5
233
330
2
100
AcDbEntity
  8
AM_VIS
100
AcDbLine
 10
556.0252458760276
 20
329.5771776597748
 30
0.0
 11
556.0647995375136
 21
329.5675948823515
 31
0.0
  0
LINE
  5
234
330
2
100
AcDbEntity
  8
AM_VIS
100
AcDbLine
 10
556.0252458760276
 20
321.7480186335675
 30
0.0
 11
556.0647995375136
 21
321.7576014109909
 31
0.0
  0
LINE
  5
235
330
2
100
AcDbEntity
  8
AM_VIS
100
AcDbLine
 10
540.3826059019219
 20
376.9585966431134
 30
0.0
 11
540.3826059019219
 21
379.6085316905308
 31
0.0
  0
LINE
  5
236
330
2
100
AcDbEntity
  8
AM_VIS
100
AcDbLine
 10
540.3826059019219
 20
353.1057244495927
 30
0.0
 11
540.3826059019219
 21
376.9585966431134
 31
0.0
  0
LINE
  5
237
330
2
100
AcDbEntity
  8
AM_VIS
100
AcDbLine
 10
540.3826059019219
 20
379.6085316905308
 30
0.0
 11
534.8826059019219
 21
379.6085316905308
 31
0.0
  0
LINE
  5
238
330
2
100
AcDbEntity
  8
AM_VIS
100
AcDbLine
 10
534.8826059019219
 20
379.6085316905307
 30
0.0
 11
534.8826059019219
 21
376.9585966431134
 31
0.0
  0
LINE
  5
239
330
2
100
AcDbEntity
  8
AM_VIS
100
AcDbLine
 10
534.8826059019219
 20
376.9585966431134
 30
0.0
 11
540.3826059019219
 21
376.9585966431134
 31
0.0
  0
LINE
  5
23A
330
2
100
AcDbEntity
  8
AM_VIS
100
AcDbLine
 10
559.8826059019219
 20
376.9585966431134
 30
0.0
 11
559.8826059019219
 21
379.6085316905308
 31
0.0
  0
LINE
  5
23B
330
2
100
AcDbEntity
  8
AM_VIS
100
AcDbLine
 10
559.8826059019219
 20
379.6085316905308
 30
0.0
 11
554.3826059019218
 21
379.6085316905308
 31
0.0
  0
LINE
  5
23C
330
2
100
AcDbEntity
  8
AM_VIS
100
AcDbLine
 10
554.3826059019218
 20
379.6085316905308
 30
0.0
 11
554.3826059019218
 21
376.9585966431134
 31
0.0
  0
LINE
  5
23D
330
2
100
AcDbEntity
  8
AM_VIS
100
AcDbLine
 10
554.3826059019218
 20
376.9585966431134
 30
0.0
 11
559.8826059019219
 21
376.9585966431134
 31
0.0
  0
LINE
  5
23E
330
2
100
AcDbEntity
  8
AM_VIS
100
AcDbLine
 10
554.3826059019218
 20
376.9585966431134
 30
0.0
 11
554.3826059019218
 21
353.1057244495927
 31
0.0
  0
LINE
  5
23F
330
2
100
AcDbEntity
  8
AM_VIS
100
AcDbLine
 10
554.3826059019218
 20
353.1057244495927
 30
0.0
 11
540.3826059019219
 21
353.1057244495927
 31
0.0
  0
LINE
  5
240
330
2
100
AcDbEntity
  8
AM_VIS
100
AcDbLine
 10
534.8826059019219
 20
330.2467219308021
 30
0.0
 11
534.8826059019219
 21
376.9585966431134
 31
0.0
  0
LINE
  5
241
330
2
100
AcDbEntity
  8
AM_VIS
100
AcDbLine
 10
559.8826059019219
 20
330.2467219308021
 30
0.0
 11
534.8826059019219
 21
330.2467219308021
 31
0.0
  0
LINE
  5
242
330
2
100
AcDbEntity
  8
AM_VIS
100
AcDbLine
 10
559.8826059019219
 20
330.2467219308021
 30
0.0
 11
559.8826059019219
 21
376.9585966431134
 31
0.0
  0
LINE
  5
243
330
2
100
AcDbEntity
  8
AM_VIS
100
AcDbLine
 10
534.8826059019219
 20
330.2467219308021
 30
0.0
 11
534.8826059019219
 21
328.0355620856505
 31
0.0
  0
LINE
  5
244
330
2
100
AcDbEntity
  8
AM_VIS
100
AcDbLine
 10
534.8826059019219
 20
328.0355620856505
 30
0.0
 11
536.4129533446202
 21
328.0355620856505
 31
0.0
  0
LINE
  5
245
330
2
100
AcDbEntity
  8
AM_VIS
100
AcDbLine
 10
558.352263573826
 20
328.0355620856505
 30
0.0
 11
559.8826059019219
 21
328.0355620856505
 31
0.0
  0
LINE
  5
246
330
2
100
AcDbEntity
  8
AM_VIS
100
AcDbLine
 10
559.8826059019219
 20
328.0355620856505
 30
0.0
 11
559.8826059019219
 21
330.2467219308021
 31
0.0
  0
SPLINE
  5
247
330
2
100
AcDbEntity
  8
AM_VIS
100
AcDbSpline
210
0.0
220
0.0
230
1.0
 70
    28
 71
     2
 72
     6
 73
     3
 74
     0
 42
0.0000000001
 43
0.0000000001
 40
0.0
 40
0.0
 40
0.0
 40
4.489288544457886
 40
4.489288544457886
 40
4.489288544457886
 10
590.2016773202126
 20
187.1185913991306
 30
0.0
 41
1.0
 10
590.8075804626663
 20
187.1185913991306
 30
0.0
 41
1.015279817641361
 10
590.9726059019218
 20
187.1185913991306
 30
0.0
 41
1.0
  0
LINE
  5
248
330
2
100
AcDbEntity
  8
AM_VIS
100
AcDbLine
 10
590.2016773202126
 20
186.3769854133706
 30
0.0
 11
590.2016773202126
 21
187.1185913991306
 31
0.0
  0
SPLINE
  5
249
330
2
100
AcDbEntity
  8
AM_VIS
100
AcDbSpline
210
0.0
220
0.0
230
1.0
 70
    12
 71
     2
 72
     6
 73
     3
 74
     0
 42
0.0000000001
 43
0.0000000001
 40
0.0
 40
0.0
 40
0.0
 40
4.489317750108253
 40
4.489317750108253
 40
4.489317750108253
 10
590.9726059019218
 20
182.5507535133619
 30
0.0
 41
1.0
 10
590.8075834105842
 20
184.3639340703588
 30
0.0
 41
1.015280026684792
 10
590.2016773202126
 20
186.3769854133706
 30
0.0
 41
1.0
  0
LINE
  5
24A
330
2
100
AcDbEntity
  8
AM_VIS
100
AcDbLine
 10
590.9726059019218
 20
182.5507535133621
 30
0.0
 11
590.9726059019218
 21
187.1185913991307
 31
0.0
  0
SPLINE
  5
24B
330
2
100
AcDbEntity
  8
AM_VIS
100
AcDbSpline
210
0.0
220
0.0
230
1.0
 70
    12
 71
     2
 72
     6
 73
     3
 74
     0
 42
0.0000000001
 43
0.0000000001
 40
0.0
 40
0.0
 40
0.0
 40
4.489317750108252
 40
4.489317750108252
 40
4.489317750108252
 10
590.2016773202126
 20
175.860208574909
 30
0.0
 41
1.0
 10
590.8075834105842
 20
177.8732599179208
 30
0.0
 41
1.015280026685218
 10
590.9726059019218
 20
179.6864404749177
 30
0.0
 41
1.0
  0
LINE
  5
24C
330
2
100
AcDbEntity
  8
AM_VIS
100
AcDbLine
 10
590.2016773202126
 20
174.3770101606056
 30
0.0
 11
590.2016773202126
 21
175.8602085749091
 31
0.0
  0
SPLINE
  5
24D
330
2
100
AcDbEntity
  8
AM_VIS
100
AcDbSpline
210
0.0
220
0.0
230
1.0
 70
    12
 71
     2
 72
     6
 73
     3
 74
     0
 42
0.0000000001
 43
0.0000000001
 40
0.0
 40
0.0
 40
0.0
 40
4.489259339835413
 40
4.489259339835413
 40
4.489259339835413
 10
590.9726059019218
 20
170.5508294271998
 30
0.0
 41
1.0
 10
590.8075775148712
 20
172.3639857372897
 30
0.0
 41
1.015279608607052
 10
590.2016773202126
 20
174.3770101606057
 30
0.0
 41
1.0
  0
LINE
  5
24E
330
2
100
AcDbEntity
  8
AM_VIS
100
AcDbLine
 10
590.9726059019218
 20
170.5508294271999
 30
0.0
 11
590.9726059019218
 21
179.6864404749175
 31
0.0
  0
SPLINE
  5
24F
330
2
100
AcDbEntity
  8
AM_VIS
100
AcDbSpline
210
0.0
220
0.0
230
1.0
 70
    12
 71
     2
 72
     6
 73
     3
 74
     0
 42
0.0000000001
 43
0.0000000001
 40
0.0
 40
0.0
 40
0.0
 40
4.489259339835388
 40
4.489259339835388
 40
4.489259339835388
 10
590.2016773202126
 20
163.8601950176844
 30
0.0
 41
1.0
 10
590.8075775148712
 20
165.8732194410004
 30
0.0
 41
1.01527960860693
 10
590.9726059019218
 20
167.6863757510902
 30
0.0
 41
1.0
  0
LINE
  5
250
330
2
100
AcDbEntity
  8
AM_VIS
100
AcDbLine
 10
590.2016773202126
 20
163.1185913991306
 30
0.0
 11
590.2016773202126
 21
163.8601950176845
 31
0.0
  0
SPLINE
  5
251
330
2
100
AcDbEntity
  8
AM_VIS
100
AcDbSpline
210
0.0
220
0.0
230
1.0
 70
    28
 71
     2
 72
     6
 73
     3
 74
     0
 42
0.0000000001
 43
0.0000000001
 40
0.0
 40
0.0
 40
0.0
 40
4.489346956745006
 40
4.489346956745006
 40
4.489346956745006
 10
590.9726059019218
 20
163.1185913991306
 30
0.0
 41
1.0
 10
590.8075863586206
 20
163.1185913991306
 30
0.0
 41
1.01528023573722
 10
590.2016773202126
 20
163.1185913991306
 30
0.0
 41
1.0
  0
LINE
  5
252
330
2
100
AcDbEntity
  8
AM_VIS
100
AcDbLine
 10
590.9726059019218
 20
163.1185913991306
 30
0.0
 11
590.9726059019218
 21
167.6863757510901
 31
0.0
  0
LINE
  5
253
330
2
100
AcDbEntity
  8
AM_VIS
100
AcDbLine
 10
586.8016773202127
 20
187.1185913991306
 30
0.0
 11
590.2016773202126
 21
187.1185913991306
 31
0.0
  0
LINE
  5
254
330
2
100
AcDbEntity
  8
AM_VIS
100
AcDbLine
 10
586.8016773202127
 20
186.3769854133706
 30
0.0
 11
586.8016773202127
 21
187.1185913991306
 31
0.0
  0
LINE
  5
255
330
2
100
AcDbEntity
  8
AM_VIS
100
AcDbLine
 10
590.2016773202126
 20
186.3769854133705
 30
0.0
 11
586.8016773202127
 21
186.3769854133705
 31
0.0
  0
LINE
  5
256
330
2
100
AcDbEntity
  8
AM_VIS
100
AcDbLine
 10
586.8016773202127
 20
175.8602085749091
 30
0.0
 11
590.2016773202126
 21
175.8602085749091
 31
0.0
  0
LINE
  5
257
330
2
100
AcDbEntity
  8
AM_VIS
100
AcDbLine
 10
586.8016773202127
 20
174.3770101606056
 30
0.0
 11
586.8016773202127
 21
175.8602085749091
 31
0.0
  0
LINE
  5
258
330
2
100
AcDbEntity
  8
AM_VIS
100
AcDbLine
 10
590.2016773202126
 20
174.3770101606056
 30
0.0
 11
586.8016773202127
 21
174.3770101606056
 31
0.0
  0
SPLINE
  5
259
330
2
100
AcDbEntity
  8
AM_VIS
100
AcDbSpline
210
0.0
220
0.0
230
1.0
 70
    28
 71
     2
 72
     6
 73
     3
 74
     0
 42
0.0000000001
 43
0.0000000001
 40
0.0
 40
0.0
 40
0.0
 40
5.59061555148098
 40
5.59061555148098
 40
5.59061555148098
 10
585.9726059019218
 20
187.1185913991306
 30
0.0
 41
1.0
 10
586.0417525872507
 20
187.1185913991306
 30
0.0
 41
1.024357497129432
 10
586.8016773202127
 20
187.1185913991306
 30
0.0
 41
1.0
  0
SPLINE
  5
25A
330
2
100
AcDbEntity
  8
AM_VIS
100
AcDbSpline
210
0.0
220
0.0
230
1.0
 70
    12
 71
     2
 72
     6
 73
     3
 74
     0
 42
0.0000000001
 43
0.0000000001
 40
0.0
 40
0.0
 40
0.0
 40
5.590725438793462
 40
5.590725438793462
 40
5.590725438793462
 10
586.8016773202127
 20
186.3769854133706
 30
0.0
 41
1.0
 10
586.041738760157
 20
183.8521794026105
 30
0.0
 41
1.024358508160214
 10
585.9726059019218
 20
181.596961220198
 30
0.0
 41
1.0
  0
SPLINE
  5
25B
330
2
100
AcDbEntity
  8
AM_VIS
100
AcDbSpline
210
0.0
220
0.0
230
1.0
 70
    12
 71
     2
 72
     6
 73
     3
 74
     0
 42
0.0000000001
 43
0.0000000001
 40
0.0
 40
0.0
 40
0.0
 40
5.590725438793505
 40
5.590725438793505
 40
5.590725438793505
 10
585.9726059019218
 20
180.6402327680816
 30
0.0
 41
1.0
 10
586.041738760157
 20
178.3850145856691
 30
0.0
 41
1.02435850816068
 10
586.8016773202127
 20
175.860208574909
 30
0.0
 41
1.0
  0
SPLINE
  5
25C
330
2
100
AcDbEntity
  8
AM_VIS
100
AcDbSpline
210
0.0
220
0.0
230
1.0
 70
    12
 71
     2
 72
     6
 73
     3
 74
     0
 42
0.0000000001
 43
0.0000000001
 40
0.0
 40
0.0
 40
0.0
 40
5.590505691017647
 40
5.590505691017647
 40
5.590505691017647
 10
586.8016773202127
 20
174.3770101606056
 30
0.0
 41
1.0
 10
586.0417664106988
 20
171.8523052110427
 30
0.0
 41
1.024356486367967
 10
585.9726059019218
 20
169.5971772989514
 30
0.0
 41
1.0
  0
LINE
  5
25D
330
2
100
AcDbEntity
  8
AM_VIS
100
AcDbLine
 10
586.8016773202127
 20
163.8601950176845
 30
0.0
 11
590.2016773202126
 21
163.8601950176845
 31
0.0
  0
LINE
  5
25E
330
2
100
AcDbEntity
  8
AM_VIS
100
AcDbLine
 10
586.8016773202127
 20
163.1185913991306
 30
0.0
 11
586.8016773202127
 21
163.8601950176845
 31
0.0
  0
LINE
  5
25F
330
2
100
AcDbEntity
  8
AM_VIS
100
AcDbLine
 10
590.2016773202126
 20
163.1185913991306
 30
0.0
 11
586.8016773202127
 21
163.1185913991306
 31
0.0
  0
SPLINE
  5
260
330
2
100
AcDbEntity
  8
AM_VIS
100
AcDbSpline
210
0.0
220
0.0
230
1.0
 70
    12
 71
     2
 72
     6
 73
     3
 74
     0
 42
0.0000000001
 43
0.0000000001
 40
0.0
 40
0.0
 40
0.0
 40
5.590505691017647
 40
5.590505691017647
 40
5.590505691017647
 10
585.9726059019218
 20
168.6400278793387
 30
0.0
 41
1.0
 10
586.0417664106988
 20
166.3848999672473
 30
0.0
 41
1.024356486368036
 10
586.8016773202127
 20
163.8601950176845
 30
0.0
 41
1.0
  0
SPLINE
  5
261
330
2
100
AcDbEntity
  8
AM_VIS
100
AcDbSpline
210
0.0
220
0.0
230
1.0
 70
    28
 71
     2
 72
     6
 73
     3
 74
     0
 42
0.0000000001
 43
0.0000000001
 40
0.0
 40
0.0
 40
0.0
 40
5.590835352818166
 40
5.590835352818166
 40
5.590835352818166
 10
586.8016773202127
 20
163.1185913991306
 30
0.0
 41
1.0
 10
586.0417249294349
 20
163.1185913991306
 30
0.0
 41
1.02435951945957
 10
585.9726059019218
 20
163.1185913991306
 30
0.0
 41
1.0
  0
LINE
  5
262
330
2
100
AcDbEntity
  8
AM_VIS
100
AcDbLine
 10
590.9726059019218
 20
182.5507535133621
 30
0.0
 11
590.9726059019218
 21
179.6864404749175
 31
0.0
  0
LINE
  5
263
330
2
100
AcDbEntity
  8
AM_VIS
100
AcDbLine
 10
590.9726059019218
 20
170.5508294271999
 30
0.0
 11
590.9726059019218
 21
167.6863757510901
 31
0.0
  0
LINE
  5
264
330
2
100
AcDbEntity
  8
AM_VIS
100
AcDbLine
 10
577.6326059019221
 20
181.1185969941398
 30
0.0
 11
578.1326059019217
 21
181.1185969941398
 31
0.0
  0
LINE
  5
265
330
2
100
AcDbEntity
  8
AM_VIS
100
AcDbLine
 10
577.6326059019221
 20
169.1185969941398
 30
0.0
 11
578.1326059019217
 21
169.1185969941398
 31
0.0
  0
SPLINE
  5
266
330
2
100
AcDbEntity
  8
AM_VIS
100
AcDbSpline
210
0.0
220
0.0
230
1.0
 70
    28
 71
     2
 72
     6
 73
     3
 74
     0
 42
0.0000000001
 43
0.0000000001
 40
0.0
 40
0.0
 40
0.0
 40
4.489288544457886
 40
4.489288544457886
 40
4.489288544457886
 10
504.5435344836309
 20
163.1186025891489
 30
0.0
 41
1.0
 10
503.9376313411771
 20
163.1186025891489
 30
0.0
 41
1.015279817641361
 10
503.7726059019218
 20
163.1186025891489
 30
0.0
 41
1.0
  0
LINE
  5
267
330
2
100
AcDbEntity
  8
AM_VIS
100
AcDbLine
 10
504.5435344836309
 20
163.860208574909
 30
0.0
 11
504.5435344836309
 21
163.1186025891489
 31
0.0
  0
SPLINE
  5
268
330
2
100
AcDbEntity
  8
AM_VIS
100
AcDbSpline
210
0.0
220
0.0
230
1.0
 70
    12
 71
     2
 72
     6
 73
     3
 74
     0
 42
0.0000000001
 43
0.0000000001
 40
0.0
 40
0.0
 40
0.0
 40
4.489317750108253
 40
4.489317750108253
 40
4.489317750108253
 10
503.7726059019218
 20
167.6864404749176
 30
0.0
 41
1.0
 10
503.9376283932593
 20
165.8732599179207
 30
0.0
 41
1.015280026684792
 10
504.5435344836309
 20
163.860208574909
 30
0.0
 41
1.0
  0
LINE
  5
269
330
2
100
AcDbEntity
  8
AM_VIS
100
AcDbLine
 10
503.7726059019218
 20
167.6864404749174
 30
0.0
 11
503.7726059019218
 21
163.1186025891489
 31
0.0
  0
SPLINE
  5
26A
330
2
100
AcDbEntity
  8
AM_VIS
100
AcDbSpline
210
0.0
220
0.0
230
1.0
 70
    12
 71
     2
 72
     6
 73
     3
 74
     0
 42
0.0000000001
 43
0.0000000001
 40
0.0
 40
0.0
 40
0.0
 40
4.489317750108252
 40
4.489317750108252
 40
4.489317750108252
 10
504.5435344836309
 20
174.3769854133705
 30
0.0
 41
1.0
 10
503.9376283932593
 20
172.3639340703588
 30
0.0
 41
1.015280026685218
 10
503.7726059019218
 20
170.5507535133619
 30
0.0
 41
1.0
  0
LINE
  5
26B
330
2
100
AcDbEntity
  8
AM_VIS
100
AcDbLine
 10
504.5435344836309
 20
175.8601838276739
 30
0.0
 11
504.5435344836309
 21
174.3769854133704
 31
0.0
  0
SPLINE
  5
26C
330
2
100
AcDbEntity
  8
AM_VIS
100
AcDbSpline
210
0.0
220
0.0
230
1.0
 70
    12
 71
     2
 72
     6
 73
     3
 74
     0
 42
0.0000000001
 43
0.0000000001
 40
0.0
 40
0.0
 40
0.0
 40
4.489259339835413
 40
4.489259339835413
 40
4.489259339835413
 10
503.7726059019218
 20
179.6863645610797
 30
0.0
 41
1.0
 10
503.9376342889723
 20
177.8732082509898
 30
0.0
 41
1.015279608607052
 10
504.5435344836309
 20
175.8601838276739
 30
0.0
 41
1.0
  0
LINE
  5
26D
330
2
100
AcDbEntity
  8
AM_VIS
100
AcDbLine
 10
503.7726059019218
 20
179.6863645610796
 30
0.0
 11
503.7726059019218
 21
170.550753513362
 31
0.0
  0
SPLINE
  5
26E
330
2
100
AcDbEntity
  8
AM_VIS
100
AcDbSpline
210
0.0
220
0.0
230
1.0
 70
    12
 71
     2
 72
     6
 73
     3
 74
     0
 42
0.0000000001
 43
0.0000000001
 40
0.0
 40
0.0
 40
0.0
 40
4.489259339835388
 40
4.489259339835388
 40
4.489259339835388
 10
504.5435344836309
 20
186.3769989705952
 30
0.0
 41
1.0
 10
503.9376342889723
 20
184.3639745472791
 30
0.0
 41
1.01527960860693
 10
503.7726059019218
 20
182.5508182371893
 30
0.0
 41
1.0
  0
LINE
  5
26F
330
2
100
AcDbEntity
  8
AM_VIS
100
AcDbLine
 10
504.5435344836309
 20
187.1186025891489
 30
0.0
 11
504.5435344836309
 21
186.3769989705951
 31
0.0
  0
SPLINE
  5
270
330
2
100
AcDbEntity
  8
AM_VIS
100
AcDbSpline
210
0.0
220
0.0
230
1.0
 70
    28
 71
     2
 72
     6
 73
     3
 74
     0
 42
0.0000000001
 43
0.0000000001
 40
0.0
 40
0.0
 40
0.0
 40
4.489346956745006
 40
4.489346956745006
 40
4.489346956745006
 10
503.7726059019218
 20
187.1186025891489
 30
0.0
 41
1.0
 10
503.9376254452228
 20
187.1186025891489
 30
0.0
 41
1.01528023573722
 10
504.5435344836309
 20
187.1186025891489
 30
0.0
 41
1.0
  0
LINE
  5
271
330
2
100
AcDbEntity
  8
AM_VIS
100
AcDbLine
 10
503.7726059019218
 20
187.1186025891489
 30
0.0
 11
503.7726059019218
 21
182.5508182371894
 31
0.0
  0
LINE
  5
272
330
2
100
AcDbEntity
  8
AM_VIS
100
AcDbLine
 10
507.9435344836308
 20
163.1186025891489
 30
0.0
 11
504.5435344836309
 21
163.1186025891489
 31
0.0
  0
LINE
  5
273
330
2
100
AcDbEntity
  8
AM_VIS
100
AcDbLine
 10
507.9435344836308
 20
163.860208574909
 30
0.0
 11
507.9435344836308
 21
163.1186025891489
 31
0.0
  0
LINE
  5
274
330
2
100
AcDbEntity
  8
AM_VIS
100
AcDbLine
 10
504.5435344836309
 20
163.860208574909
 30
0.0
 11
507.9435344836308
 21
163.860208574909
 31
0.0
  0
LINE
  5
275
330
2
100
AcDbEntity
  8
AM_VIS
100
AcDbLine
 10
507.9435344836308
 20
174.3769854133704
 30
0.0
 11
504.5435344836309
 21
174.3769854133704
 31
0.0
  0
LINE
  5
276
330
2
100
AcDbEntity
  8
AM_VIS
100
AcDbLine
 10
507.9435344836308
 20
175.8601838276739
 30
0.0
 11
507.9435344836308
 21
174.3769854133704
 31
0.0
  0
LINE
  5
277
330
2
100
AcDbEntity
  8
AM_VIS
100
AcDbLine
 10
504.5435344836309
 20
175.8601838276739
 30
0.0
 11
507.9435344836308
 21
175.8601838276739
 31
0.0
  0
SPLINE
  5
278
330
2
100
AcDbEntity
  8
AM_VIS
100
AcDbSpline
210
0.0
220
0.0
230
1.0
 70
    28
 71
     2
 72
     6
 73
     3
 74
     0
 42
0.0000000001
 43
0.0000000001
 40
0.0
 40
0.0
 40
0.0
 40
5.59061555148098
 40
5.59061555148098
 40
5.59061555148098
 10
508.7726059019217
 20
163.1186025891489
 30
0.0
 41
1.0
 10
508.7034592165928
 20
163.1186025891489
 30
0.0
 41
1.024357497129432
 10
507.9435344836308
 20
163.1186025891489
 30
0.0
 41
1.0
  0
SPLINE
  5
279
330
2
100
AcDbEntity
  8
AM_VIS
100
AcDbSpline
210
0.0
220
0.0
230
1.0
 70
    12
 71
     2
 72
     6
 73
     3
 74
     0
 42
0.0000000001
 43
0.0000000001
 40
0.0
 40
0.0
 40
0.0
 40
5.590725438793462
 40
5.590725438793462
 40
5.590725438793462
 10
507.9435344836308
 20
163.860208574909
 30
0.0
 41
1.0
 10
508.7034730436864
 20
166.3850145856691
 30
0.0
 41
1.024358508160214
 10
508.7726059019217
 20
168.6402327680815
 30
0.0
 41
1.0
  0
SPLINE
  5
27A
330
2
100
AcDbEntity
  8
AM_VIS
100
AcDbSpline
210
0.0
220
0.0
230
1.0
 70
    12
 71
     2
 72
     6
 73
     3
 74
     0
 42
0.0000000001
 43
0.0000000001
 40
0.0
 40
0.0
 40
0.0
 40
5.590725438793505
 40
5.590725438793505
 40
5.590725438793505
 10
508.7726059019217
 20
169.596961220198
 30
0.0
 41
1.0
 10
508.7034730436863
 20
171.8521794026104
 30
0.0
 41
1.02435850816068
 10
507.9435344836308
 20
174.3769854133705
 30
0.0
 41
1.0
  0
SPLINE
  5
27B
330
2
100
AcDbEntity
  8
AM_VIS
100
AcDbSpline
210
0.0
220
0.0
230
1.0
 70
    12
 71
     2
 72
     6
 73
     3
 74
     0
 42
0.0000000001
 43
0.0000000001
 40
0.0
 40
0.0
 40
0.0
 40
5.590505691017647
 40
5.590505691017647
 40
5.590505691017647
 10
507.9435344836308
 20
175.8601838276739
 30
0.0
 41
1.0
 10
508.7034453931447
 20
178.3848887772368
 30
0.0
 41
1.024356486367967
 10
508.7726059019217
 20
180.6400166893282
 30
0.0
 41
1.0
  0
LINE
  5
27C
330
2
100
AcDbEntity
  8
AM_VIS
100
AcDbLine
 10
507.9435344836308
 20
186.3769989705951
 30
0.0
 11
504.5435344836309
 21
186.3769989705951
 31
0.0
  0
LINE
  5
27D
330
2
100
AcDbEntity
  8
AM_VIS
100
AcDbLine
 10
507.9435344836308
 20
187.1186025891489
 30
0.0
 11
507.9435344836308
 21
186.3769989705951
 31
0.0
  0
LINE
  5
27E
330
2
100
AcDbEntity
  8
AM_VIS
100
AcDbLine
 10
504.5435344836309
 20
187.1186025891489
 30
0.0
 11
507.9435344836308
 21
187.1186025891489
 31
0.0
  0
SPLINE
  5
27F
330
2
100
AcDbEntity
  8
AM_VIS
100
AcDbSpline
210
0.0
220
0.0
230
1.0
 70
    12
 71
     2
 72
     6
 73
     3
 74
     0
 42
0.0000000001
 43
0.0000000001
 40
0.0
 40
0.0
 40
0.0
 40
5.590505691017647
 40
5.590505691017647
 40
5.590505691017647
 10
508.7726059019217
 20
181.5971661089408
 30
0.0
 41
1.0
 10
508.7034453931447
 20
183.8522940210322
 30
0.0
 41
1.024356486368036
 10
507.9435344836308
 20
186.3769989705951
 30
0.0
 41
1.0
  0
SPLINE
  5
280
330
2
100
AcDbEntity
  8
AM_VIS
100
AcDbSpline
210
0.0
220
0.0
230
1.0
 70
    28
 71
     2
 72
     6
 73
     3
 74
     0
 42
0.0000000001
 43
0.0000000001
 40
0.0
 40
0.0
 40
0.0
 40
5.590835352818166
 40
5.590835352818166
 40
5.590835352818166
 10
507.9435344836308
 20
187.1186025891489
 30
0.0
 41
1.0
 10
508.7034868744085
 20
187.1186025891489
 30
0.0
 41
1.02435951945957
 10
508.7726059019217
 20
187.1186025891489
 30
0.0
 41
1.0
  0
LINE
  5
281
330
2
100
AcDbEntity
  8
AM_VIS
100
AcDbLine
 10
503.7726059019218
 20
167.6864404749174
 30
0.0
 11
503.7726059019218
 21
170.550753513362
 31
0.0
  0
LINE
  5
282
330
2
100
AcDbEntity
  8
AM_VIS
100
AcDbLine
 10
503.7726059019218
 20
179.6863645610796
 30
0.0
 11
503.7726059019218
 21
182.5508182371894
 31
0.0
  0
LINE
  5
283
330
2
100
AcDbEntity
  8
AM_VIS
100
AcDbLine
 10
517.1326059019221
 20
169.1185969941397
 30
0.0
 11
516.6326059019218
 21
169.1185969941397
 31
0.0
  0
LINE
  5
284
330
2
100
AcDbEntity
  8
AM_VIS
100
AcDbLine
 10
517.1326059019221
 20
181.1185969941397
 30
0.0
 11
516.6326059019218
 21
181.1185969941397
 31
0.0
  0
LINE
  5
285
330
2
100
AcDbEntity
  8
AM_VIS
100
AcDbLine
 10
585.9726059019218
 20
188.6185969941399
 30
0.0
 11
585.9726059019218
 21
175.1185969941399
 31
0.0
  0
LINE
  5
286
330
2
100
AcDbEntity
  8
AM_VIS
100
AcDbLine
 10
585.9726059019218
 20
175.1185969941399
 30
0.0
 11
585.9726059019218
 21
161.6185969941399
 31
0.0
  0
LINE
  5
287
330
2
100
AcDbEntity
  8
AM_VIS
100
AcDbLine
 10
584.4726059019217
 20
188.6185969941399
 30
0.0
 11
585.9726059019217
 21
188.6185969941399
 31
0.0
  0
LINE
  5
288
330
2
100
AcDbEntity
  8
AM_VIS
100
AcDbLine
 10
584.4726059019218
 20
161.6185969941398
 30
0.0
 11
585.9726059019218
 21
161.6185969941398
 31
0.0
  0
LINE
  5
289
330
2
100
AcDbEntity
  8
AM_VIS
100
AcDbLine
 10
508.7726059019217
 20
161.6185969941398
 30
0.0
 11
508.7726059019217
 21
175.1185969941398
 31
0.0
  0
LINE
  5
28A
330
2
100
AcDbEntity
  8
AM_VIS
100
AcDbLine
 10
508.7726059019217
 20
175.1185969941398
 30
0.0
 11
508.7726059019217
 21
188.6185969941397
 31
0.0
  0
LINE
  5
28B
330
2
100
AcDbEntity
  8
AM_VIS
100
AcDbLine
 10
510.2726059019217
 20
161.6185969941398
 30
0.0
 11
508.7726059019217
 21
161.6185969941398
 31
0.0
  0
LINE
  5
28C
330
2
100
AcDbEntity
  8
AM_VIS
100
AcDbLine
 10
510.2726059019217
 20
188.6185969941397
 30
0.0
 11
508.7726059019217
 21
188.6185969941397
 31
0.0
  0
LINE
  5
28D
330
2
100
AcDbEntity
  8
AM_VIS
100
AcDbLine
 10
554.3826059019218
 20
360.2737949014664
 30
0.0
 11
553.3826059019218
 21
360.2737949014664
 31
0.0
  0
LINE
  5
28E
330
2
100
AcDbEntity
  8
AM_VIS
100
AcDbLine
 10
541.3826059019218
 20
360.2737949014664
 30
0.0
 11
540.3826059019218
 21
360.2737949014664
 31
0.0
  0
LINE
  5
28F
330
2
100
AcDbEntity
  8
AM_VIS
100
AcDbLine
 10
554.3826059019218
 20
372.2737949014665
 30
0.0
 11
553.3826059019218
 21
372.2737949014665
 31
0.0
  0
LINE
  5
290
330
2
100
AcDbEntity
  8
AM_VIS
100
AcDbLine
 10
541.3826059019218
 20
372.2737949014665
 30
0.0
 11
540.3826059019218
 21
372.2737949014665
 31
0.0
  0
LINE
  5
291
330
2
100
AcDbEntity
  8
AM_VIS
100
AcDbLine
 10
533.2826059019217
 20
357.7737949014666
 30
0.0
 11
533.2826059019217
 21
366.4221403561837
 31
0.0
  0
LINE
  5
292
330
2
100
AcDbEntity
  8
AM_VIS
100
AcDbLine
 10
533.2826059019217
 20
366.4221403561837
 30
0.0
 11
533.2826059019217
 21
374.7737949014666
 31
0.0
  0
LINE
  5
293
330
2
100
AcDbEntity
  8
AM_VIS
100
AcDbLine
 10
534.8826059019217
 20
357.7737949014666
 30
0.0
 11
533.2826059019217
 21
357.7737949014666
 31
0.0
  0
LINE
  5
294
330
2
100
AcDbEntity
  8
AM_VIS
100
AcDbLine
 10
534.8826059019217
 20
374.7737949014666
 30
0.0
 11
533.2826059019217
 21
374.7737949014666
 31
0.0
  0
LINE
  5
295
330
2
100
AcDbEntity
  8
AM_VIS
100
AcDbLine
 10
561.4826059019218
 20
374.7737949014666
 30
0.0
 11
561.4826059019218
 21
366.4221403561837
 31
0.0
  0
LINE
  5
296
330
2
100
AcDbEntity
  8
AM_VIS
100
AcDbLine
 10
561.4826059019218
 20
366.4221403561837
 30
0.0
 11
561.4826059019218
 21
357.7737949014666
 31
0.0
  0
LINE
  5
297
330
2
100
AcDbEntity
  8
AM_VIS
100
AcDbLine
 10
561.4826059019218
 20
357.7737949014666
 30
0.0
 11
559.8826059019217
 21
357.7737949014666
 31
0.0
  0
LINE
  5
298
330
2
100
AcDbEntity
  8
AM_VIS
100
AcDbLine
 10
561.4826059019218
 20
374.7737949014666
 30
0.0
 11
559.8826059019217
 21
374.7737949014666
 31
0.0
  0
SPLINE
  5
299
330
2
100
AcDbEntity
  8
AM_VIS
100
AcDbSpline
210
0.0
220
0.0
230
1.0
 70
    12
 71
     2
 72
     6
 73
     3
 74
     0
 42
0.0000000001
 43
0.0000000001
 40
1.758602658732453
 40
1.758602658732453
 40
1.758602658732453
 40
5.727808301030238
 40
5.727808301030238
 40
5.727808301030238
 10
564.8112446307274
 20
372.8382999356258
 30
0.0
 41
1.087572144626077
 10
565.0725177268034
 20
372.8042648065928
 30
0.0
 41
1.168956370604663
 10
565.080416808129
 20
372.7747850337527
 30
0.0
 41
1.171606981666958
  0
SPLINE
  5
29A
330
2
100
AcDbEntity
  8
AM_VIS
100
AcDbSpline
210
0.0
220
0.0
230
1.0
 70
    12
 71
     2
 72
     6
 73
     3
 74
     0
 42
0.0000000001
 43
0.0000000001
 40
5.995059344823446
 40
5.995059344823446
 40
5.995059344823446
 40
9.964264987121234
 40
9.964264987121234
 40
9.964264987121234
 10
561.8847949957149
 20
372.7747850337527
 30
0.0
 41
1.171606981666957
 10
561.8926940770404
 20
372.8042648065928
 30
0.0
 41
1.168956370604663
 10
562.1539671731163
 20
372.8382999356258
 30
0.0
 41
1.087572144626077
  0
LINE
  5
29B
330
2
100
AcDbEntity
  8
AM_VIS
100
AcDbLine
 10
562.1539671731163
 20
372.8382999356258
 30
0.0
 11
564.8112446307274
 21
372.8382999356258
 31
0.0
  0
LINE
  5
29C
330
2
100
AcDbEntity
  8
AM_VIS
100
AcDbLine
 10
562.1539667042769
 20
359.7092899283829
 30
0.0
 11
564.811245099567
 21
359.7092899283829
 31
0.0
  0
SPLINE
  5
29D
330
2
100
AcDbEntity
  8
AM_VIS
100
AcDbSpline
210
0.0
220
0.0
230
1.0
 70
    12
 71
     2
 72
     6
 73
     3
 74
     0
 42
0.0000000001
 43
0.0000000001
 40
1.758605972049866
 40
1.758605972049866
 40
1.758605972049866
 40
9.964264987121234
 40
9.964264987121234
 40
9.964264987121234
 10
564.811245099567
 20
359.7092899283829
 30
0.0
 41
1.087572280497931
 10
565.3140216148798
 20
359.7747849058535
 30
0.0
 41
1.255820219371631
 10
564.8112446307274
 20
359.8402798985927
 30
0.0
 41
1.087572144626077
  0
LINE
  5
29E
330
2
100
AcDbEntity
  8
AM_VIS
100
AcDbLine
 10
562.1539671731163
 20
359.8402798985927
 30
0.0
 11
564.8112446307274
 21
359.8402798985927
 31
0.0
  0
SPLINE
  5
29F
330
2
100
AcDbEntity
  8
AM_VIS
100
AcDbSpline
210
0.0
220
0.0
230
1.0
 70
    12
 71
     2
 72
     6
 73
     3
 74
     0
 42
0.0000000001
 43
0.0000000001
 40
1.75860265873245
 40
1.75860265873245
 40
1.75860265873245
 40
9.964261673803823
 40
9.964261673803823
 40
9.964261673803823
 10
562.1539671731163
 20
359.8402798985927
 30
0.0
 41
1.087572144626077
 10
561.6511901889642
 20
359.7747849058535
 30
0.0
 41
1.255820219371631
 10
562.1539667042769
 20
359.7092899283829
 30
0.0
 41
1.087572280497931
  0
SPLINE
  5
2A0
330
2
100
AcDbEntity
  8
AM_VIS
100
AcDbSpline
210
0.0
220
0.0
230
1.0
 70
    12
 71
     2
 72
     6
 73
     3
 74
     0
 42
0.0000000001
 43
0.0000000001
 40
1.758603858690498
 40
1.758603858690498
 40
1.758603858690498
 40
9.964262000169098
 40
9.964262000169098
 40
9.964262000169098
 10
564.8112446307274
 20
359.8402798985927
 30
0.0
 41
1.087572135151323
 10
565.3140211753428
 20
363.1225322091096
 30
0.0
 41
1.255820017571921
 10
564.8112443963078
 20
366.4047849022141
 30
0.0
 41
1.08757206721543
  0
LINE
  5
2A1
330
2
100
AcDbEntity
  8
AM_VIS
100
AcDbLine
 10
562.1539674075361
 20
366.4047849022141
 30
0.0
 11
564.8112443963079
 21
366.4047849022141
 31
0.0
  0
SPLINE
  5
2A2
330
2
100
AcDbEntity
  8
AM_VIS
100
AcDbSpline
210
0.0
220
0.0
230
1.0
 70
    12
 71
     2
 72
     6
 73
     3
 74
     0
 42
0.0000000001
 43
0.0000000001
 40
1.758602202031912
 40
1.758602202031912
 40
1.758602202031912
 40
9.964260343510527
 40
9.964260343510527
 40
9.964260343510527
 10
562.153967407536
 20
366.4047849022141
 30
0.0
 41
1.08757206721543
 10
561.6511906285011
 20
363.1225322091097
 30
0.0
 41
1.255820017571922
 10
562.1539671731163
 20
359.8402798985927
 30
0.0
 41
1.087572135151322
  0
SPLINE
  5
2A3
330
2
100
AcDbEntity
  8
AM_VIS
100
AcDbSpline
210
0.0
220
0.0
230
1.0
 70
    12
 71
     2
 72
     6
 73
     3
 74
     0
 42
0.0000000001
 43
0.0000000001
 40
1.758602202031911
 40
1.758602202031911
 40
1.758602202031911
 40
9.964260343510504
 40
9.964260343510504
 40
9.964260343510504
 10
564.8112443963078
 20
366.4047849022141
 30
0.0
 41
1.08757206721543
 10
565.3140211753428
 20
369.6215426063965
 30
0.0
 41
1.255820017571921
 10
564.8112446307274
 20
372.8382999356258
 30
0.0
 41
1.087572135151323
  0
SPLINE
  5
2A4
330
2
100
AcDbEntity
  8
AM_VIS
100
AcDbSpline
210
0.0
220
0.0
230
1.0
 70
    12
 71
     2
 72
     6
 73
     3
 74
     0
 42
0.0000000001
 43
0.0000000001
 40
1.758603858690499
 40
1.758603858690499
 40
1.758603858690499
 40
9.964262000169108
 40
9.964262000169108
 40
9.964262000169108
 10
562.1539671731163
 20
372.8382999356258
 30
0.0
 41
1.087572135151323
 10
561.651190628501
 20
369.6215426063965
 30
0.0
 41
1.255820017571922
 10
562.1539674075361
 20
366.4047849022141
 30
0.0
 41
1.08757206721543
  0
LINE
  5
2A5
330
2
100
AcDbEntity
  8
AM_VIS
100
AcDbLine
 10
565.4826059019219
 20
371.2737949014673
 30
0.0
 11
565.4826059019219
 21
361.2737949014673
 31
0.0
  0
LINE
  5
2A6
330
2
100
AcDbEntity
  8
AM_VIS
100
AcDbLine
 10
565.4826059019219
 20
361.2737949014673
 30
0.0
 11
565.080416808129
 21
359.7728047691818
 31
0.0
  0
LINE
  5
2A7
330
2
100
AcDbEntity
  8
AM_VIS
100
AcDbLine
 10
565.4826059019219
 20
371.2737949014673
 30
0.0
 11
565.080416808129
 21
372.7747850337527
 31
0.0
  0
LINE
  5
2A8
330
2
100
AcDbEntity
  8
AM_VIS
100
AcDbLine
 10
561.4826059019219
 20
371.2737949014673
 30
0.0
 11
561.8847949957149
 21
372.7747850337527
 31
0.0
  0
LINE
  5
2A9
330
2
100
AcDbEntity
  8
AM_VIS
100
AcDbLine
 10
561.4826059019219
 20
361.2737949014673
 30
0.0
 11
561.8847949957149
 21
359.7728047691818
 31
0.0
  0
LINE
  5
2AA
330
2
100
AcDbEntity
  8
AM_VIS
100
AcDbLine
 10
568.2826059019218
 20
370.1737949014658
 30
0.0
 11
568.2826059019218
 21
366.3418592865714
 31
0.0
  0
LINE
  5
2AB
330
2
100
AcDbEntity
  8
AM_VIS
100
AcDbLine
 10
568.2826059019218
 20
366.3418592865714
 30
0.0
 11
568.2826059019218
 21
362.3737949014659
 31
0.0
  0
LINE
  5
2AC
330
2
100
AcDbEntity
  8
AM_VIS
100
AcDbLine
 10
530.2826059019217
 20
361.2737949014659
 30
0.0
 11
530.2826059019217
 21
366.3610569336524
 31
0.0
  0
LINE
  5
2AD
330
2
100
AcDbEntity
  8
AM_VIS
100
AcDbLine
 10
530.2826059019217
 20
366.3610569336524
 30
0.0
 11
530.2826059019217
 21
371.2737949014659
 31
0.0
  0
LINE
  5
2AE
330
2
100
AcDbEntity
  8
AM_VIS
100
AcDbLine
 10
565.4826059019219
 20
370.1737949014658
 30
0.0
 11
568.2826059019218
 21
370.1737949014658
 31
0.0
  0
LINE
  5
2AF
330
2
100
AcDbEntity
  8
AM_VIS
100
AcDbLine
 10
565.4826059019219
 20
362.3737949014659
 30
0.0
 11
568.2826059019218
 21
362.3737949014659
 31
0.0
  0
LINE
  5
2B0
330
2
100
AcDbEntity
  8
AM_VIS
100
AcDbLine
 10
533.2826059019217
 20
361.2737949014658
 30
0.0
 11
530.2826059019217
 21
361.2737949014658
 31
0.0
  0
LINE
  5
2B1
330
2
100
AcDbEntity
  8
AM_VIS
100
AcDbLine
 10
533.2826059019217
 20
371.2737949014659
 30
0.0
 11
530.2826059019217
 21
371.2737949014659
 31
0.0
  0
ELLIPSE
  5
2B2
330
2
100
AcDbEntity
  8
AM_VIS
100
AcDbEllipse
 10
524.1326059019222
 20
150.8545890964177
 30
0.0
 11
-11.75
 21
-0.0000000000000038
 31
0.0
210
0.0
220
0.0
230
1.0
 40
0.1105579922575787
 41
4.712388980384689
 42
6.283185307179586
  0
LINE
  5
2B3
330
2
100
AcDbEntity
  8
AM_VIS
100
AcDbLine
 10
512.3826059019221
 20
150.8545890964177
 30
0.0
 11
512.3826059019221
 21
121.0661383525812
 31
0.0
  0
LINE
  5
2B4
330
2
100
AcDbEntity
  8
AM_VIS
100
AcDbLine
 10
570.6326059019223
 20
122.3375552635434
 30
0.0
 11
524.1326059019222
 21
122.3375552635434
 31
0.0
  0
LINE
  5
2B5
330
2
100
AcDbEntity
  8
AM_VIS
100
AcDbLine
 10
570.6326059019223
 20
152.1536455054443
 30
0.0
 11
524.1326059019222
 21
152.1536455054443
 31
0.0
  0
ELLIPSE
  5
2B6
330
2
100
AcDbEntity
  8
AM_VIS
100
AcDbEllipse
 10
570.6326059019223
 20
150.8545890964177
 30
0.0
 11
-11.75
 21
-0.0000000000000038
 31
0.0
210
0.0
220
0.0
230
1.0
 40
0.1105579922575787
 41
3.141592653589794
 42
4.712388980384689
  0
LINE
  5
2B7
330
2
100
AcDbEntity
  8
AM_VIS
100
AcDbLine
 10
582.3826059019222
 20
121.0661383525813
 30
0.0
 11
582.3826059019222
 21
150.8545890964177
 31
0.0
  0
SPLINE
  5
2B8
330
2
100
AcDbEntity
  8
AM_VIS
100
AcDbSpline
210
0.0
220
0.0
230
1.0
 70
     8
 71
     1
 72
   147
 73
   145
 74
     0
 42
0.0000000001
 43
0.0000000001
 40
3.435515723415566
 40
3.435515723415566
 40
3.444685940464265
 40
3.455966335635193
 40
3.467246730806122
 40
3.489706630859391
 40
3.51216653091266
 40
3.534626430965928
 40
3.557086331019198
 40
3.579546231072467
 40
3.602006131125736
 40
3.624466031179005
 40
3.646925931232274
 40
3.669385831285543
 40
3.691845731338812
 40
3.714305631392081
 40
3.73676553144535
 40
3.759225431498619
 40
3.777083750740374
 40
3.79494206998213
 40
3.812800389223886
 40
3.830658708465642
 40
3.848517027707398
 40
3.866375346949153
 40
3.884233666190909
 40
3.902091985432665
 40
3.919950304674421
 40
3.937808623916176
 40
3.955666943157932
 40
3.973525262399688
 40
3.991383581641444
 40
4.009241900883199
 40
4.027100220124955
 40
4.04495853936671
 40
4.062816858608466
 40
4.080675177850222
 40
4.098533497091978
 40
4.116391816333734
 40
4.133761312251538
 40
4.151130808169341
 40
4.168500304087145
 40
4.185869800004949
 40
4.203239295922753
 40
4.220608791840557
 40
4.237978287758361
 40
4.255347783676165
 40
4.272717279593969
 40
4.290086775511772
 40
4.307456271429576
 40
4.32482576734738
 40
4.342195263265184
 40
4.359564759182989
 40
4.376934255100792
 40
4.394303751018596
 40
4.411673246936399
 40
4.429042742854203
 40
4.446412238772007
 40
4.463527159269962
 40
4.480642079767917
 40
4.49775700026587
 40
4.514871920763826
 40
4.53198684126178
 40
4.549101761759734
 40
4.566216682257689
 40
4.583331602755643
 40
4.600446523253599
 40
4.617561443751553
 40
4.634676364249507
 40
4.651791284747462
 40
4.668906205245416
 40
4.686021125743371
 40
4.703136046241326
 40
4.72025096673928
 40
4.737365887237235
 40
4.754480807735189
 40
4.771595728233144
 40
4.788669670633781
 40
4.805743613034418
 40
4.822817555435054
 40
4.839891497835692
 40
4.856965440236329
 40
4.874039382636967
 40
4.891113325037603
 40
4.90818726743824
 40
4.925261209838877
 40
4.942335152239515
 40
4.959409094640152
 40
4.976483037040789
 40
4.993556979441425
 40
5.010630921842063
 40
5.027704864242699
 40
5.044778806643336
 40
5.061852749043974
 40
5.07892669144461
 40
5.096000633845248
 40
5.113169549984431
 40
5.130338466123613
 40
5.147507382262794
 40
5.164676298401977
 40
5.18184521454116
 40
5.199014130680343
 40
5.216183046819526
 40
5.233351962958709
 40
5.250520879097891
 40
5.267689795237073
 40
5.284858711376255
 40
5.302027627515438
 40
5.319196543654621
 40
5.336365459793803
 40
5.353534375932985
 40
5.370703292072168
 40
5.387872208211351
 40
5.405041124350534
 40
5.422210040489716
 40
5.439792587521609
 40
5.457375134553501
 40
5.474957681585394
 40
5.492540228617287
 40
5.51012277564918
 40
5.527705322681072
 40
5.545287869712964
 40
5.562870416744858
 40
5.580452963776751
 40
5.598035510808644
 40
5.615618057840536
 40
5.633200604872429
 40
5.650783151904322
 40
5.668365698936215
 40
5.685948245968106
 40
5.703530793
 40
5.721113340031893
 40
5.738695887063785
 40
5.756278434095678
 40
5.775305269661662
 40
5.794332105227646
 40
5.813358940793629
 40
5.832385776359614
 40
5.851412611925598
 40
5.870439447491582
 40
5.889466283057566
 40
5.90849311862355
 40
5.927519954189534
 40
5.946546789755518
 40
5.965573625321502
 40
5.984600460887486
 40
5.989262237353797
 40
5.989262237353797
 10
563.3825685534576
 20
174.5280011891568
 30
0.0
 10
563.3199125794743
 20
174.5506006722671
 30
0.0
 10
563.2422796362642
 20
174.5775146193321
 30
0.0
 10
563.1639834304405
 20
174.6036366037855
 30
0.0
 10
563.0057555645752
 20
174.653597024737
 30
0.0
 10
562.8439085162543
 20
174.7012395979734
 30
0.0
 10
562.6779381812094
 20
174.7469482927338
 30
0.0
 10
562.5074418233629
 20
174.7910131027465
 30
0.0
 10
562.3320992856861
 20
174.8336548086206
 30
0.0
 10
562.151657970203
 20
174.8750426042336
 30
0.0
 10
561.9659208673813
 20
174.9153068001159
 30
0.0
 10
561.7747370115463
 20
174.9545480895079
 30
0.0
 10
561.5779938509499
 20
174.9928443855853
 30
0.0
 10
561.3756111244534
 20
175.0302559223239
 30
0.0
 10
561.1675359238624
 20
175.0668290999892
 30
0.0
 10
560.9537386912036
 20
175.1025994131386
 30
0.0
 10
560.734209955602
 20
175.1375937011308
 30
0.0
 10
560.5555725881597
 20
175.1648779905687
 30
0.0
 10
560.373327338475
 20
175.1916918351563
 30
0.0
 10
560.1874906227163
 20
175.2180408384608
 30
0.0
 10
559.9980838215609
 20
175.2439290335352
 30
0.0
 10
559.8051328352616
 20
175.2693591254147
 30
0.0
 10
559.6086676954572
 20
175.2943326947386
 30
0.0
 10
559.4087222251571
 20
175.3188503694725
 30
0.0
 10
559.2053337397321
 20
175.3429119703368
 30
0.0
 10
558.9985427829159
 20
175.3665166344676
 30
0.0
 10
558.7883928927697
 20
175.3896629209814
 30
0.0
 10
558.5749303933674
 20
175.4123489014336
 30
0.0
 10
558.3582042086058
 20
175.4345722376209
 30
0.0
 10
558.1382656950999
 20
175.4563302487356
 30
0.0
 10
557.9151684915776
 20
175.4776199695322
 30
0.0
 10
557.6889683825685
 20
175.4984382008798
 30
0.0
 10
557.4597231745072
 20
175.51878155384
 30
0.0
 10
557.227492582638
 20
175.538646488224
 30
0.0
 10
556.9923381273347
 20
175.5580293464239
 30
0.0
 10
556.7543230386486
 20
175.5769263831876
 30
0.0
 10
556.5135121680518
 20
175.5953337919007
 30
0.0
 10
556.276673905946
 20
175.6127639848369
 30
0.0
 10
556.0373160367576
 20
175.6297237966935
 30
0.0
 10
555.7955022231158
 20
175.6462096742602
 30
0.0
 10
555.551297315953
 20
175.6622180790823
 30
0.0
 10
555.3047672990516
 20
175.6777455003192
 30
0.0
 10
555.0559792364436
 20
175.6927884663054
 30
0.0
 10
554.8050012223435
 20
175.7073435549652
 30
0.0
 10
554.5519023333237
 20
175.7214074032147
 30
0.0
 10
554.2967525824882
 20
175.7349767154636
 30
0.0
 10
554.039622875419
 20
175.7480482713178
 30
0.0
 10
553.7805849677011
 20
175.7606189325683
 30
0.0
 10
553.5197114238536
 20
175.7726856495407
 30
0.0
 10
553.2570755775123
 20
175.784245466872
 30
0.0
 10
552.9927514927289
 20
175.7952955287715
 30
0.0
 10
552.7268139262652
 20
175.8058330838149
 30
0.0
 10
552.4593382907736
 20
175.815855489317
 30
0.0
 10
552.1904006187696
 20
175.8253602153198
 30
0.0
 10
551.9200775273097
 20
175.8343448482309
 30
0.0
 10
551.6484461832972
 20
175.842807094142
 30
0.0
 10
551.3795919733857
 20
175.8506322410784
 30
0.0
 10
551.1096177744936
 20
175.857946135174
 30
0.0
 10
550.8385987850373
 20
175.8647469390179
 30
0.0
 10
550.5666105965598
 20
175.8710329378993
 30
0.0
 10
550.2937291635788
 20
175.8768025417189
 30
0.0
 10
550.0200307737195
 20
175.8820542867114
 30
0.0
 10
549.745592018096
 20
175.8867868369925
 30
0.0
 10
549.4704897619126
 20
175.8909989859381
 30
0.0
 10
549.194801115258
 20
175.8946896574048
 30
0.0
 10
548.9186034040632
 20
175.8978579067994
 30
0.0
 10
548.6419741412023
 20
175.9005029220012
 30
0.0
 10
548.3649909977152
 20
175.9026240241457
 30
0.0
 10
548.0877317741263
 20
175.9042206682713
 30
0.0
 10
547.8102743718475
 20
175.9052924438332
 30
0.0
 10
547.5326967646382
 20
175.9058390750888
 30
0.0
 10
547.2550769701123
 20
175.9058604213541
 30
0.0
 10
546.9774930212696
 20
175.9053564771347
 30
0.0
 10
546.700022938037
 20
175.9043273721306
 30
0.0
 10
546.4227446988013
 20
175.9027733711162
 30
0.0
 10
546.146399066741
 20
175.9007004762177
 30
0.0
 10
545.8703991492692
 20
175.8981061235132
 30
0.0
 10
545.59482207289
 20
175.8949909757443
 30
0.0
 10
545.3197448099002
 20
175.8913558276974
 30
0.0
 10
545.045244149963
 20
175.8872016054419
 30
0.0
 10
544.7713966715642
 20
175.8825293654306
 30
0.0
 10
544.4982787133325
 20
175.8773402934572
 30
0.0
 10
544.225966345195
 20
175.8716357034646
 30
0.0
 10
543.9545353393506
 20
175.8654170361973
 30
0.0
 10
543.6840611410259
 20
175.8586858576904
 30
0.0
 10
543.4146188389913
 20
175.8514438575849
 30
0.0
 10
543.1462831357986
 20
175.8436928472596
 30
0.0
 10
542.8791283177088
 20
175.8354347577677
 30
0.0
 10
542.6132282242681
 20
175.8266716375633
 30
0.0
 10
542.3486562174896
 20
175.8174056500043
 30
0.0
 10
542.0854851505907
 20
175.8076390706112
 30
0.0
 10
541.8237873362352
 20
175.7973742840653
 30
0.0
 10
541.5636345142171
 20
175.7866137809203
 30
0.0
 10
541.3050978185213
 20
175.7753601540037
 30
0.0
 10
541.0468238640081
 20
175.7635494017558
 30
0.0
 10
540.7903263358475
 20
175.7512455779299
 30
0.0
 10
540.5356754990601
 20
175.7384516059772
 30
0.0
 10
540.2829408560926
 20
175.7251704952972
 30
0.0
 10
540.0321911083815
 20
175.711405335391
 30
0.0
 10
539.7834941166474
 20
175.6971592894351
 30
0.0
 10
539.5369168597611
 20
175.68243558721
 30
0.0
 10
539.2925253920101
 20
175.6672375173066
 30
0.0
 10
539.050384798569
 20
175.6515684185232
 30
0.0
 10
538.810559148949
 20
175.6354316703514
 30
0.0
 10
538.5731114481782
 20
175.6188306824356
 30
0.0
 10
538.3381035854214
 20
175.6017688828703
 30
0.0
 10
538.1055962797217
 20
175.5842497051811
 30
0.0
 10
537.8756490224877
 20
175.5662765738077
 30
0.0
 10
537.6483200163082
 20
175.5478528878801
 30
0.0
 10
537.4236661096119
 20
175.5289820030423
 30
0.0
 10
537.2017427266222
 20
175.5096672110391
 30
0.0
 10
536.9826037919725
 20
175.4899117167304
 30
0.0
 10
536.76630164926
 20
175.4697186121401
 30
0.0
 10
536.5477814500108
 20
175.4485885475898
 30
0.0
 10
536.3323420192722
 20
175.4270056028501
 30
0.0
 10
536.1200338015118
 20
175.4049725187773
 30
0.0
 10
535.9109050499817
 20
175.3824917511229
 30
0.0
 10
535.7050016825314
 20
175.3595654140978
 30
0.0
 10
535.5023671216622
 20
175.3361952152874
 30
0.0
 10
535.3030421163881
 20
175.3123823803381
 30
0.0
 10
535.107064543032
 20
175.2881275655026
 30
0.0
 10
534.9144691815796
 20
175.2634307557198
 30
0.0
 10
534.7252874636005
 20
175.2382911453937
 30
0.0
 10
534.5395471870103
 20
175.2127069984012
 30
0.0
 10
534.35727219206
 20
175.1866754830564
 30
0.0
 10
534.1784819918642
 20
175.1601924767525
 30
0.0
 10
534.0031913494811
 20
175.1332523337309
 30
0.0
 10
533.8314097919717
 20
175.1058476077989
 30
0.0
 10
533.6631410499449
 20
175.0779687197475
 30
0.0
 10
533.4983824087377
 20
175.0496035565442
 30
0.0
 10
533.337123954509
 20
175.0207369859262
 30
0.0
 10
533.1793476950045
 20
174.9913502655142
 30
0.0
 10
533.0125025677071
 20
174.9589367996178
 30
0.0
 10
532.8496552757132
 20
174.9258509208115
 30
0.0
 10
532.6907415054623
 20
174.8920476154124
 30
0.0
 10
532.5356781008779
 20
174.8574709502555
 30
0.0
 10
532.3843599871939
 20
174.8220513931459
 30
0.0
 10
532.2366564571641
 20
174.7857023612582
 30
0.0
 10
532.0924066765186
 20
174.7483157390135
 30
0.0
 10
531.9514142364363
 20
174.7097560087555
 30
0.0
 10
531.8134405505937
 20
174.6698524979693
 30
0.0
 10
531.6781968685552
 20
174.6283890471086
 30
0.0
 10
531.5453346680986
 20
174.5850901149334
 30
0.0
 10
531.414434221803
 20
174.5396019239895
 30
0.0
 10
531.3827193232453
 20
174.5278082718275
 30
0.0
  0
ELLIPSE
  5
2B9
330
2
100
AcDbEntity
  8
AM_VIS
100
AcDbEllipse
 10
547.3826059019223
 20
-84.28138811039771
 30
0.0
 11
-20.0
 21
-0.0000000000000065
 31
0.0
210
0.0
220
0.0
230
1.0
 40
0.1105579922575787
 41
1.570796326794896
 42
7.853981633974482
  0
ELLIPSE
  5
2BA
330
2
100
AcDbEntity
  8
AM_VIS
100
AcDbEllipse
 10
547.3826059019223
 20
-80.30590941147758
 30
0.0
 11
-20.0
 21
-0.0000000000000065
 31
0.0
210
0.0
220
0.0
230
1.0
 40
0.1105579922575787
 41
3.141592653589794
 42
6.283185307179586
  0
LINE
  5
2BB
330
2
100
AcDbEntity
  8
AM_VIS
100
AcDbLine
 10
567.3826059019222
 20
-80.30590941147758
 30
0.0
 11
567.3826059019222
 21
-84.28138811039771
 31
0.0
  0
LINE
  5
2BC
330
2
100
AcDbEntity
  8
AM_VIS
100
AcDbLine
 10
527.3826059019222
 20
-80.30590941147758
 30
0.0
 11
527.3826059019222
 21
-84.28138811039771
 31
0.0
  0
ELLIPSE
  5
2BD
330
2
100
AcDbEntity
  8
AM_VIS
100
AcDbEllipse
 10
570.6326059019223
 20
-82.8763827314663
 30
0.0
 11
-3.0
 21
-0.000000000000001
 31
0.0
210
0.0
220
0.0
230
1.0
 40
0.1105579922575787
 41
1.570796326794896
 42
7.853981633974482
  0
ELLIPSE
  5
2BE
330
2
100
AcDbEntity
  8
AM_VIS
100
AcDbEllipse
 10
524.1326059019224
 20
-82.87638273146631
 30
0.0
 11
-3.0
 21
-0.000000000000001
 31
0.0
210
0.0
220
0.0
230
1.0
 40
0.1105579922575787
 41
1.570796326794896
 42
7.853981633974482
  0
ELLIPSE
  5
2BF
330
2
100
AcDbEntity
  8
AM_VIS
100
AcDbEllipse
 10
524.1326059019224
 20
-77.73543609148891
 30
0.0
 11
-3.0
 21
-0.000000000000001
 31
0.0
210
0.0
220
0.0
230
1.0
 40
0.1105579922575787
 41
1.570796326794896
 42
7.853981633974482
  0
ELLIPSE
  5
2C0
330
2
100
AcDbEntity
  8
AM_VIS
100
AcDbEllipse
 10
570.6326059019223
 20
-77.73543609148887
 30
0.0
 11
-3.0
 21
-0.000000000000001
 31
0.0
210
0.0
220
0.0
230
1.0
 40
0.1105579922575787
 41
1.570796326794896
 42
7.853981633974482
  0
ELLIPSE
  5
2C1
330
2
100
AcDbEntity
  8
AM_VIS
100
AcDbEllipse
 10
524.1326059019224
 20
-47.91934584958804
 30
0.0
 11
-11.75
 21
-0.0000000000000038
 31
0.0
210
0.0
220
0.0
230
1.0
 40
0.1105579922575787
 41
4.712388980384689
 42
6.283185307179586
  0
LINE
  5
2C2
330
2
100
AcDbEntity
  8
AM_VIS
100
AcDbLine
 10
512.3826059019223
 20
-47.91934584958804
 30
0.0
 11
512.3826059019223
 21
-77.73543609148891
 31
0.0
  0
ELLIPSE
  5
2C3
330
2
100
AcDbEntity
  8
AM_VIS
100
AcDbEllipse
 10
524.1326059019224
 20
-77.73543609148891
 30
0.0
 11
-11.75
 21
-0.0000000000000038
 31
0.0
210
0.0
220
0.0
230
1.0
 40
0.1105579922575787
 41
4.712388980384689
 42
6.283185307179586
  0
LINE
  5
2C4
330
2
100
AcDbEntity
  8
AM_VIS
100
AcDbLine
 10
570.6326059019223
 20
-76.43637968246236
 30
0.0
 11
524.1326059019224
 21
-76.43637968246236
 31
0.0
  0
LINE
  5
2C5
330
2
100
AcDbEntity
  8
AM_VIS
100
AcDbLine
 10
570.6326059019223
 20
-46.62028944056149
 30
0.0
 11
524.1326059019224
 21
-46.62028944056149
 31
0.0
  0
LINE
  5
2C6
330
2
100
AcDbEntity
  8
AM_VIS
100
AcDbLine
 10
512.3826059019223
 20
-77.73543609148891
 30
0.0
 11
512.3826059019223
 21
-82.87638273146631
 31
0.0
  0
ELLIPSE
  5
2C7
330
2
100
AcDbEntity
  8
AM_VIS
100
AcDbEllipse
 10
524.1326059019224
 20
-82.87638273146631
 30
0.0
 11
-11.75
 21
-0.0000000000000038
 31
0.0
210
0.0
220
0.0
230
1.0
 40
0.1105579922575787
 41
0.0
 42
1.570796326794896
  0
LINE
  5
2C8
330
2
100
AcDbEntity
  8
AM_VIS
100
AcDbLine
 10
524.1326059019224
 20
-84.17543914049288
 30
0.0
 11
527.3826059019222
 21
-84.17543914049288
 31
0.0
  0
LINE
  5
2C9
330
2
100
AcDbEntity
  8
AM_VIS
100
AcDbLine
 10
567.3826059019222
 20
-84.17543914049288
 30
0.0
 11
570.6326059019223
 21
-84.17543914049288
 31
0.0
  0
ELLIPSE
  5
2CA
330
2
100
AcDbEntity
  8
AM_VIS
100
AcDbEllipse
 10
570.6326059019223
 20
-82.8763827314663
 30
0.0
 11
-11.75
 21
-0.0000000000000038
 31
0.0
210
0.0
220
0.0
230
1.0
 40
0.1105579922575787
 41
1.570796326794896
 42
3.141592653589792
  0
LINE
  5
2CB
330
2
100
AcDbEntity
  8
AM_VIS
100
AcDbLine
 10
582.3826059019223
 20
-82.8763827314663
 30
0.0
 11
582.3826059019223
 21
-77.73543609148887
 31
0.0
  0
ELLIPSE
  5
2CC
330
2
100
AcDbEntity
  8
AM_VIS
100
AcDbEllipse
 10
570.6326059019223
 20
-77.73543609148887
 30
0.0
 11
-11.75
 21
-0.0000000000000038
 31
0.0
210
0.0
220
0.0
230
1.0
 40
0.1105579922575787
 41
3.141592653589794
 42
4.712388980384689
  0
ELLIPSE
  5
2CD
330
2
100
AcDbEntity
  8
AM_VIS
100
AcDbEllipse
 10
570.6326059019223
 20
-47.91934584958801
 30
0.0
 11
-11.75
 21
-0.0000000000000038
 31
0.0
210
0.0
220
0.0
230
1.0
 40
0.1105579922575787
 41
3.141592653589794
 42
4.712388980384689
  0
LINE
  5
2CE
330
2
100
AcDbEntity
  8
AM_VIS
100
AcDbLine
 10
582.3826059019223
 20
-77.73543609148887
 30
0.0
 11
582.3826059019223
 21
-47.91934584958801
 31
0.0
  0
LINE
  5
2CF
330
2
100
AcDbEntity
  8
AM_VIS
100
AcDbLine
 10
565.6326059019221
 20
179.7056014172411
 30
0.0
 11
563.6326059019221
 21
179.4844854327259
 31
0.0
  0
LINE
  5
2D0
330
2
100
AcDbEntity
  8
AM_VIS
100
AcDbLine
 10
575.6326059019222
 20
179.7056014172411
 30
0.0
 11
565.6326059019221
 21
179.7056014172411
 31
0.0
  0
LINE
  5
2D1
330
2
100
AcDbEntity
  8
AM_VIS
100
AcDbLine
 10
577.6326059019221
 20
179.4844854327259
 30
0.0
 11
575.6326059019222
 21
179.7056014172411
 31
0.0
  0
LINE
  5
2D2
330
2
100
AcDbEntity
  8
AM_VIS
100
AcDbLine
 10
577.6326059019221
 20
188.9233667036908
 30
0.0
 11
577.6326059019221
 21
183.6234966088561
 31
0.0
  0
LINE
  5
2D3
330
2
100
AcDbEntity
  8
AM_VIS
100
AcDbLine
 10
577.6326059019221
 20
183.6234966088561
 30
0.0
 11
577.6326059019221
 21
179.648017909936
 31
0.0
  0
LINE
  5
2D4
330
2
100
AcDbEntity
  8
AM_VIS
100
AcDbLine
 10
577.6326059019221
 20
179.484485432726
 30
0.0
 11
577.6326059019221
 21
179.648017909936
 31
0.0
  0
LINE
  5
2D5
330
2
100
AcDbEntity
  8
AM_VIS
100
AcDbLine
 10
577.6326059019222
 20
151.8979572677185
 30
0.0
 11
577.6326059019222
 21
179.4844854327259
 31
0.0
  0
LINE
  5
2D6
330
2
100
AcDbEntity
  8
AM_VIS
100
AcDbLine
 10
563.6326059019221
 20
179.4844854327259
 30
0.0
 11
563.6326059019221
 21
152.1536455054443
 31
0.0
  0
LINE
  5
2D7
330
2
100
AcDbEntity
  8
AM_VIS
100
AcDbLine
 10
565.6326059019222
 20
152.1536455054443
 30
0.0
 11
565.6326059019222
 21
179.7056014172411
 31
0.0
  0
LINE
  5
2D8
330
2
100
AcDbEntity
  8
AM_VIS
100
AcDbLine
 10
575.6326059019222
 20
179.7056014172411
 30
0.0
 11
575.6326059019222
 21
152.0301616431082
 31
0.0
  0
LINE
  5
2D9
330
2
100
AcDbEntity
  8
AM_VIS
100
AcDbLine
 10
563.6326059019221
 20
179.648017909936
 30
0.0
 11
563.6326059019221
 21
179.484485432726
 31
0.0
  0
LINE
  5
2DA
330
2
100
AcDbEntity
  8
AM_VIS
100
AcDbLine
 10
563.6326059019221
 20
179.648017909936
 30
0.0
 11
563.6326059019221
 21
183.6234966088561
 31
0.0
  0
LINE
  5
2DB
330
2
100
AcDbEntity
  8
AM_VIS
100
AcDbLine
 10
563.6326059019221
 20
183.6234966088561
 30
0.0
 11
563.6326059019221
 21
188.9233667036908
 31
0.0
  0
LINE
  5
2DC
330
2
100
AcDbEntity
  8
AM_VIS
100
AcDbLine
 10
577.6326059019221
 20
183.6234966088561
 30
0.0
 11
563.6326059019221
 21
183.6234966088561
 31
0.0
  0
LINE
  5
2DD
330
2
100
AcDbEntity
  8
AM_VIS
100
AcDbLine
 10
563.6326059019221
 20
188.9233667036908
 30
0.0
 11
577.6326059019221
 21
188.9233667036908
 31
0.0
  0
LINE
  5
2DE
330
2
100
AcDbEntity
  8
AM_VIS
100
AcDbLine
 10
531.1326059019221
 20
179.4844854327259
 30
0.0
 11
529.1326059019221
 21
179.7056014172411
 31
0.0
  0
LINE
  5
2DF
330
2
100
AcDbEntity
  8
AM_VIS
100
AcDbLine
 10
519.1326059019221
 20
179.7056014172411
 30
0.0
 11
517.1326059019221
 21
179.4844854327259
 31
0.0
  0
LINE
  5
2E0
330
2
100
AcDbEntity
  8
AM_VIS
100
AcDbLine
 10
529.1326059019221
 20
179.7056014172411
 30
0.0
 11
519.1326059019221
 21
179.7056014172411
 31
0.0
  0
LINE
  5
2E1
330
2
100
AcDbEntity
  8
AM_VIS
100
AcDbLine
 10
529.1326059019221
 20
179.7056014172411
 30
0.0
 11
529.1326059019221
 21
152.1536455054443
 31
0.0
  0
LINE
  5
2E2
330
2
100
AcDbEntity
  8
AM_VIS
100
AcDbLine
 10
531.1326059019222
 20
152.1536455054443
 30
0.0
 11
531.1326059019222
 21
179.4844854327259
 31
0.0
  0
LINE
  5
2E3
330
2
100
AcDbEntity
  8
AM_VIS
100
AcDbLine
 10
519.1326059019221
 20
152.0301616431082
 30
0.0
 11
519.1326059019221
 21
179.7056014172411
 31
0.0
  0
LINE
  5
2E4
330
2
100
AcDbEntity
  8
AM_VIS
100
AcDbLine
 10
517.1326059019221
 20
179.4844854327259
 30
0.0
 11
517.1326059019221
 21
151.8979572677185
 31
0.0
  0
LINE
  5
2E5
330
2
100
AcDbEntity
  8
AM_VIS
100
AcDbLine
 10
517.1326059019221
 20
179.648017909936
 30
0.0
 11
517.1326059019221
 21
179.484485432726
 31
0.0
  0
LINE
  5
2E6
330
2
100
AcDbEntity
  8
AM_VIS
100
AcDbLine
 10
517.1326059019221
 20
179.648017909936
 30
0.0
 11
517.1326059019221
 21
183.6234966088561
 31
0.0
  0
LINE
  5
2E7
330
2
100
AcDbEntity
  8
AM_VIS
100
AcDbLine
 10
517.1326059019221
 20
183.6234966088561
 30
0.0
 11
517.1326059019221
 21
188.9233667036908
 31
0.0
  0
LINE
  5
2E8
330
2
100
AcDbEntity
  8
AM_VIS
100
AcDbLine
 10
531.1326059019221
 20
188.9233667036908
 30
0.0
 11
531.1326059019221
 21
183.6234966088561
 31
0.0
  0
LINE
  5
2E9
330
2
100
AcDbEntity
  8
AM_VIS
100
AcDbLine
 10
531.1326059019221
 20
183.6234966088561
 30
0.0
 11
531.1326059019221
 21
179.648017909936
 31
0.0
  0
LINE
  5
2EA
330
2
100
AcDbEntity
  8
AM_VIS
100
AcDbLine
 10
531.1326059019221
 20
179.484485432726
 30
0.0
 11
531.1326059019221
 21
179.648017909936
 31
0.0
  0
LINE
  5
2EB
330
2
100
AcDbEntity
  8
AM_VIS
100
AcDbLine
 10
517.1326059019221
 20
188.9233667036908
 30
0.0
 11
531.1326059019221
 21
188.9233667036908
 31
0.0
  0
LINE
  5
2EC
330
2
100
AcDbEntity
  8
AM_VIS
100
AcDbLine
 10
517.1326059019221
 20
183.6234966088561
 30
0.0
 11
531.1326059019221
 21
183.6234966088561
 31
0.0
  0
ELLIPSE
  5
2ED
330
2
100
AcDbEntity
  8
AM_VIS
100
AcDbEllipse
 10
523.8826059019222
 20
121.0661383525812
 30
0.0
 11
-11.5
 21
-0.0000000000000037
 31
0.0
210
0.0
220
0.0
230
1.0
 40
0.1105579922575787
 41
4.712388980384689
 42
6.283185307179586
  0
LINE
  5
2EE
330
2
100
AcDbEntity
  8
AM_VIS
100
AcDbLine
 10
523.8826059019222
 20
122.3375552635434
 30
0.0
 11
530.8826059019223
 21
122.3375552635434
 31
0.0
  0
ELLIPSE
  5
2EF
330
2
100
AcDbEntity
  8
AM_VIS
100
AcDbEllipse
 10
530.8826059019221
 20
122.171718275157
 30
0.0
 11
-1.5
 21
-0.0000000000000005
 31
0.0
210
0.0
220
0.0
230
1.0
 40
0.1105579922575787
 41
3.141592653589794
 42
4.712388980384689
  0
ELLIPSE
  5
2F0
330
2
100
AcDbEntity
  8
AM_VIS
100
AcDbEllipse
 10
533.8826059019221
 20
121.9506022906418
 30
0.0
 11
-1.5
 21
-0.0000000000000005
 31
0.0
210
0.0
220
0.0
230
1.0
 40
0.1105579922575787
 41
0.0
 42
1.570796326794896
  0
LINE
  5
2F1
330
2
100
AcDbEntity
  8
AM_VIS
100
AcDbLine
 10
533.8826059019221
 20
121.7847653022555
 30
0.0
 11
540.8826059019221
 21
121.7847653022555
 31
0.0
  0
ELLIPSE
  5
2F2
330
2
100
AcDbEntity
  8
AM_VIS
100
AcDbEllipse
 10
540.8826059019222
 20
121.9506022906418
 30
0.0
 11
-1.5
 21
-0.0000000000000005
 31
0.0
210
0.0
220
0.0
230
1.0
 40
0.1105579922575787
 41
1.570796326794896
 42
3.141592653589792
  0
ELLIPSE
  5
2F3
330
2
100
AcDbEntity
  8
AM_VIS
100
AcDbEllipse
 10
543.8826059019223
 20
122.171718275157
 30
0.0
 11
-1.5
 21
-0.0000000000000005
 31
0.0
210
0.0
220
0.0
230
1.0
 40
0.1105579922575787
 41
4.712388980384689
 42
6.283185307179586
  0
LINE
  5
2F4
330
2
100
AcDbEntity
  8
AM_VIS
100
AcDbLine
 10
543.8826059019223
 20
122.3375552635434
 30
0.0
 11
550.8826059019222
 21
122.3375552635434
 31
0.0
  0
ELLIPSE
  5
2F5
330
2
100
AcDbEntity
  8
AM_VIS
100
AcDbEllipse
 10
550.8826059019222
 20
122.171718275157
 30
0.0
 11
-1.5
 21
-0.0000000000000005
 31
0.0
210
0.0
220
0.0
230
1.0
 40
0.1105579922575787
 41
3.141592653589794
 42
4.712388980384689
  0
ELLIPSE
  5
2F6
330
2
100
AcDbEntity
  8
AM_VIS
100
AcDbEllipse
 10
553.8826059019222
 20
121.9506022906419
 30
0.0
 11
-1.5
 21
-0.0000000000000005
 31
0.0
210
0.0
220
0.0
230
1.0
 40
0.1105579922575787
 41
0.0
 42
1.570796326794896
  0
LINE
  5
2F7
330
2
100
AcDbEntity
  8
AM_VIS
100
AcDbLine
 10
553.8826059019222
 20
121.7847653022555
 30
0.0
 11
560.8826059019222
 21
121.7847653022555
 31
0.0
  0
ELLIPSE
  5
2F8
330
2
100
AcDbEntity
  8
AM_VIS
100
AcDbEllipse
 10
560.8826059019222
 20
121.9506022906419
 30
0.0
 11
-1.5
 21
-0.0000000000000005
 31
0.0
210
0.0
220
0.0
230
1.0
 40
0.1105579922575787
 41
1.570796326794896
 42
3.141592653589792
  0
ELLIPSE
  5
2F9
330
2
100
AcDbEntity
  8
AM_VIS
100
AcDbEllipse
 10
563.8826059019222
 20
122.171718275157
 30
0.0
 11
-1.5
 21
-0.0000000000000005
 31
0.0
210
0.0
220
0.0
230
1.0
 40
0.1105579922575787
 41
4.712388980384689
 42
6.283185307179586
  0
LINE
  5
2FA
330
2
100
AcDbEntity
  8
AM_VIS
100
AcDbLine
 10
563.8826059019222
 20
122.3375552635434
 30
0.0
 11
570.8826059019222
 21
122.3375552635434
 31
0.0
  0
ELLIPSE
  5
2FB
330
2
100
AcDbEntity
  8
AM_VIS
100
AcDbEllipse
 10
570.8826059019222
 20
121.0661383525812
 30
0.0
 11
-11.5
 21
-0.0000000000000037
 31
0.0
210
0.0
220
0.0
230
1.0
 40
0.1105579922575787
 41
3.141592653589794
 42
4.712388980384689
  0
LINE
  5
2FC
330
2
100
AcDbEntity
  8
AM_VIS
100
AcDbLine
 10
532.3826059019222
 20
-46.62028944056155
 30
0.0
 11
532.3826059019222
 21
122.171718275157
 31
0.0
  0
LINE
  5
2FD
330
2
100
AcDbEntity
  8
AM_VIS
100
AcDbLine
 10
523.8826059019222
 20
-46.62028944056146
 30
0.0
 11
530.8826059019223
 21
-46.62028944056146
 31
0.0
  0
LINE
  5
2FE
330
2
100
AcDbEntity
  8
AM_VIS
100
AcDbLine
 10
542.3826059019222
 20
122.171718275157
 30
0.0
 11
542.3826059019222
 21
-46.62028944056163
 31
0.0
  0
LINE
  5
2FF
330
2
100
AcDbEntity
  8
AM_VIS
100
AcDbLine
 10
552.3826059019222
 20
-46.62028944056157
 30
0.0
 11
552.3826059019222
 21
122.171718275157
 31
0.0
  0
LINE
  5
300
330
2
100
AcDbEntity
  8
AM_VIS
100
AcDbLine
 10
562.3826059019222
 20
122.171718275157
 30
0.0
 11
562.3826059019222
 21
-46.6202894405616
 31
0.0
  0
ELLIPSE
  5
301
330
2
100
AcDbEntity
  8
AM_VIS
100
AcDbEllipse
 10
570.8826059019222
 20
-47.89170635152356
 30
0.0
 11
-11.5
 21
-0.0000000000000037
 31
0.0
210
0.0
220
0.0
230
1.0
 40
0.1105579922575787
 41
3.141592653589792
 42
4.712388980384689
  0
LINE
  5
302
330
2
100
AcDbEntity
  8
AM_VIS
100
AcDbLine
 10
582.3826059019222
 20
-47.89170635152359
 30
0.0
 11
582.3826059019222
 21
121.0661383525813
 31
0.0
  0
LINE
  5
303
330
2
100
AcDbEntity
  8
AM_VIS
100
AcDbLine
 10
563.8826059019222
 20
-46.62028944056146
 30
0.0
 11
570.8826059019222
 21
-46.62028944056146
 31
0.0
  0
ELLIPSE
  5
304
330
2
100
AcDbEntity
  8
AM_VIS
100
AcDbEllipse
 10
523.8826059019222
 20
-47.89170635152362
 30
0.0
 11
-11.5
 21
-0.0000000000000037
 31
0.0
210
0.0
220
0.0
230
1.0
 40
0.1105579922575787
 41
4.712388980384689
 42
6.283185307179586
  0
LINE
  5
305
330
2
100
AcDbEntity
  8
AM_VIS
100
AcDbLine
 10
512.3826059019222
 20
121.0661383525812
 30
0.0
 11
512.3826059019222
 21
-47.89170635152362
 31
0.0
  0
LINE
  5
306
330
2
100
AcDbEntity
  8
AM_VIS
100
AcDbLine
 10
512.3826059019222
 20
-47.91934584958804
 30
0.0
 11
512.3826059019222
 21
-47.89170635152365
 31
0.0
  0
LINE
  5
307
330
2
100
AcDbEntity
  8
AM_VIS
100
AcDbLine
 10
543.8826059019223
 20
-46.62028944056146
 30
0.0
 11
550.8826059019222
 21
-46.62028944056146
 31
0.0
  0
LINE
  5
308
330
2
100
AcDbEntity
  8
AM_VIS
100
AcDbLine
 10
582.3826059019222
 20
-47.89170635152359
 30
0.0
 11
582.3826059019222
 21
-47.91934584958801
 31
0.0
  0
LINE
  5
309
330
2
100
AcDbEntity
  8
AM_VIS
100
AcDbLine
 10
563.6326059019221
 20
161.5395522914567
 30
0.0
 11
531.1326059019221
 21
161.5395522914566
 31
0.0
  0
LINE
  5
30A
330
2
100
AcDbEntity
  8
AM_VIS
100
AcDbLine
 10
531.3826059019223
 20
161.5395522914566
 30
0.0
 11
531.3826059019223
 21
161.6478057725379
 31
0.0
  0
LINE
  5
30B
330
2
100
AcDbEntity
  8
AM_VIS
100
AcDbLine
 10
531.3826059019223
 20
161.6478057725379
 30
0.0
 11
531.3826059019223
 21
176.5558508934883
 31
0.0
  0
LINE
  5
30C
330
2
100
AcDbEntity
  8
AM_VIS
100
AcDbLine
 10
563.3826059019222
 20
161.6478057725379
 30
0.0
 11
563.3826059019222
 21
161.5395522914567
 31
0.0
  0
LINE
  5
30D
330
2
100
AcDbEntity
  8
AM_VIS
100
AcDbLine
 10
531.3826059019221
 20
188.1185969941398
 30
0.0
 11
531.3826059019221
 21
176.5558508934883
 31
0.0
  0
LINE
  5
30E
330
2
100
AcDbEntity
  8
AM_VIS
100
AcDbLine
 10
563.3826059019222
 20
176.5558508934883
 30
0.0
 11
563.3826059019222
 21
161.6478057725379
 31
0.0
  0
LINE
  5
30F
330
2
100
AcDbEntity
  8
AM_VIS
100
AcDbLine
 10
563.3826059019222
 20
176.5558508934883
 30
0.0
 11
563.3826059019222
 21
188.1185969941398
 31
0.0
  0
LINE
  5
310
330
2
100
AcDbEntity
  8
AM_VIS
100
AcDbLine
 10
563.6326059019221
 20
188.1185969941398
 30
0.0
 11
563.3826059019221
 21
188.1185969941398
 31
0.0
  0
LINE
  5
311
330
2
100
AcDbEntity
  8
AM_VIS
100
AcDbLine
 10
531.3826059019221
 20
188.1185969941398
 30
0.0
 11
531.1326059019221
 21
188.1185969941398
 31
0.0
  0
SPLINE
  5
312
330
2
100
AcDbEntity
  8
AM_VIS
100
AcDbSpline
210
0.0
220
0.0
230
1.0
 70
    12
 71
     2
 72
     6
 73
     3
 74
     0
 42
0.0000000001
 43
0.0000000001
 40
3.513108976624989
 40
3.513108976624989
 40
3.513108976624989
 40
10.94354183627146
 40
10.94354183627146
 40
10.94354183627146
 10
567.0898656842044
 20
287.6185969941394
 30
0.0
 41
1.27461320283873
 10
566.7031143157159
 20
285.1185968484363
 30
0.0
 41
1.471796511733411
 10
567.0898655038816
 20
282.6185969941395
 30
0.0
 41
1.274613282458267
  0
LINE
  5
313
330
2
100
AcDbEntity
  8
AM_VIS
100
AcDbLine
 10
567.0898655038816
 20
282.6185969941395
 30
0.0
 11
570.675346299962
 21
282.6185969941395
 31
0.0
  0
SPLINE
  5
314
330
2
100
AcDbEntity
  8
AM_VIS
100
AcDbSpline
210
0.0
220
0.0
230
1.0
 70
    12
 71
     2
 72
     6
 73
     3
 74
     0
 42
0.0000000001
 43
0.0000000001
 40
3.513110476771645
 40
3.513110476771645
 40
3.513110476771645
 40
10.94354333641804
 40
10.94354333641804
 40
10.94354333641804
 10
570.675346299962
 20
282.6185969941395
 30
0.0
 41
1.27461328245827
 10
571.0620974881276
 20
285.1185968484363
 30
0.0
 41
1.471796511733409
 10
570.6753461196392
 20
287.6185969941394
 30
0.0
 41
1.274613202838732
  0
LINE
  5
315
330
2
100
AcDbEntity
  8
AM_VIS
100
AcDbLine
 10
567.0898656842044
 20
287.6185969941394
 30
0.0
 11
570.6753461196391
 21
287.6185969941394
 31
0.0
  0
SPLINE
  5
316
330
2
100
AcDbEntity
  8
AM_VIS
100
AcDbSpline
210
0.0
220
0.0
230
1.0
 70
    28
 71
     2
 72
     6
 73
     3
 74
     0
 42
0.0000000001
 43
0.0000000001
 40
3.805110778761527
 40
3.805110778761527
 40
3.805110778761527
 40
7.239048164719878
 40
7.239048164719878
 40
7.239048164719878
 10
567.0898655038816
 20
282.6185969941395
 30
0.0
 41
1.085693285370878
 10
566.8826059019218
 20
282.6185969941395
 30
0.0
 41
1.081513766124146
 10
566.8826059019218
 20
282.6185969941395
 30
0.0
 41
1.0
  0
SPLINE
  5
317
330
2
100
AcDbEntity
  8
AM_VIS
100
AcDbSpline
210
0.0
220
0.0
230
1.0
 70
    28
 71
     2
 72
     6
 73
     3
 74
     0
 42
0.0000000001
 43
0.0000000001
 40
7.239048164719878
 40
7.239048164719878
 40
7.239048164719878
 40
10.67298555067823
 40
10.67298555067823
 40
10.67298555067823
 10
570.8826059019218
 20
282.6185969941395
 30
0.0
 41
1.0
 10
570.8826059019218
 20
282.6185969941395
 30
0.0
 41
1.081513766124174
 10
570.675346299962
 20
282.6185969941395
 30
0.0
 41
1.085693285370906
  0
SPLINE
  5
318
330
2
100
AcDbEntity
  8
AM_VIS
100
AcDbSpline
210
0.0
220
0.0
230
1.0
 70
    12
 71
     2
 72
     6
 73
     3
 74
     0
 42
0.0000000001
 43
0.0000000001
 40
3.513110476771644
 40
3.513110476771644
 40
3.513110476771644
 40
10.94354333641812
 40
10.94354333641812
 40
10.94354333641812
 10
567.0898655038816
 20
292.6185969941394
 30
0.0
 41
1.27461328245827
 10
566.7031143157159
 20
290.1185971398425
 30
0.0
 41
1.471796511733411
 10
567.0898656842044
 20
287.6185969941394
 30
0.0
 41
1.274613202838728
  0
SPLINE
  5
319
330
2
100
AcDbEntity
  8
AM_VIS
100
AcDbSpline
210
0.0
220
0.0
230
1.0
 70
    12
 71
     2
 72
     6
 73
     3
 74
     0
 42
0.0000000001
 43
0.0000000001
 40
3.513108976624988
 40
3.513108976624988
 40
3.513108976624988
 40
10.94354183627143
 40
10.94354183627143
 40
10.94354183627143
 10
570.6753461196392
 20
287.6185969941394
 30
0.0
 41
1.27461320283873
 10
571.0620974881276
 20
290.1185971398425
 30
0.0
 41
1.47179651173341
 10
570.675346299962
 20
292.6185969941394
 30
0.0
 41
1.274613282458269
  0
LINE
  5
31A
330
2
100
AcDbEntity
  8
AM_VIS
100
AcDbLine
 10
567.0898655038816
 20
292.6185969941394
 30
0.0
 11
570.675346299962
 21
292.6185969941394
 31
0.0
  0
SPLINE
  5
31B
330
2
100
AcDbEntity
  8
AM_VIS
100
AcDbSpline
210
0.0
220
0.0
230
1.0
 70
    28
 71
     2
 72
     6
 73
     3
 74
     0
 42
0.0000000001
 43
0.0000000001
 40
7.239048164719878
 40
7.239048164719878
 40
7.239048164719878
 40
10.67298555067821
 40
10.67298555067821
 40
10.67298555067821
 10
566.8826059019218
 20
292.6185969941394
 30
0.0
 41
1.0
 10
566.8826059019218
 20
292.6185969941394
 30
0.0
 41
1.081513766124146
 10
567.0898655038816
 20
292.6185969941394
 30
0.0
 41
1.085693285370878
  0
SPLINE
  5
31C
330
2
100
AcDbEntity
  8
AM_VIS
100
AcDbSpline
210
0.0
220
0.0
230
1.0
 70
    28
 71
     2
 72
     6
 73
     3
 74
     0
 42
0.0000000001
 43
0.0000000001
 40
3.80511077876152
 40
3.80511077876152
 40
3.80511077876152
 40
7.239048164719878
 40
7.239048164719878
 40
7.239048164719878
 10
570.675346299962
 20
292.6185969941394
 30
0.0
 41
1.085693285370907
 10
570.8826059019218
 20
292.6185969941394
 30
0.0
 41
1.081513766124174
 10
570.8826059019218
 20
292.6185969941394
 30
0.0
 41
1.0
  0
LINE
  5
31D
330
2
100
AcDbEntity
  8
AM_VIS
100
AcDbLine
 10
570.8826059019218
 20
292.6185969941394
 30
0.0
 11
570.8826059019218
 21
282.6185969941395
 31
0.0
  0
LINE
  5
31E
330
2
100
AcDbEntity
  8
AM_VIS
100
AcDbLine
 10
524.6326059019217
 20
282.1185969941394
 30
0.0
 11
524.6326059019217
 21
293.1185969941394
 31
0.0
  0
LINE
  5
31F
330
2
100
AcDbEntity
  8
AM_VIS
100
AcDbLine
 10
525.1326059019218
 20
293.6185969941394
 30
0.0
 11
525.1326059019218
 21
281.6185969941394
 31
0.0
  0
LINE
  5
320
330
2
100
AcDbEntity
  8
AM_VIS
100
AcDbLine
 10
574.3826059019218
 20
283.6185969941394
 30
0.0
 11
574.3826059019218
 21
291.6185969941394
 31
0.0
  0
LINE
  5
321
330
2
100
AcDbEntity
  8
AM_VIS
100
AcDbLine
 10
575.3826059019218
 20
290.6185969941394
 30
0.0
 11
575.3826059019218
 21
284.6185969941394
 31
0.0
  0
LINE
  5
322
330
2
100
AcDbEntity
  8
AM_VIS
100
AcDbLine
 10
524.6326059019217
 20
293.1185969941394
 30
0.0
 11
525.1326059019218
 21
293.6185969941394
 31
0.0
  0
LINE
  5
323
330
2
100
AcDbEntity
  8
AM_VIS
100
AcDbLine
 10
524.6326059019217
 20
282.1185969941394
 30
0.0
 11
525.1326059019218
 21
281.6185969941394
 31
0.0
  0
LINE
  5
324
330
2
100
AcDbEntity
  8
AM_VIS
100
AcDbLine
 10
525.1326059019218
 20
293.6185969941394
 30
0.0
 11
527.8826059019218
 21
293.6185969941394
 31
0.0
  0
LINE
  5
325
330
2
100
AcDbEntity
  8
AM_VIS
100
AcDbLine
 10
525.1326059019218
 20
281.6185969941394
 30
0.0
 11
527.8826059019218
 21
281.6185969941394
 31
0.0
  0
LINE
  5
326
330
2
100
AcDbEntity
  8
AM_VIS
100
AcDbLine
 10
575.3826059019218
 20
284.6185969941394
 30
0.0
 11
574.3826059019218
 21
283.6185969941394
 31
0.0
  0
LINE
  5
327
330
2
100
AcDbEntity
  8
AM_VIS
100
AcDbLine
 10
575.3826059019218
 20
290.6185969941394
 30
0.0
 11
574.3826059019218
 21
291.6185969941394
 31
0.0
  0
LINE
  5
328
330
2
100
AcDbEntity
  8
AM_VIS
100
AcDbLine
 10
570.8826059019218
 20
291.6185969941394
 30
0.0
 11
574.3826059019218
 21
291.6185969941394
 31
0.0
  0
LINE
  5
329
330
2
100
AcDbEntity
  8
AM_VIS
100
AcDbLine
 10
570.8826059019218
 20
283.6185969941394
 30
0.0
 11
574.3826059019218
 21
283.6185969941394
 31
0.0
  0
LINE
  5
32A
330
2
100
AcDbEntity
  8
AM_VIS
100
AcDbLine
 10
229.7383577988547
 20
494.1179912168813
 30
0.0
 11
224.50202838508
 21
494.1179912168813
 31
0.0
  0
LINE
  5
32B
330
2
100
AcDbEntity
  8
AM_VIS
100
AcDbLine
 10
160.1383577988546
 20
500.1179912168813
 30
0.0
 11
160.1383577988546
 21
494.1179912168813
 31
0.0
  0
LINE
  5
32C
330
2
100
AcDbEntity
  8
AM_VIS
100
AcDbLine
 10
160.1383577988546
 20
494.1179912168813
 30
0.0
 11
165.5038373969619
 21
494.1179912168813
 31
0.0
  0
LINE
  5
32D
330
2
100
AcDbEntity
  8
AM_VIS
100
AcDbLine
 10
207.7220755236762
 20
494.1179912168813
 30
0.0
 11
205.0699616762067
 21
494.1179912168813
 31
0.0
  0
LINE
  5
32E
330
2
100
AcDbEntity
  8
AM_VIS
100
AcDbLine
 10
207.7220755236762
 20
494.1179912168813
 30
0.0
 11
224.50202838508
 21
494.1179912168813
 31
0.0
  0
LINE
  5
32F
330
2
100
AcDbEntity
  8
AM_VIS
100
AcDbLine
 10
229.7383577988547
 20
500.1179912168813
 30
0.0
 11
229.7383577988547
 21
494.1179912168813
 31
0.0
  0
LINE
  5
330
330
2
100
AcDbEntity
  8
AM_VIS
100
AcDbLine
 10
229.7383577988547
 20
518.1179912168813
 30
0.0
 11
224.50202838508
 21
518.1179912168813
 31
0.0
  0
LINE
  5
331
330
2
100
AcDbEntity
  8
AM_VIS
100
AcDbLine
 10
160.1383577988546
 20
518.1179912168813
 30
0.0
 11
160.1383577988546
 21
512.1179912168813
 31
0.0
  0
LINE
  5
332
330
2
100
AcDbEntity
  8
AM_VIS
100
AcDbLine
 10
160.1383577988546
 20
518.1179912168813
 30
0.0
 11
165.5038373969619
 21
518.1179912168813
 31
0.0
  0
LINE
  5
333
330
2
100
AcDbEntity
  8
AM_VIS
100
AcDbLine
 10
207.7220755236762
 20
518.1179912168813
 30
0.0
 11
205.0699616762067
 21
518.1179912168813
 31
0.0
  0
LINE
  5
334
330
2
100
AcDbEntity
  8
AM_VIS
100
AcDbLine
 10
207.7220755236762
 20
518.1179912168813
 30
0.0
 11
224.50202838508
 21
518.1179912168813
 31
0.0
  0
LINE
  5
335
330
2
100
AcDbEntity
  8
AM_VIS
100
AcDbLine
 10
229.7383577988547
 20
518.1179912168813
 30
0.0
 11
229.7383577988547
 21
512.1179912168813
 31
0.0
  0
LINE
  5
336
330
2
100
AcDbEntity
  8
AM_VIS
100
AcDbLine
 10
154.1383577988546
 20
546.1179912168813
 30
0.0
 11
154.1383577988546
 21
512.1179912168813
 31
0.0
  0
LINE
  5
337
330
2
100
AcDbEntity
  8
AM_VIS
100
AcDbLine
 10
154.1383577988546
 20
500.1179912168813
 30
0.0
 11
154.1383577988546
 21
466.1179912168813
 31
0.0
  0
LINE
  5
338
330
2
100
AcDbEntity
  8
AM_VIS
100
AcDbLine
 10
160.1383577988546
 20
546.1179912168813
 30
0.0
 11
160.1383577988546
 21
518.1179912168813
 31
0.0
  0
LINE
  5
339
330
2
100
AcDbEntity
  8
AM_VIS
100
AcDbLine
 10
160.1383577988546
 20
494.1179912168813
 30
0.0
 11
160.1383577988546
 21
466.1179912168813
 31
0.0
  0
LINE
  5
33A
330
2
100
AcDbEntity
  8
AM_VIS
100
AcDbLine
 10
154.1383577988546
 20
461.1179912168814
 30
0.0
 11
154.1383577988546
 21
466.1179912168813
 31
0.0
  0
LINE
  5
33B
330
2
100
AcDbEntity
  8
AM_VIS
100
AcDbLine
 10
160.1383577988546
 20
461.1179912168814
 30
0.0
 11
154.1383577988546
 21
461.1179912168814
 31
0.0
  0
LINE
  5
33C
330
2
100
AcDbEntity
  8
AM_VIS
100
AcDbLine
 10
160.1383577988546
 20
461.1179912168814
 30
0.0
 11
160.1383577988546
 21
466.1179912168813
 31
0.0
  0
LINE
  5
33D
330
2
100
AcDbEntity
  8
AM_VIS
100
AcDbLine
 10
160.1383577988546
 20
551.1179912168813
 30
0.0
 11
154.1383577988546
 21
551.1179912168813
 31
0.0
  0
LINE
  5
33E
330
2
100
AcDbEntity
  8
AM_VIS
100
AcDbLine
 10
154.1383577988546
 20
546.1179912168813
 30
0.0
 11
154.1383577988546
 21
551.1179912168813
 31
0.0
  0
LINE
  5
33F
330
2
100
AcDbEntity
  8
AM_VIS
100
AcDbLine
 10
160.1383577988546
 20
546.1179912168813
 30
0.0
 11
160.1383577988546
 21
551.1179912168813
 31
0.0
  0
ELLIPSE
  5
340
330
2
100
AcDbEntity
  8
AM_VIS
100
AcDbEllipse
 10
239.8774841625791
 20
483.3479912168813
 30
0.0
 11
-0.0000000000000015
 21
-14.34
 31
0.0
210
0.0
220
0.0
230
1.0
 40
0.9063077870366498
 41
4.712388980384689
 42
6.283185307179586
  0
ELLIPSE
  5
341
330
2
100
AcDbEntity
  8
AM_VIS
100
AcDbEllipse
 10
227.1989363103581
 20
483.3479912168813
 30
0.0
 11
-0.0000000000000015
 21
-14.34
 31
0.0
210
0.0
220
0.0
230
1.0
 40
0.9063077870366498
 41
4.712388980384689
 42
6.283185307179586
  0
LINE
  5
342
330
2
100
AcDbEntity
  8
AM_VIS
100
AcDbLine
 10
227.1989363103581
 20
469.0079912168813
 30
0.0
 11
239.8774841625791
 21
469.0079912168813
 31
0.0
  0
LINE
  5
343
330
2
100
AcDbEntity
  8
AM_VIS
100
AcDbLine
 10
226.8810304964735
 20
528.8679912168813
 30
0.0
 11
226.8810304964735
 21
518.1179912168813
 31
0.0
  0
LINE
  5
344
330
2
100
AcDbEntity
  8
AM_VIS
100
AcDbLine
 10
226.8810304964735
 20
494.1179912168813
 30
0.0
 11
226.8810304964735
 21
483.3479912168813
 31
0.0
  0
LINE
  5
345
330
2
100
AcDbEntity
  8
AM_VIS
100
AcDbLine
 10
214.2024826442525
 20
528.8679912168813
 30
0.0
 11
214.2024826442525
 21
518.1179912168813
 31
0.0
  0
LINE
  5
346
330
2
100
AcDbEntity
  8
AM_VIS
100
AcDbLine
 10
214.2024826442525
 20
494.1179912168813
 30
0.0
 11
214.2024826442525
 21
483.3479912168813
 31
0.0
  0
LINE
  5
347
330
2
100
AcDbEntity
  8
AM_VIS
100
AcDbLine
 10
239.8774841625791
 20
469.0079912168813
 30
0.0
 11
276.2748048899709
 21
469.0079912168813
 31
0.0
  0
LINE
  5
348
330
2
100
AcDbEntity
  8
AM_VIS
100
AcDbLine
 10
276.2748048899709
 20
475.3679912168813
 30
0.0
 11
239.877484162579
 21
475.3679912168813
 31
0.0
  0
ELLIPSE
  5
349
330
2
100
AcDbEntity
  8
AM_VIS
100
AcDbEllipse
 10
239.8774841625791
 20
483.3679912168813
 30
0.0
 11
-0.0000000000000008
 21
-7.999999999999999
 31
0.0
210
0.0
220
0.0
230
1.0
 40
0.90630778703665
 41
4.712388980384689
 42
6.283185307179586
  0
LINE
  5
34A
330
2
100
AcDbEntity
  8
AM_VIS
100
AcDbLine
 10
232.6270218662859
 20
483.3679912168813
 30
0.0
 11
232.6270218662859
 21
500.1179912168813
 31
0.0
  0
LINE
  5
34B
330
2
100
AcDbEntity
  8
AM_VIS
100
AcDbLine
 10
232.6270218662859
 20
512.1179912168813
 30
0.0
 11
232.6270218662859
 21
528.8679912168813
 31
0.0
  0
ELLIPSE
  5
34C
330
2
100
AcDbEntity
  8
AM_VIS
100
AcDbEllipse
 10
239.8774841625791
 20
528.8679912168813
 30
0.0
 11
-0.0000000000000008
 21
-7.999999999999998
 31
0.0
210
0.0
220
0.0
230
1.0
 40
0.90630778703665
 41
3.141592653589793
 42
4.712388980384689
  0
LINE
  5
34D
330
2
100
AcDbEntity
  8
AM_VIS
100
AcDbLine
 10
239.8774841625791
 20
536.8679912168813
 30
0.0
 11
276.2748048899709
 21
536.8679912168813
 31
0.0
  0
LINE
  5
34E
330
2
100
AcDbEntity
  8
AM_VIS
100
AcDbLine
 10
239.8774841625791
 20
543.2079912168814
 30
0.0
 11
276.274804889971
 21
543.2079912168814
 31
0.0
  0
ELLIPSE
  5
34F
330
2
100
AcDbEntity
  8
AM_VIS
100
AcDbEllipse
 10
239.8774841625791
 20
528.8679912168813
 30
0.0
 11
-0.0000000000000015
 21
-14.34
 31
0.0
210
0.0
220
0.0
230
1.0
 40
0.9063077870366498
 41
3.141592653589793
 42
4.712388980384689
  0
LINE
  5
350
330
2
100
AcDbEntity
  8
AM_VIS
100
AcDbLine
 10
239.8774841625791
 20
543.2079912168814
 30
0.0
 11
227.1989363103581
 21
543.2079912168814
 31
0.0
  0
ELLIPSE
  5
351
330
2
100
AcDbEntity
  8
AM_VIS
100
AcDbEllipse
 10
227.1989363103581
 20
528.8679912168813
 30
0.0
 11
-0.0000000000000015
 21
-14.34
 31
0.0
210
0.0
220
0.0
230
1.0
 40
0.9063077870366498
 41
3.141592653589791
 42
4.712388980384689
  0
LINE
  5
352
330
2
100
AcDbEntity
  8
AM_VIS
100
AcDbLine
 10
284.9355309638605
 20
543.2079912168814
 30
0.0
 11
276.2748048899709
 21
543.2079912168814
 31
0.0
  0
LINE
  5
353
330
2
100
AcDbEntity
  8
AM_VIS
100
AcDbLine
 10
284.9355309638605
 20
536.8679912168813
 30
0.0
 11
276.2748048899709
 21
536.8679912168813
 31
0.0
  0
LINE
  5
354
330
2
100
AcDbEntity
  8
AM_VIS
100
AcDbLine
 10
276.2748048899709
 20
475.3679912168813
 30
0.0
 11
284.9355309638604
 21
475.3679912168813
 31
0.0
  0
LINE
  5
355
330
2
100
AcDbEntity
  8
AM_VIS
100
AcDbLine
 10
284.9355309638605
 20
469.0079912168813
 30
0.0
 11
276.2748048899709
 21
469.0079912168813
 31
0.0
  0
LINE
  5
356
330
2
100
AcDbEntity
  8
AM_VIS
100
AcDbLine
 10
284.9355309638605
 20
543.2079912168814
 30
0.0
 11
284.9355309638605
 21
536.8679912168813
 31
0.0
  0
LINE
  5
357
330
2
100
AcDbEntity
  8
AM_VIS
100
AcDbLine
 10
284.9355309638605
 20
475.3679912168813
 30
0.0
 11
284.9355309638605
 21
469.0079912168813
 31
0.0
  0
LINE
  5
358
330
2
100
AcDbEntity
  8
AM_VIS
100
AcDbLine
 10
191.9421838200096
 20
512.1179912168813
 30
0.0
 11
166.5651347816033
 21
512.1179912168813
 31
0.0
  0
LINE
  5
359
330
2
100
AcDbEntity
  8
AM_VIS
100
AcDbLine
 10
191.9421838200096
 20
512.1179912168813
 30
0.0
 11
192.0423440272424
 21
512.1179912168813
 31
0.0
  0
LINE
  5
35A
330
2
100
AcDbEntity
  8
AM_VIS
100
AcDbLine
 10
166.5651347816033
 20
518.1179912168813
 30
0.0
 11
166.5651347816033
 21
512.1179912168813
 31
0.0
  0
LINE
  5
35B
330
2
100
AcDbEntity
  8
AM_VIS
100
AcDbLine
 10
191.9421838200096
 20
500.1179912168813
 30
0.0
 11
166.5651347816033
 21
500.1179912168813
 31
0.0
  0
LINE
  5
35C
330
2
100
AcDbEntity
  8
AM_VIS
100
AcDbLine
 10
191.9421838200096
 20
500.1179912168813
 30
0.0
 11
192.0423440272424
 21
500.1179912168813
 31
0.0
  0
LINE
  5
35D
330
2
100
AcDbEntity
  8
AM_VIS
100
AcDbLine
 10
166.5651347816033
 20
500.1179912168813
 30
0.0
 11
166.5651347816033
 21
494.1179912168813
 31
0.0
  0
LINE
  5
35E
330
2
100
AcDbEntity
  8
AM_VIS
100
AcDbLine
 10
105.0733923406391
 20
512.1179912168813
 30
0.0
 11
105.0733923406391
 21
500.1179912168813
 31
0.0
  0
LINE
  5
35F
330
2
100
AcDbEntity
  8
AM_VIS
100
AcDbLine
 10
105.0733923406391
 20
500.1179912168813
 30
0.0
 11
166.5651347816033
 21
500.1179912168813
 31
0.0
  0
LINE
  5
360
330
2
100
AcDbEntity
  8
AM_VIS
100
AcDbLine
 10
166.5651347816033
 20
512.1179912168813
 30
0.0
 11
105.0733923406391
 21
512.1179912168813
 31
0.0
  0
ELLIPSE
  5
361
330
2
100
AcDbEntity
  8
AM_VIS
100
AcDbEllipse
 10
203.1655804059606
 20
506.1179912168813
 30
0.0
 11
0.0
 21
-12.0
 31
0.0
210
0.0
220
0.0
230
1.0
 40
0.9996243966726746
 41
2.094395102393196
 42
3.02913174031384
  0
ELLIPSE
  5
362
330
2
100
AcDbEntity
  8
AM_VIS
100
AcDbEllipse
 10
203.0710435269527
 20
506.1179912168813
 30
0.0
 11
0.0
 21
-12.0
 31
0.0
210
0.0
220
0.0
230
1.0
 40
0.9996243966726746
 41
1.047197551196598
 42
2.094395102393195
  0
LINE
  5
363
330
2
100
AcDbEntity
  8
AM_VIS
100
AcDbLine
 10
204.4843570783306
 20
518.0421864201665
 30
0.0
 11
204.5117626539822
 21
518.0421864201665
 31
0.0
  0
ELLIPSE
  5
364
330
2
100
AcDbEntity
  8
AM_VIS
100
AcDbEllipse
 10
203.1381748303091
 20
506.1179912168813
 30
0.0
 11
0.0
 21
-12.0
 31
0.0
210
0.0
220
0.0
230
1.0
 40
0.9996243966726746
 41
3.02913174031384
 42
3.141592653589793
  0
ELLIPSE
  5
365
330
2
100
AcDbEntity
  8
AM_VIS
100
AcDbEllipse
 10
203.1381748303091
 20
506.1179912168813
 30
0.0
 11
0.0
 21
-12.0
 31
0.0
210
0.0
220
0.0
230
1.0
 40
0.9996243966726746
 41
0.0
 42
0.1124609132759524
  0
LINE
  5
366
330
2
100
AcDbEntity
  8
AM_VIS
100
AcDbLine
 10
204.5117626539821
 20
494.1937960135962
 30
0.0
 11
204.4843570783306
 21
494.1937960135962
 31
0.0
  0
ELLIPSE
  5
367
330
2
100
AcDbEntity
  8
AM_VIS
100
AcDbEllipse
 10
203.1655804059606
 20
506.1179912168813
 30
0.0
 11
0.0
 21
-12.0
 31
0.0
210
0.0
220
0.0
230
1.0
 40
0.9996243966726746
 41
0.11246091327595
 42
1.047197551196597
  0
LINE
  5
368
330
2
100
AcDbEntity
  8
AM_VIS
100
AcDbLine
 10
191.36760680842
 20
486.6179912168814
 30
0.0
 11
204.4843570783306
 21
494.1937960135962
 31
0.0
  0
LINE
  5
369
330
2
100
AcDbEntity
  8
AM_VIS
100
AcDbLine
 10
192.3737355077635
 20
486.6179912168814
 30
0.0
 11
191.36760680842
 21
486.6179912168814
 31
0.0
  0
ELLIPSE
  5
36A
330
2
100
AcDbEntity
  8
AM_VIS
100
AcDbEllipse
 10
195.1602340895142
 20
488.2085858666192
 30
0.0
 11
-2.999929596700266
 21
-1.731684809440639
 31
0.0
210
0.0
220
0.0
230
1.0
 40
0.0118686339931735
 41
4.732947023103174
 42
5.896788134225061
  0
LINE
  5
36B
330
2
100
AcDbEntity
  8
AM_VIS
100
AcDbLine
 10
199.9952861784671
 20
491.0486390745957
 30
0.0
 11
195.0780173625597
 21
488.2085858666191
 31
0.0
  0
ELLIPSE
  5
36C
330
2
100
AcDbEntity
  8
AM_VIS
100
AcDbEllipse
 10
199.9130694515126
 20
491.0486390745957
 30
0.0
 11
2.999929596700266
 21
1.731684809440639
 31
0.0
210
0.0
220
0.0
230
1.0
 40
0.0118686339931735
 41
4.732947023102429
 42
5.950314176368474
  0
LINE
  5
36D
330
2
100
AcDbEntity
  8
AM_VIS
100
AcDbLine
 10
205.409446170592
 20
494.3298072166762
 30
0.0
 11
202.7550429074937
 21
492.6736341356344
 31
0.0
  0
LINE
  5
36E
330
2
100
AcDbEntity
  8
AM_VIS
100
AcDbLine
 10
192.0423440272424
 20
518.1179912168813
 30
0.0
 11
192.0423440272424
 21
511.0072282182135
 31
0.0
  0
LINE
  5
36F
330
2
100
AcDbEntity
  8
AM_VIS
100
AcDbLine
 10
192.0423440272424
 20
501.2287542155491
 30
0.0
 11
192.0423440272424
 21
494.1179912168813
 31
0.0
  0
LINE
  5
370
330
2
100
AcDbEntity
  8
AM_VIS
100
AcDbLine
 10
204.4843570783306
 20
518.0421864201665
 30
0.0
 11
191.36760680842
 21
525.6179912168813
 31
0.0
  0
LINE
  5
371
330
2
100
AcDbEntity
  8
AM_VIS
100
AcDbLine
 10
191.36760680842
 20
525.6179912168813
 30
0.0
 11
178.1475649134922
 21
525.6179912168813
 31
0.0
  0
LINE
  5
372
330
2
100
AcDbEntity
  8
AM_VIS
100
AcDbLine
 10
178.1475649134922
 20
518.1179912168813
 30
0.0
 11
192.0423440272424
 21
518.1179912168813
 31
0.0
  0
LINE
  5
373
330
2
100
AcDbEntity
  8
AM_VIS
100
AcDbLine
 10
192.0423440272424
 20
494.1179912168813
 30
0.0
 11
178.1475649134922
 21
494.1179912168813
 31
0.0
  0
LINE
  5
374
330
2
100
AcDbEntity
  8
AM_VIS
100
AcDbLine
 10
178.1475649134922
 20
486.6179912168814
 30
0.0
 11
191.36760680842
 21
486.6179912168814
 31
0.0
  0
LINE
  5
375
330
2
100
AcDbEntity
  8
AM_VIS
100
AcDbLine
 10
202.7550429074937
 20
519.5623482981281
 30
0.0
 11
205.409446170592
 21
517.9061752170865
 31
0.0
  0
LINE
  5
376
330
2
100
AcDbEntity
  8
AM_VIS
100
AcDbLine
 10
260.6008702544811
 20
500.1179912168813
 30
0.0
 11
248.2720033466629
 21
500.1179912168813
 31
0.0
  0
LINE
  5
377
330
2
100
AcDbEntity
  8
AM_VIS
100
AcDbLine
 10
223.6678587533647
 20
500.1179912168813
 30
0.0
 11
248.2720033466628
 21
500.1179912168813
 31
0.0
  0
LINE
  5
378
330
2
100
AcDbEntity
  8
AM_VIS
100
AcDbLine
 10
219.2708442054297
 20
500.1179912168813
 30
0.0
 11
223.6678587533646
 21
500.1179912168813
 31
0.0
  0
LINE
  5
379
330
2
100
AcDbEntity
  8
AM_VIS
100
AcDbLine
 10
215.9763792916307
 20
500.1179912168813
 30
0.0
 11
219.2708442054297
 21
500.1179912168813
 31
0.0
  0
LINE
  5
37A
330
2
100
AcDbEntity
  8
AM_VIS
100
AcDbLine
 10
213.4594449880875
 20
500.1179912168813
 30
0.0
 11
215.9763792916308
 21
500.1179912168813
 31
0.0
  0
LINE
  5
37B
330
2
100
AcDbEntity
  8
AM_VIS
100
AcDbLine
 10
223.6678587533646
 20
512.1179912168813
 30
0.0
 11
219.2708442054297
 21
512.1179912168813
 31
0.0
  0
LINE
  5
37C
330
2
100
AcDbEntity
  8
AM_VIS
100
AcDbLine
 10
248.2720033466628
 20
512.1179912168813
 30
0.0
 11
223.6678587533647
 21
512.1179912168813
 31
0.0
  0
LINE
  5
37D
330
2
100
AcDbEntity
  8
AM_VIS
100
AcDbLine
 10
215.9763792916308
 20
512.1179912168813
 30
0.0
 11
213.4594449880875
 21
512.1179912168813
 31
0.0
  0
LINE
  5
37E
330
2
100
AcDbEntity
  8
AM_VIS
100
AcDbLine
 10
219.2708442054297
 20
512.1179912168813
 30
0.0
 11
215.9763792916307
 21
512.1179912168813
 31
0.0
  0
LINE
  5
37F
330
2
100
AcDbEntity
  8
AM_VIS
100
AcDbLine
 10
248.2720033466629
 20
512.1179912168813
 30
0.0
 11
260.6008702544811
 21
512.1179912168813
 31
0.0
  0
LINE
  5
380
330
2
100
AcDbEntity
  8
AM_VIS
100
AcDbLine
 10
215.9763792916308
 20
500.1179912168813
 30
0.0
 11
215.9763792916308
 21
512.1179912168813
 31
0.0
  0
ELLIPSE
  5
381
330
2
100
AcDbEntity
  8
AM_VIS
100
AcDbEllipse
 10
199.9130694515126
 20
521.1873433591668
 30
0.0
 11
2.999929596700266
 21
-1.731684809440638
 31
0.0
210
0.0
220
0.0
230
1.0
 40
0.0118686339931735
 41
0.3328711308103521
 42
1.550238284076395
  0
LINE
  5
382
330
2
100
AcDbEntity
  8
AM_VIS
100
AcDbLine
 10
195.0780173625596
 20
524.0273965671434
 30
0.0
 11
199.9952861784671
 21
521.1873433591668
 31
0.0
  0
ELLIPSE
  5
383
330
2
100
AcDbEntity
  8
AM_VIS
100
AcDbEllipse
 10
195.1602340895142
 20
524.0273965671435
 30
0.0
 11
-2.999929596700266
 21
1.731684809440638
 31
0.0
210
0.0
220
0.0
230
1.0
 40
0.0118686339931735
 41
0.386397172955319
 42
1.550238284077205
  0
LINE
  5
384
330
2
100
AcDbEntity
  8
AM_VIS
100
AcDbLine
 10
191.36760680842
 20
525.6179912168813
 30
0.0
 11
192.3737355077635
 21
525.6179912168813
 31
0.0
  0
LINE
  5
385
330
2
100
AcDbEntity
  8
AM_VIS
100
AcDbLine
 10
165.5038373969619
 20
494.1179912168813
 30
0.0
 11
178.1475649134922
 21
494.1179912168813
 31
0.0
  0
LINE
  5
386
330
2
100
AcDbEntity
  8
AM_VIS
100
AcDbLine
 10
178.1475649134922
 20
518.1179912168813
 30
0.0
 11
165.5038373969619
 21
518.1179912168813
 31
0.0
  0
LINE
  5
387
330
2
100
AcDbEntity
  8
AM_VIS
100
AcDbLine
 10
178.1475649134922
 20
486.6179912168814
 30
0.0
 11
165.5038373969619
 21
486.6179912168814
 31
0.0
  0
LINE
  5
388
330
2
100
AcDbEntity
  8
AM_VIS
100
AcDbLine
 10
193.7283577988547
 20
486.6179912168814
 30
0.0
 11
193.7234787116327
 21
486.6179912168814
 31
0.0
  0
LINE
  5
389
330
2
100
AcDbEntity
  8
AM_VIS
100
AcDbLine
 10
193.7234787116327
 20
525.6179912168813
 30
0.0
 11
193.7283577988547
 21
525.6179912168813
 31
0.0
  0
LINE
  5
38A
330
2
100
AcDbEntity
  8
AM_VIS
100
AcDbLine
 10
192.3737355077635
 20
486.6179912168814
 30
0.0
 11
193.7234787116328
 21
486.6179912168814
 31
0.0
  0
LINE
  5
38B
330
2
100
AcDbEntity
  8
AM_VIS
100
AcDbLine
 10
165.5038373969619
 20
525.6179912168813
 30
0.0
 11
178.1475649134922
 21
525.6179912168813
 31
0.0
  0
LINE
  5
38C
330
2
100
AcDbEntity
  8
AM_VIS
100
AcDbLine
 10
193.7234787116328
 20
525.6179912168813
 30
0.0
 11
192.3737355077635
 21
525.6179912168813
 31
0.0
  0
LINE
  5
38D
330
2
100
AcDbEntity
  8
AM_VIS
100
AcDbLine
 10
203.138174830309
 20
494.1179912168813
 30
0.0
 11
203.0011469520514
 21
494.1179912168813
 31
0.0
  0
LINE
  5
38E
330
2
100
AcDbEntity
  8
AM_VIS
100
AcDbLine
 10
203.138174830309
 20
518.1179912168813
 30
0.0
 11
203.0011469520514
 21
518.1179912168813
 31
0.0
  0
ARC
  5
38F
330
2
100
AcDbEntity
  8
AM_VIS
100
AcDbCircle
 10
203.0011469520515
 20
506.1179912168813
 30
0.0
 40
12.0
100
AcDbArc
 50
90.0
 51
270.0
  0
LINE
  5
390
330
2
100
AcDbEntity
  8
AM_VIS
100
AcDbLine
 10
260.6008702544811
 20
500.1179912168813
 30
0.0
 11
260.6008702544811
 21
512.1179912168813
 31
0.0
  0
LINE
  5
391
330
2
100
AcDbEntity
  8
AM_VIS
100
AcDbLine
 10
165.5038373969619
 20
494.1179912168813
 30
0.0
 11
165.5038373969619
 21
486.6179912168814
 31
0.0
  0
LINE
  5
392
330
2
100
AcDbEntity
  8
AM_VIS
100
AcDbLine
 10
193.7283577988547
 20
487.4239143351283
 30
0.0
 11
193.7283577988547
 21
486.6179912168814
 31
0.0
  0
LINE
  5
393
330
2
100
AcDbEntity
  8
AM_VIS
100
AcDbLine
 10
193.7283577988547
 20
525.6179912168813
 30
0.0
 11
193.7283577988547
 21
524.8120680986342
 31
0.0
  0
LINE
  5
394
330
2
100
AcDbEntity
  8
AM_VIS
100
AcDbLine
 10
165.5038373969619
 20
525.6179912168813
 30
0.0
 11
165.5038373969619
 21
518.1179912168813
 31
0.0
  0
ELLIPSE
  5
395
330
2
100
AcDbEntity
  8
AM_VIS
100
AcDbEllipse
 10
275.7981363498465
 20
506.1179912168797
 30
0.0
 11
0.0000000000000001
 21
-6.0
 31
0.0
210
0.0
220
0.0
230
1.0
 40
0.9938696747300287
 41
0.0
 42
0.4547392828813438
  0
ELLIPSE
  5
396
330
2
100
AcDbEntity
  8
AM_VIS
100
AcDbEllipse
 10
275.7981363498465
 20
506.1179912168797
 30
0.0
 11
0.0000000000000001
 21
-6.0
 31
0.0
210
0.0
220
0.0
230
1.0
 40
0.9938696747300287
 41
2.686853370707769
 42
3.141592653589793
  0
LINE
  5
397
330
2
100
AcDbEntity
  8
AM_VIS
100
AcDbLine
 10
275.7981363498465
 20
500.1179912168797
 30
0.0
 11
262.7407707075699
 21
500.1179912168797
 31
0.0
  0
LINE
  5
398
330
2
100
AcDbEntity
  8
AM_VIS
100
AcDbLine
 10
275.7981363498465
 20
512.1179912168797
 30
0.0
 11
262.7407707075699
 21
512.1179912168797
 31
0.0
  0
SPLINE
  5
399
330
2
100
AcDbEntity
  8
AM_VIS
100
AcDbSpline
210
0.0
220
0.0
230
1.0
 70
    12
 71
     2
 72
     6
 73
     3
 74
     0
 42
0.0000000001
 43
0.0000000001
 40
6.127481352770829
 40
6.127481352770829
 40
6.127481352770829
 40
6.431080569969322
 40
6.431080569969322
 40
6.431080569969322
 10
262.9742048256173
 20
511.6028213314841
 30
0.0
 41
1.24726511647967
 10
262.8568027751406
 20
511.6722157254767
 30
0.0
 41
1.251507864300435
 10
262.7407707075699
 20
511.7407542170714
 30
0.0
 41
1.255564028202357
  0
LINE
  5
39A
330
2
100
AcDbEntity
  8
AM_VIS
100
AcDbLine
 10
262.9742048256173
 20
511.6028213314841
 30
0.0
 11
262.7407707075699
 21
511.6028213314841
 31
0.0
  0
SPLINE
  5
39B
330
2
100
AcDbEntity
  8
AM_VIS
100
AcDbSpline
210
0.0
220
0.0
230
1.0
 70
    12
 71
     2
 72
     6
 73
     3
 74
     0
 42
0.0000000001
 43
0.0000000001
 40
13.04984894672373
 40
13.04984894672373
 40
13.04984894672373
 40
19.48188764778955
 40
19.48188764778955
 40
19.48188764778955
 10
263.017741816008
 20
506.1179912168811
 30
0.0
 41
1.0
 10
263.017741816008
 20
508.663509572817
 30
0.0
 41
1.078466188711203
 10
262.9742048256173
 20
511.6028213314841
 30
0.0
 41
1.079583196665444
  0
LINE
  5
39C
330
2
100
AcDbEntity
  8
AM_VIS
100
AcDbLine
 10
262.9742049013747
 20
500.6331662168811
 30
0.0
 11
262.7407707075699
 21
500.6331662168811
 31
0.0
  0
SPLINE
  5
39D
330
2
100
AcDbEntity
  8
AM_VIS
100
AcDbSpline
210
0.0
220
0.0
230
1.0
 70
    12
 71
     2
 72
     6
 73
     3
 74
     0
 42
0.0000000001
 43
0.0000000001
 40
6.617815847547618
 40
6.617815847547618
 40
6.617815847547618
 40
13.04984894672373
 40
13.04984894672373
 40
13.04984894672373
 10
262.9742049013747
 20
500.6331662168811
 30
0.0
 41
1.079583194719703
 10
263.017741816008
 20
503.5724749166258
 30
0.0
 41
1.078466120372228
 10
263.017741816008
 20
506.1179912168811
 30
0.0
 41
1.0
  0
SPLINE
  5
39E
330
2
100
AcDbEntity
  8
AM_VIS
100
AcDbSpline
210
0.0
220
0.0
230
1.0
 70
    12
 71
     2
 72
     6
 73
     3
 74
     0
 42
0.0000000001
 43
0.0000000001
 40
6.120657138866688
 40
6.120657138866688
 40
6.120657138866688
 40
6.424690970355181
 40
6.424690970355181
 40
6.424690970355181
 10
262.7407707075699
 20
500.4952332848468
 30
0.0
 41
1.079198711374008
 10
262.8568028118693
 20
500.5637717989694
 30
0.0
 41
1.079426611140506
 10
262.9742049013747
 20
500.6331662168812
 30
0.0
 41
1.07948173344588
  0
LINE
  5
39F
330
2
100
AcDbEntity
  8
AM_VIS
100
AcDbLine
 10
237.6671515768631
 20
493.6179912168815
 30
0.0
 11
240.3170866242805
 21
493.6179912168815
 31
0.0
  0
LINE
  5
3A0
330
2
100
AcDbEntity
  8
AM_VIS
100
AcDbLine
 10
240.3170866242805
 20
493.6179912168815
 30
0.0
 11
240.3170866242805
 21
499.1179912168814
 31
0.0
  0
LINE
  5
3A1
330
2
100
AcDbEntity
  8
AM_VIS
100
AcDbLine
 10
240.3170866242805
 20
499.1179912168814
 30
0.0
 11
237.6671515768631
 21
499.1179912168814
 31
0.0
  0
LINE
  5
3A2
330
2
100
AcDbEntity
  8
AM_VIS
100
AcDbLine
 10
237.6671515768631
 20
499.1179912168814
 30
0.0
 11
237.6671515768631
 21
493.6179912168815
 31
0.0
  0
LINE
  5
3A3
330
2
100
AcDbEntity
  8
AM_VIS
100
AcDbLine
 10
254.2312620705009
 20
499.1179912168815
 30
0.0
 11
240.3170866242805
 21
499.1179912168814
 31
0.0
  0
LINE
  5
3A4
330
2
100
AcDbEntity
  8
AM_VIS
100
AcDbLine
 10
257.5445450714637
 20
499.1179912168815
 30
0.0
 11
254.2312620705009
 21
499.1179912168815
 31
0.0
  0
LINE
  5
3A5
330
2
100
AcDbEntity
  8
AM_VIS
100
AcDbLine
 10
260.1979368856456
 20
499.1179912168814
 30
0.0
 11
257.5445450714637
 21
499.1179912168814
 31
0.0
  0
LINE
  5
3A6
330
2
100
AcDbEntity
  8
AM_VIS
100
AcDbLine
 10
254.2312620705009
 20
493.6179912168815
 30
0.0
 11
240.3170866242805
 21
493.6179912168815
 31
0.0
  0
LINE
  5
3A7
330
2
100
AcDbEntity
  8
AM_VIS
100
AcDbLine
 10
254.2312620705009
 20
499.1179912168814
 30
0.0
 11
254.2312620705009
 21
493.6179912168815
 31
0.0
  0
LINE
  5
3A8
330
2
100
AcDbEntity
  8
AM_VIS
100
AcDbLine
 10
254.2312620705009
 20
493.6179912168815
 30
0.0
 11
257.5445450714637
 21
493.6179912168815
 31
0.0
  0
LINE
  5
3A9
330
2
100
AcDbEntity
  8
AM_VIS
100
AcDbLine
 10
257.5445450714637
 20
493.6179912168815
 30
0.0
 11
257.5445450714637
 21
499.1179912168815
 31
0.0
  0
LINE
  5
3AA
330
2
100
AcDbEntity
  8
AM_VIS
100
AcDbLine
 10
257.5445450714636
 20
518.6179912168815
 30
0.0
 11
254.2312620705008
 21
518.6179912168815
 31
0.0
  0
LINE
  5
3AB
330
2
100
AcDbEntity
  8
AM_VIS
100
AcDbLine
 10
254.2312620705009
 20
518.6179912168815
 30
0.0
 11
254.2312620705009
 21
513.1179912168814
 31
0.0
  0
LINE
  5
3AC
330
2
100
AcDbEntity
  8
AM_VIS
100
AcDbLine
 10
254.2312620705009
 20
513.1179912168814
 30
0.0
 11
257.5445450714637
 21
513.1179912168814
 31
0.0
  0
LINE
  5
3AD
330
2
100
AcDbEntity
  8
AM_VIS
100
AcDbLine
 10
257.5445450714637
 20
513.1179912168814
 30
0.0
 11
257.5445450714637
 21
518.6179912168815
 31
0.0
  0
LINE
  5
3AE
330
2
100
AcDbEntity
  8
AM_VIS
100
AcDbLine
 10
240.3170866242804
 20
513.1179912168814
 30
0.0
 11
254.2312620705008
 21
513.1179912168814
 31
0.0
  0
LINE
  5
3AF
330
2
100
AcDbEntity
  8
AM_VIS
100
AcDbLine
 10
237.6671515768631
 20
513.1179912168814
 30
0.0
 11
240.3170866242804
 21
513.1179912168814
 31
0.0
  0
LINE
  5
3B0
330
2
100
AcDbEntity
  8
AM_VIS
100
AcDbLine
 10
257.5445450714636
 20
513.1179912168814
 30
0.0
 11
260.1979368856455
 21
513.1179912168814
 31
0.0
  0
LINE
  5
3B1
330
2
100
AcDbEntity
  8
AM_VIS
100
AcDbLine
 10
240.3170866242804
 20
518.6179912168815
 30
0.0
 11
254.2312620705008
 21
518.6179912168815
 31
0.0
  0
LINE
  5
3B2
330
2
100
AcDbEntity
  8
AM_VIS
100
AcDbLine
 10
240.3170866242804
 20
513.1179912168814
 30
0.0
 11
240.3170866242804
 21
518.6179912168815
 31
0.0
  0
LINE
  5
3B3
330
2
100
AcDbEntity
  8
AM_VIS
100
AcDbLine
 10
240.3170866242804
 20
518.6179912168815
 30
0.0
 11
237.6671515768631
 21
518.6179912168815
 31
0.0
  0
LINE
  5
3B4
330
2
100
AcDbEntity
  8
AM_VIS
100
AcDbLine
 10
237.667151576863
 20
518.6179912168815
 30
0.0
 11
237.667151576863
 21
513.1179912168814
 31
0.0
  0
LINE
  5
3B5
330
2
100
AcDbEntity
  8
AM_VIS
100
AcDbLine
 10
260.1979368856456
 20
513.1179912168814
 30
0.0
 11
260.1979368856456
 21
512.1179912168813
 31
0.0
  0
LINE
  5
3B6
330
2
100
AcDbEntity
  8
AM_VIS
100
AcDbLine
 10
260.1979368856456
 20
500.1179912168813
 30
0.0
 11
260.1979368856456
 21
499.1179912168815
 31
0.0
  0
LINE
  5
3B7
330
2
100
AcDbEntity
  8
AM_VIS
100
AcDbLine
 10
240.320543391045
 20
499.1179912168814
 30
0.0
 11
240.320543391045
 21
500.1179912168813
 31
0.0
  0
LINE
  5
3B8
330
2
100
AcDbEntity
  8
AM_VIS
100
AcDbLine
 10
240.320543391045
 20
512.1179912168813
 30
0.0
 11
240.320543391045
 21
513.1179912168814
 31
0.0
  0
LINE
  5
3B9
330
2
100
AcDbEntity
  8
AM_VIS
100
AcDbLine
 10
262.7407707075699
 20
493.6179912168815
 30
0.0
 11
257.5445450714637
 21
493.6179912168815
 31
0.0
  0
LINE
  5
3BA
330
2
100
AcDbEntity
  8
AM_VIS
100
AcDbLine
 10
262.7407707075699
 20
518.6179912168815
 30
0.0
 11
262.74077070757
 21
493.6179912168815
 31
0.0
  0
LINE
  5
3BB
330
2
100
AcDbEntity
  8
AM_VIS
100
AcDbLine
 10
262.7407707075699
 20
518.6179912168815
 30
0.0
 11
257.5445450714637
 21
518.6179912168815
 31
0.0
  0
LINE
  5
3BC
330
2
100
AcDbEntity
  8
AM_VIS
100
AcDbLine
 10
256.5072927823889
 20
548.9370626351721
 30
0.0
 11
256.4868309638604
 21
548.9370626351721
 31
0.0
  0
SPLINE
  5
3BD
330
2
100
AcDbEntity
  8
AM_VIS
100
AcDbSpline
210
0.0
220
0.0
230
1.0
 70
    12
 71
     2
 72
     6
 73
     3
 74
     0
 42
0.0000000001
 43
0.0000000001
 40
0.0
 40
0.0
 40
0.0
 40
4.489259339835058
 40
4.489259339835058
 40
4.489259339835058
 10
258.7163392587888
 20
549.7079912168813
 30
0.0
 41
1.0
 10
257.6695129750756
 20
549.5429628298308
 30
0.0
 41
1.015279608606588
 10
256.5072927823889
 20
548.9370626351721
 30
0.0
 41
1.0
  0
LINE
  5
3BE
330
2
100
AcDbEntity
  8
AM_VIS
100
AcDbLine
 10
258.7163392587888
 20
549.7079912168813
 30
0.0
 11
257.8221184363877
 21
549.7079912168813
 31
0.0
  0
SPLINE
  5
3BF
330
2
100
AcDbEntity
  8
AM_VIS
100
AcDbSpline
210
0.0
220
0.0
230
1.0
 70
    12
 71
     2
 72
     6
 73
     3
 74
     0
 42
0.0000000001
 43
0.0000000001
 40
0.0
 40
0.0
 40
0.0
 40
4.489259339835054
 40
4.489259339835054
 40
4.489259339835054
 10
262.5791788361721
 20
548.9370626351721
 30
0.0
 41
1.0
 10
261.4169586434854
 20
549.5429628298308
 30
0.0
 41
1.015279608606679
 10
260.3701323597722
 20
549.7079912168813
 30
0.0
 41
1.0
  0
LINE
  5
3C0
330
2
100
AcDbEntity
  8
AM_VIS
100
AcDbLine
 10
263.8636559676019
 20
548.9370626351721
 30
0.0
 11
262.5791788361721
 21
548.9370626351721
 31
0.0
  0
SPLINE
  5
3C1
330
2
100
AcDbEntity
  8
AM_VIS
100
AcDbSpline
210
0.0
220
0.0
230
1.0
 70
    12
 71
     2
 72
     6
 73
     3
 74
     0
 42
0.0000000001
 43
0.0000000001
 40
0.0
 40
0.0
 40
0.0
 40
4.489288544457886
 40
4.489288544457886
 40
4.489288544457886
 10
268.2817784609377
 20
549.7079912168813
 30
0.0
 41
1.0
 10
266.1881118947975
 20
549.5429657776258
 30
0.0
 41
1.015279817641361
 10
263.8636559676019
 20
548.9370626351721
 30
0.0
 41
1.0
  0
LINE
  5
3C2
330
2
100
AcDbEntity
  8
AM_VIS
100
AcDbLine
 10
268.2817784609377
 20
549.7079912168813
 30
0.0
 11
260.3701323597724
 21
549.7079912168813
 31
0.0
  0
SPLINE
  5
3C3
330
2
100
AcDbEntity
  8
AM_VIS
100
AcDbSpline
210
0.0
220
0.0
230
1.0
 70
    12
 71
     2
 72
     6
 73
     3
 74
     0
 42
0.0000000001
 43
0.0000000001
 40
0.0
 40
0.0
 40
0.0
 40
4.489288544457886
 40
4.489288544457886
 40
4.489288544457886
 10
276.007405960119
 20
548.9370626351721
 30
0.0
 41
1.0
 10
273.6829500329235
 20
549.5429657776258
 30
0.0
 41
1.015279817641361
 10
271.5892834667832
 20
549.7079912168813
 30
0.0
 41
1.0
  0
LINE
  5
3C4
330
2
100
AcDbEntity
  8
AM_VIS
100
AcDbLine
 10
277.2919038399272
 20
548.9370626351721
 30
0.0
 11
276.007405960119
 21
548.9370626351721
 31
0.0
  0
SPLINE
  5
3C5
330
2
100
AcDbEntity
  8
AM_VIS
100
AcDbSpline
210
0.0
220
0.0
230
1.0
 70
    12
 71
     2
 72
     6
 73
     3
 74
     0
 42
0.0000000001
 43
0.0000000001
 40
0.0
 40
0.0
 40
0.0
 40
4.489317750108253
 40
4.489317750108253
 40
4.489317750108253
 10
279.5009798573792
 20
549.7079912168813
 30
0.0
 41
1.0
 10
278.4541395747077
 20
549.5429687255438
 30
0.0
 41
1.015280026684792
 10
277.2919038399272
 20
548.9370626351721
 30
0.0
 41
1.0
  0
LINE
  5
3C6
330
2
100
AcDbEntity
  8
AM_VIS
100
AcDbLine
 10
279.500979857379
 20
549.7079912168813
 30
0.0
 11
271.5892834667832
 21
549.7079912168813
 31
0.0
  0
SPLINE
  5
3C7
330
2
100
AcDbEntity
  8
AM_VIS
100
AcDbSpline
210
0.0
220
0.0
230
1.0
 70
    12
 71
     2
 72
     6
 73
     3
 74
     0
 42
0.0000000001
 43
0.0000000001
 40
0.0
 40
0.0
 40
0.0
 40
4.489317750108252
 40
4.489317750108252
 40
4.489317750108252
 10
283.3637677786203
 20
548.9370626351721
 30
0.0
 41
1.0
 10
282.2015320438398
 20
549.5429687255438
 30
0.0
 41
1.015280026685218
 10
281.1546917611683
 20
549.7079912168813
 30
0.0
 41
1.0
  0
LINE
  5
3C8
330
2
100
AcDbEntity
  8
AM_VIS
100
AcDbLine
 10
283.3842309638604
 20
548.9370626351721
 30
0.0
 11
283.3637677786202
 21
548.9370626351721
 31
0.0
  0
LINE
  5
3C9
330
2
100
AcDbEntity
  8
AM_VIS
100
AcDbLine
 10
282.0489434913332
 20
549.7079912168813
 30
0.0
 11
281.1546917611684
 21
549.7079912168813
 31
0.0
  0
LINE
  5
3CA
330
2
100
AcDbEntity
  8
AM_VIS
100
AcDbLine
 10
256.5072927823889
 20
545.5370626351721
 30
0.0
 11
256.4868309638604
 21
545.5370626351721
 31
0.0
  0
LINE
  5
3CB
330
2
100
AcDbEntity
  8
AM_VIS
100
AcDbLine
 10
256.507292782389
 20
548.9370626351721
 30
0.0
 11
256.507292782389
 21
545.5370626351721
 31
0.0
  0
LINE
  5
3CC
330
2
100
AcDbEntity
  8
AM_VIS
100
AcDbLine
 10
262.5791788361721
 20
545.5370626351721
 30
0.0
 11
262.5791788361721
 21
548.9370626351721
 31
0.0
  0
LINE
  5
3CD
330
2
100
AcDbEntity
  8
AM_VIS
100
AcDbLine
 10
263.8636559676019
 20
545.5370626351721
 30
0.0
 11
262.5791788361721
 21
545.5370626351721
 31
0.0
  0
LINE
  5
3CE
330
2
100
AcDbEntity
  8
AM_VIS
100
AcDbLine
 10
263.8636559676019
 20
548.9370626351721
 30
0.0
 11
263.8636559676019
 21
545.5370626351721
 31
0.0
  0
LINE
  5
3CF
330
2
100
AcDbEntity
  8
AM_VIS
100
AcDbLine
 10
276.007405960119
 20
545.5370626351721
 30
0.0
 11
276.007405960119
 21
548.9370626351721
 31
0.0
  0
LINE
  5
3D0
330
2
100
AcDbEntity
  8
AM_VIS
100
AcDbLine
 10
277.2919038399272
 20
545.5370626351721
 30
0.0
 11
276.007405960119
 21
545.5370626351721
 31
0.0
  0
LINE
  5
3D1
330
2
100
AcDbEntity
  8
AM_VIS
100
AcDbLine
 10
277.2919038399272
 20
548.9370626351721
 30
0.0
 11
277.2919038399272
 21
545.5370626351721
 31
0.0
  0
LINE
  5
3D2
330
2
100
AcDbEntity
  8
AM_VIS
100
AcDbLine
 10
283.3637677786203
 20
545.5370626351721
 30
0.0
 11
283.3637677786203
 21
548.9370626351721
 31
0.0
  0
LINE
  5
3D3
330
2
100
AcDbEntity
  8
AM_VIS
100
AcDbLine
 10
283.3842309638604
 20
545.5370626351721
 30
0.0
 11
283.3637677786202
 21
545.5370626351721
 31
0.0
  0
SPLINE
  5
3D4
330
2
100
AcDbEntity
  8
AM_VIS
100
AcDbSpline
210
0.0
220
0.0
230
1.0
 70
    12
 71
     2
 72
     6
 73
     3
 74
     0
 42
0.0000000001
 43
0.0000000001
 40
0.0
 40
0.0
 40
0.0
 40
5.590505691017254
 40
5.590505691017254
 40
5.590505691017254
 10
256.5072927823889
 20
545.5370626351721
 30
0.0
 41
1.0
 10
257.9649318646433
 20
544.7771517256584
 30
0.0
 41
1.024356486367964
 10
259.2669305717462
 20
544.7079912168813
 30
0.0
 41
1.0
  0
SPLINE
  5
3D5
330
2
100
AcDbEntity
  8
AM_VIS
100
AcDbSpline
210
0.0
220
0.0
230
1.0
 70
    12
 71
     2
 72
     6
 73
     3
 74
     0
 42
0.0000000001
 43
0.0000000001
 40
0.0
 40
0.0
 40
0.0
 40
5.590505691017281
 40
5.590505691017281
 40
5.590505691017281
 10
259.8195410468148
 20
544.7079912168813
 30
0.0
 41
1.0
 10
261.1215397539177
 20
544.7771517256584
 30
0.0
 41
1.024356486368125
 10
262.5791788361721
 20
545.5370626351721
 30
0.0
 41
1.0
  0
SPLINE
  5
3D6
330
2
100
AcDbEntity
  8
AM_VIS
100
AcDbSpline
210
0.0
220
0.0
230
1.0
 70
    12
 71
     2
 72
     6
 73
     3
 74
     0
 42
0.0000000001
 43
0.0000000001
 40
0.0
 40
0.0
 40
0.0
 40
5.59061555148098
 40
5.59061555148098
 40
5.59061555148098
 10
263.8636559676019
 20
545.5370626351721
 30
0.0
 41
1.0
 10
266.7789924727116
 20
544.7771379022102
 30
0.0
 41
1.024357497129432
 10
269.383041998162
 20
544.7079912168813
 30
0.0
 41
1.0
  0
SPLINE
  5
3D7
330
2
100
AcDbEntity
  8
AM_VIS
100
AcDbSpline
210
0.0
220
0.0
230
1.0
 70
    12
 71
     2
 72
     6
 73
     3
 74
     0
 42
0.0000000001
 43
0.0000000001
 40
0.0
 40
0.0
 40
0.0
 40
5.59061555148098
 40
5.59061555148098
 40
5.59061555148098
 10
270.4880199295589
 20
544.7079912168813
 30
0.0
 41
1.0
 10
273.0920694550094
 20
544.7771379022102
 30
0.0
 41
1.024357497129432
 10
276.007405960119
 20
545.5370626351721
 30
0.0
 41
1.0
  0
SPLINE
  5
3D8
330
2
100
AcDbEntity
  8
AM_VIS
100
AcDbSpline
210
0.0
220
0.0
230
1.0
 70
    12
 71
     2
 72
     6
 73
     3
 74
     0
 42
0.0000000001
 43
0.0000000001
 40
0.0
 40
0.0
 40
0.0
 40
5.590725438793462
 40
5.590725438793462
 40
5.590725438793462
 10
277.2919038399272
 20
545.5370626351721
 30
0.0
 41
1.0
 10
278.7496012698911
 20
544.7771240751166
 30
0.0
 41
1.024358508160214
 10
280.0516520945883
 20
544.7079912168813
 30
0.0
 41
1.0
  0
SPLINE
  5
3D9
330
2
100
AcDbEntity
  8
AM_VIS
100
AcDbSpline
210
0.0
220
0.0
230
1.0
 70
    12
 71
     2
 72
     6
 73
     3
 74
     0
 42
0.0000000001
 43
0.0000000001
 40
0.0
 40
0.0
 40
0.0
 40
5.590725438793505
 40
5.590725438793505
 40
5.590725438793505
 10
280.6040195239592
 20
544.7079912168813
 30
0.0
 41
1.0
 10
281.9060703486563
 20
544.7771240751166
 30
0.0
 41
1.02435850816068
 10
283.3637677786203
 20
545.5370626351721
 30
0.0
 41
1.0
  0
LINE
  5
3DA
330
2
100
AcDbEntity
  8
AM_VIS
100
AcDbLine
 10
258.7163392587886
 20
549.7079912168813
 30
0.0
 11
260.3701323597723
 21
549.7079912168813
 31
0.0
  0
LINE
  5
3DB
330
2
100
AcDbEntity
  8
AM_VIS
100
AcDbLine
 10
268.2817784609377
 20
549.7079912168813
 30
0.0
 11
271.5892834667832
 21
549.7079912168813
 31
0.0
  0
LINE
  5
3DC
330
2
100
AcDbEntity
  8
AM_VIS
100
AcDbLine
 10
279.500979857379
 20
549.7079912168813
 30
0.0
 11
281.1546917611684
 21
549.7079912168813
 31
0.0
  0
LINE
  5
3DD
330
2
100
AcDbEntity
  8
AM_VIS
100
AcDbLine
 10
263.9355309638605
 20
536.3679912168817
 30
0.0
 11
263.9355309638605
 21
536.8679912168813
 31
0.0
  0
LINE
  5
3DE
330
2
100
AcDbEntity
  8
AM_VIS
100
AcDbLine
 10
275.9355309638605
 20
536.3679912168817
 30
0.0
 11
275.9355309638605
 21
536.8679912168813
 31
0.0
  0
LINE
  5
3DF
330
2
100
AcDbEntity
  8
AM_VIS
100
AcDbLine
 10
257.8221184363877
 20
549.7079912168813
 30
0.0
 11
256.4868309638605
 21
548.9370626351723
 31
0.0
  0
LINE
  5
3E0
330
2
100
AcDbEntity
  8
AM_VIS
100
AcDbLine
 10
282.0489434913332
 20
549.7079912168813
 30
0.0
 11
283.3842309638604
 21
548.9370626351723
 31
0.0
  0
LINE
  5
3E1
330
2
100
AcDbEntity
  8
AM_VIS
100
AcDbLine
 10
256.4868309638604
 20
545.5370626351721
 30
0.0
 11
256.4868309638604
 21
548.9370626351721
 31
0.0
  0
LINE
  5
3E2
330
2
100
AcDbEntity
  8
AM_VIS
100
AcDbLine
 10
283.3842309638604
 20
545.5370626351721
 30
0.0
 11
283.3842309638604
 21
548.9370626351721
 31
0.0
  0
LINE
  5
3E3
330
2
100
AcDbEntity
  8
AM_VIS
100
AcDbLine
 10
257.9228247834435
 20
544.7079912168812
 30
0.0
 11
256.4868309638605
 21
545.537062635172
 31
0.0
  0
LINE
  5
3E4
330
2
100
AcDbEntity
  8
AM_VIS
100
AcDbLine
 10
281.9482371442775
 20
544.7079912168812
 30
0.0
 11
283.3842309638604
 21
545.537062635172
 31
0.0
  0
SPLINE
  5
3E5
330
2
100
AcDbEntity
  8
AM_VIS
100
AcDbSpline
210
0.0
220
0.0
230
1.0
 70
    12
 71
     2
 72
     6
 73
     3
 74
     0
 42
0.0000000001
 43
0.0000000001
 40
0.0
 40
0.0
 40
0.0
 40
4.489346956745006
 40
4.489346956745006
 40
4.489346956745006
 10
263.8636780827582
 20
463.2789197985904
 30
0.0
 41
1.0
 10
266.1881650952051
 20
462.6730107601824
 30
0.0
 41
1.01528023573722
 10
268.2818596602205
 20
462.5079912168813
 30
0.0
 41
1.0
  0
LINE
  5
3E6
330
2
100
AcDbEntity
  8
AM_VIS
100
AcDbLine
 10
262.5791995844998
 20
463.2789197985904
 30
0.0
 11
263.8636780827583
 21
463.2789197985904
 31
0.0
  0
SPLINE
  5
3E7
330
2
100
AcDbEntity
  8
AM_VIS
100
AcDbSpline
210
0.0
220
0.0
230
1.0
 70
    12
 71
     2
 72
     6
 73
     3
 74
     0
 42
0.0000000001
 43
0.0000000001
 40
0.0
 40
0.0
 40
0.0
 40
4.489200933507459
 40
4.489200933507459
 40
4.489200933507459
 10
260.3701826471714
 20
462.5079912168813
 30
0.0
 41
1.0
 10
261.4169949328647
 20
462.6730254991708
 30
0.0
 41
1.015279190562461
 10
262.5791995844998
 20
463.2789197985904
 30
0.0
 41
1.0
  0
LINE
  5
3E8
330
2
100
AcDbEntity
  8
AM_VIS
100
AcDbLine
 10
260.3701826471714
 20
462.5079912168813
 30
0.0
 11
268.2818596602205
 21
462.5079912168813
 31
0.0
  0
SPLINE
  5
3E9
330
2
100
AcDbEntity
  8
AM_VIS
100
AcDbSpline
210
0.0
220
0.0
230
1.0
 70
    12
 71
     2
 72
     6
 73
     3
 74
     0
 42
0.0000000001
 43
0.0000000001
 40
0.0
 40
0.0
 40
0.0
 40
4.489200933507414
 40
4.489200933507414
 40
4.489200933507414
 10
256.5072914157279
 20
463.2789197985904
 30
0.0
 41
1.0
 10
257.669496067363
 20
462.6730254991707
 30
0.0
 41
1.015279190563105
 10
258.7163083530563
 20
462.5079912168813
 30
0.0
 41
1.0
  0
LINE
  5
3EA
330
2
100
AcDbEntity
  8
AM_VIS
100
AcDbLine
 10
256.4868309638604
 20
463.2789197985904
 30
0.0
 11
256.5072914157278
 21
463.2789197985904
 31
0.0
  0
LINE
  5
3EB
330
2
100
AcDbEntity
  8
AM_VIS
100
AcDbLine
 10
257.8221184363877
 20
462.5079912168813
 30
0.0
 11
258.7163083530563
 21
462.5079912168813
 31
0.0
  0
LINE
  5
3EC
330
2
100
AcDbEntity
  8
AM_VIS
100
AcDbLine
 10
283.3637691453319
 20
463.2789197985904
 30
0.0
 11
283.3842309638604
 21
463.2789197985904
 31
0.0
  0
SPLINE
  5
3ED
330
2
100
AcDbEntity
  8
AM_VIS
100
AcDbSpline
210
0.0
220
0.0
230
1.0
 70
    12
 71
     2
 72
     6
 73
     3
 74
     0
 42
0.0000000001
 43
0.0000000001
 40
0.0
 40
0.0
 40
0.0
 40
4.489259339835413
 40
4.489259339835413
 40
4.489259339835413
 10
281.1547226689319
 20
462.5079912168813
 30
0.0
 41
1.0
 10
282.2015489526453
 20
462.6730196039319
 30
0.0
 41
1.015279608607052
 10
283.363769145332
 20
463.2789197985904
 30
0.0
 41
1.0
  0
LINE
  5
3EE
330
2
100
AcDbEntity
  8
AM_VIS
100
AcDbLine
 10
281.1547226689321
 20
462.5079912168813
 30
0.0
 11
282.0489434913332
 21
462.5079912168813
 31
0.0
  0
SPLINE
  5
3EF
330
2
100
AcDbEntity
  8
AM_VIS
100
AcDbSpline
210
0.0
220
0.0
230
1.0
 70
    12
 71
     2
 72
     6
 73
     3
 74
     0
 42
0.0000000001
 43
0.0000000001
 40
0.0
 40
0.0
 40
0.0
 40
4.489259339835388
 40
4.489259339835388
 40
4.489259339835388
 10
277.2918830915489
 20
463.2789197985904
 30
0.0
 41
1.0
 10
278.4541032842357
 20
462.6730196039319
 30
0.0
 41
1.01527960860693
 10
279.500929567949
 20
462.5079912168813
 30
0.0
 41
1.0
  0
LINE
  5
3F0
330
2
100
AcDbEntity
  8
AM_VIS
100
AcDbLine
 10
276.0073838449626
 20
463.2789197985904
 30
0.0
 11
277.2918830915489
 21
463.2789197985904
 31
0.0
  0
SPLINE
  5
3F1
330
2
100
AcDbEntity
  8
AM_VIS
100
AcDbSpline
210
0.0
220
0.0
230
1.0
 70
    12
 71
     2
 72
     6
 73
     3
 74
     0
 42
0.0000000001
 43
0.0000000001
 40
0.0
 40
0.0
 40
0.0
 40
4.489346956745006
 40
4.489346956745006
 40
4.489346956745006
 10
271.5892022675004
 20
462.5079912168813
 30
0.0
 41
1.0
 10
273.6828968325159
 20
462.6730107601824
 30
0.0
 41
1.01528023573722
 10
276.0073838449627
 20
463.2789197985904
 30
0.0
 41
1.0
  0
LINE
  5
3F2
330
2
100
AcDbEntity
  8
AM_VIS
100
AcDbLine
 10
271.5892022675004
 20
462.5079912168813
 30
0.0
 11
279.5009295679489
 21
462.5079912168813
 31
0.0
  0
LINE
  5
3F3
330
2
100
AcDbEntity
  8
AM_VIS
100
AcDbLine
 10
263.8636780827583
 20
466.6789197985904
 30
0.0
 11
263.8636780827583
 21
463.2789197985904
 31
0.0
  0
LINE
  5
3F4
330
2
100
AcDbEntity
  8
AM_VIS
100
AcDbLine
 10
262.5791995844998
 20
466.6789197985904
 30
0.0
 11
263.8636780827583
 21
466.6789197985904
 31
0.0
  0
LINE
  5
3F5
330
2
100
AcDbEntity
  8
AM_VIS
100
AcDbLine
 10
262.5791995844998
 20
463.2789197985904
 30
0.0
 11
262.5791995844998
 21
466.6789197985904
 31
0.0
  0
LINE
  5
3F6
330
2
100
AcDbEntity
  8
AM_VIS
100
AcDbLine
 10
256.5072914157279
 20
466.6789197985904
 30
0.0
 11
256.5072914157279
 21
463.2789197985904
 31
0.0
  0
LINE
  5
3F7
330
2
100
AcDbEntity
  8
AM_VIS
100
AcDbLine
 10
256.4868309638604
 20
466.6789197985904
 30
0.0
 11
256.5072914157278
 21
466.6789197985904
 31
0.0
  0
LINE
  5
3F8
330
2
100
AcDbEntity
  8
AM_VIS
100
AcDbLine
 10
283.3637691453319
 20
466.6789197985904
 30
0.0
 11
283.3842309638604
 21
466.6789197985904
 31
0.0
  0
LINE
  5
3F9
330
2
100
AcDbEntity
  8
AM_VIS
100
AcDbLine
 10
283.3637691453319
 20
463.2789197985904
 30
0.0
 11
283.3637691453319
 21
466.6789197985904
 31
0.0
  0
SPLINE
  5
3FA
330
2
100
AcDbEntity
  8
AM_VIS
100
AcDbSpline
210
0.0
220
0.0
230
1.0
 70
    12
 71
     2
 72
     6
 73
     3
 74
     0
 42
0.0000000001
 43
0.0000000001
 40
0.0
 40
0.0
 40
0.0
 40
5.590835352818166
 40
5.590835352818166
 40
5.590835352818166
 10
269.3832850976218
 20
467.5079912168813
 30
0.0
 41
1.0
 10
266.779131311649
 20
467.4388721893681
 30
0.0
 41
1.02435951945957
 10
263.8636780827583
 20
466.6789197985904
 30
0.0
 41
1.0
  0
SPLINE
  5
3FB
330
2
100
AcDbEntity
  8
AM_VIS
100
AcDbSpline
210
0.0
220
0.0
230
1.0
 70
    12
 71
     2
 72
     6
 73
     3
 74
     0
 42
0.0000000001
 43
0.0000000001
 40
0.0
 40
0.0
 40
0.0
 40
5.59028604994716
 40
5.59028604994716
 40
5.59028604994716
 10
262.5791995844998
 20
466.6789197985904
 30
0.0
 41
1.0
 10
261.1216188217032
 20
467.4388030720567
 30
0.0
 41
1.024354465647418
 10
259.8196722069594
 20
467.5079912168813
 30
0.0
 41
1.0
  0
SPLINE
  5
3FC
330
2
100
AcDbEntity
  8
AM_VIS
100
AcDbSpline
210
0.0
220
0.0
230
1.0
 70
    12
 71
     2
 72
     6
 73
     3
 74
     0
 42
0.0000000001
 43
0.0000000001
 40
0.0
 40
0.0
 40
0.0
 40
5.590286049947125
 40
5.590286049947125
 40
5.590286049947125
 10
259.2668187932682
 20
467.5079912168813
 30
0.0
 41
1.0
 10
257.9648721785246
 20
467.4388030720567
 30
0.0
 41
1.02435446564768
 10
256.5072914157279
 20
466.6789197985904
 30
0.0
 41
1.0
  0
SPLINE
  5
3FD
330
2
100
AcDbEntity
  8
AM_VIS
100
AcDbSpline
210
0.0
220
0.0
230
1.0
 70
    12
 71
     2
 72
     6
 73
     3
 74
     0
 42
0.0000000001
 43
0.0000000001
 40
0.0
 40
0.0
 40
0.0
 40
5.590505691017647
 40
5.590505691017647
 40
5.590505691017647
 10
283.363769145332
 20
466.6789197985904
 30
0.0
 41
1.0
 10
281.9061300630774
 20
467.4388307081043
 30
0.0
 41
1.024356486367967
 10
280.6041313559745
 20
467.5079912168813
 30
0.0
 41
1.0
  0
LINE
  5
3FE
330
2
100
AcDbEntity
  8
AM_VIS
100
AcDbLine
 10
277.2918830915489
 20
466.6789197985904
 30
0.0
 11
277.2918830915489
 21
463.2789197985904
 31
0.0
  0
LINE
  5
3FF
330
2
100
AcDbEntity
  8
AM_VIS
100
AcDbLine
 10
276.0073838449626
 20
466.6789197985904
 30
0.0
 11
277.2918830915489
 21
466.6789197985904
 31
0.0
  0
LINE
  5
400
330
2
100
AcDbEntity
  8
AM_VIS
100
AcDbLine
 10
276.0073838449626
 20
463.2789197985904
 30
0.0
 11
276.0073838449626
 21
466.6789197985904
 31
0.0
  0
SPLINE
  5
401
330
2
100
AcDbEntity
  8
AM_VIS
100
AcDbSpline
210
0.0
220
0.0
230
1.0
 70
    12
 71
     2
 72
     6
 73
     3
 74
     0
 42
0.0000000001
 43
0.0000000001
 40
0.0
 40
0.0
 40
0.0
 40
5.590505691017647
 40
5.590505691017647
 40
5.590505691017647
 10
280.0515208809064
 20
467.5079912168813
 30
0.0
 41
1.0
 10
278.7495221738034
 20
467.4388307081043
 30
0.0
 41
1.024356486368036
 10
277.2918830915489
 20
466.6789197985904
 30
0.0
 41
1.0
  0
SPLINE
  5
402
330
2
100
AcDbEntity
  8
AM_VIS
100
AcDbSpline
210
0.0
220
0.0
230
1.0
 70
    12
 71
     2
 72
     6
 73
     3
 74
     0
 42
0.0000000001
 43
0.0000000001
 40
0.0
 40
0.0
 40
0.0
 40
5.590835352818166
 40
5.590835352818166
 40
5.590835352818166
 10
276.0073838449626
 20
466.6789197985904
 30
0.0
 41
1.0
 10
273.0919306160719
 20
467.4388721893681
 30
0.0
 41
1.02435951945957
 10
270.4877768300992
 20
467.5079912168813
 30
0.0
 41
1.0
  0
LINE
  5
403
330
2
100
AcDbEntity
  8
AM_VIS
100
AcDbLine
 10
271.5892022675004
 20
462.5079912168813
 30
0.0
 11
268.2818596602205
 21
462.5079912168813
 31
0.0
  0
LINE
  5
404
330
2
100
AcDbEntity
  8
AM_VIS
100
AcDbLine
 10
260.3701826471714
 20
462.5079912168813
 30
0.0
 11
258.7163083530563
 21
462.5079912168813
 31
0.0
  0
LINE
  5
405
330
2
100
AcDbEntity
  8
AM_VIS
100
AcDbLine
 10
281.1547226689321
 20
462.5079912168813
 30
0.0
 11
279.5009295679489
 21
462.5079912168813
 31
0.0
  0
LINE
  5
406
330
2
100
AcDbEntity
  8
AM_VIS
100
AcDbLine
 10
275.9355309638605
 20
475.8679912168817
 30
0.0
 11
275.9355309638605
 21
475.3679912168813
 31
0.0
  0
LINE
  5
407
330
2
100
AcDbEntity
  8
AM_VIS
100
AcDbLine
 10
263.9355309638605
 20
475.8679912168817
 30
0.0
 11
263.9355309638605
 21
475.3679912168813
 31
0.0
  0
LINE
  5
408
330
2
100
AcDbEntity
  8
AM_VIS
100
AcDbLine
 10
257.8221184363877
 20
462.5079912168813
 30
0.0
 11
256.4868309638605
 21
463.2789197985904
 31
0.0
  0
LINE
  5
409
330
2
100
AcDbEntity
  8
AM_VIS
100
AcDbLine
 10
282.0489434913332
 20
462.5079912168813
 30
0.0
 11
283.3842309638604
 21
463.2789197985904
 31
0.0
  0
LINE
  5
40A
330
2
100
AcDbEntity
  8
AM_VIS
100
AcDbLine
 10
256.4868309638604
 20
466.6789197985904
 30
0.0
 11
256.4868309638604
 21
463.2789197985904
 31
0.0
  0
LINE
  5
40B
330
2
100
AcDbEntity
  8
AM_VIS
100
AcDbLine
 10
283.3842309638604
 20
466.6789197985904
 30
0.0
 11
283.3842309638604
 21
463.2789197985904
 31
0.0
  0
LINE
  5
40C
330
2
100
AcDbEntity
  8
AM_VIS
100
AcDbLine
 10
257.9228247834435
 20
467.5079912168813
 30
0.0
 11
256.4868309638605
 21
466.6789197985904
 31
0.0
  0
LINE
  5
40D
330
2
100
AcDbEntity
  8
AM_VIS
100
AcDbLine
 10
281.9482371442775
 20
467.5079912168813
 30
0.0
 11
283.3842309638604
 21
466.6789197985904
 31
0.0
  0
LINE
  5
40E
330
2
100
AcDbEntity
  8
AM_VIS
100
AcDbLine
 10
256.4355309638605
 20
544.7079912168813
 30
0.0
 11
283.4355309638605
 21
544.7079912168813
 31
0.0
  0
LINE
  5
40F
330
2
100
AcDbEntity
  8
AM_VIS
100
AcDbLine
 10
256.4355309638605
 20
543.2079912168814
 30
0.0
 11
256.4355309638605
 21
544.7079912168813
 31
0.0
  0
LINE
  5
410
330
2
100
AcDbEntity
  8
AM_VIS
100
AcDbLine
 10
283.4355309638605
 20
543.2079912168814
 30
0.0
 11
283.4355309638605
 21
544.7079912168813
 31
0.0
  0
LINE
  5
411
330
2
100
AcDbEntity
  8
AM_VIS
100
AcDbLine
 10
283.4355309638605
 20
467.5079912168813
 30
0.0
 11
256.4355309638605
 21
467.5079912168813
 31
0.0
  0
LINE
  5
412
330
2
100
AcDbEntity
  8
AM_VIS
100
AcDbLine
 10
283.4355309638605
 20
469.0079912168813
 30
0.0
 11
283.4355309638605
 21
467.5079912168813
 31
0.0
  0
LINE
  5
413
330
2
100
AcDbEntity
  8
AM_VIS
100
AcDbLine
 10
256.4355309638605
 20
469.0079912168813
 30
0.0
 11
256.4355309638605
 21
467.5079912168813
 31
0.0
  0
LINE
  5
414
330
2
100
AcDbEntity
  8
AM_VIS
100
AcDbLine
 10
255.3351503052057
 20
513.1179912168813
 30
0.0
 11
255.3351503052057
 21
512.1179912168813
 31
0.0
  0
LINE
  5
415
330
2
100
AcDbEntity
  8
AM_VIS
100
AcDbLine
 10
255.3351503052057
 20
500.1179912168813
 30
0.0
 11
255.3351503052057
 21
499.1179912168814
 31
0.0
  0
LINE
  5
416
330
2
100
AcDbEntity
  8
AM_VIS
100
AcDbLine
 10
243.3351503052057
 20
513.1179912168813
 30
0.0
 11
243.3351503052057
 21
512.1179912168813
 31
0.0
  0
LINE
  5
417
330
2
100
AcDbEntity
  8
AM_VIS
100
AcDbLine
 10
243.3351503052057
 20
500.1179912168813
 30
0.0
 11
243.3351503052057
 21
499.1179912168814
 31
0.0
  0
LINE
  5
418
330
2
100
AcDbEntity
  8
AM_VIS
100
AcDbLine
 10
257.8351503052068
 20
492.0179912168814
 30
0.0
 11
257.8338557140361
 21
492.0179912168814
 31
0.0
  0
LINE
  5
419
330
2
100
AcDbEntity
  8
AM_VIS
100
AcDbLine
 10
257.8338557140361
 20
492.0179912168814
 30
0.0
 11
240.8351503052068
 21
492.0179912168814
 31
0.0
  0
LINE
  5
41A
330
2
100
AcDbEntity
  8
AM_VIS
100
AcDbLine
 10
257.8351503052068
 20
493.6179912168813
 30
0.0
 11
257.8351503052068
 21
492.0179912168813
 31
0.0
  0
LINE
  5
41B
330
2
100
AcDbEntity
  8
AM_VIS
100
AcDbLine
 10
240.8351503052068
 20
493.6179912168813
 30
0.0
 11
240.8351503052068
 21
492.0179912168813
 31
0.0
  0
LINE
  5
41C
330
2
100
AcDbEntity
  8
AM_VIS
100
AcDbLine
 10
240.8351503052068
 20
520.2179912168814
 30
0.0
 11
257.8338557140361
 21
520.2179912168814
 31
0.0
  0
LINE
  5
41D
330
2
100
AcDbEntity
  8
AM_VIS
100
AcDbLine
 10
257.8338557140361
 20
520.2179912168814
 30
0.0
 11
257.8351503052068
 21
520.2179912168814
 31
0.0
  0
LINE
  5
41E
330
2
100
AcDbEntity
  8
AM_VIS
100
AcDbLine
 10
257.8351503052068
 20
520.2179912168814
 30
0.0
 11
257.8351503052068
 21
518.6179912168813
 31
0.0
  0
LINE
  5
41F
330
2
100
AcDbEntity
  8
AM_VIS
100
AcDbLine
 10
240.8351503052068
 20
520.2179912168814
 30
0.0
 11
240.8351503052068
 21
518.6179912168813
 31
0.0
  0
SPLINE
  5
420
330
2
100
AcDbEntity
  8
AM_VIS
100
AcDbSpline
210
0.0
220
0.0
230
1.0
 70
    12
 71
     2
 72
     6
 73
     3
 74
     0
 42
0.0000000001
 43
0.0000000001
 40
1.758602658732453
 40
1.758602658732453
 40
1.758602658732453
 40
9.96426167380382
 40
9.96426167380382
 40
9.96426167380382
 10
252.9739165964858
 20
523.546629945687
 30
0.0
 41
1.087572144626077
 10
249.2217109754627
 20
524.0494069298393
 30
0.0
 41
1.255820219371631
 10
245.4695062291725
 20
523.5466304145266
 30
0.0
 41
1.087572280497931
  0
LINE
  5
421
330
2
100
AcDbEntity
  8
AM_VIS
100
AcDbLine
 10
245.4695062291726
 20
520.8893520192365
 30
0.0
 11
245.4695062291726
 21
523.5466304145266
 31
0.0
  0
SPLINE
  5
422
330
2
100
AcDbEntity
  8
AM_VIS
100
AcDbSpline
210
0.0
220
0.0
230
1.0
 70
    12
 71
     2
 72
     6
 73
     3
 74
     0
 42
0.0000000001
 43
0.0000000001
 40
1.758605972049861
 40
1.758605972049861
 40
1.758605972049861
 40
9.964264987121234
 40
9.964264987121234
 40
9.964264987121234
 10
245.4695062291726
 20
520.8893520192365
 30
0.0
 41
1.087572280497931
 10
249.2217109754627
 20
520.3865755039235
 30
0.0
 41
1.255820219371631
 10
252.9739165964858
 20
520.8893524880759
 30
0.0
 41
1.087572144626077
  0
LINE
  5
423
330
2
100
AcDbEntity
  8
AM_VIS
100
AcDbLine
 10
252.9739165964858
 20
520.8893524880759
 30
0.0
 11
252.9739165964858
 21
523.546629945687
 31
0.0
  0
SPLINE
  5
424
330
2
100
AcDbEntity
  8
AM_VIS
100
AcDbSpline
210
0.0
220
0.0
230
1.0
 70
    12
 71
     2
 72
     6
 73
     3
 74
     0
 42
0.0000000001
 43
0.0000000001
 40
1.758604772090482
 40
1.758604772090482
 40
1.758604772090482
 40
9.964264660755395
 40
9.964264660755395
 40
9.964264660755395
 10
245.4695062291726
 20
523.5466304145266
 30
0.0
 41
1.087572289972704
 10
243.6501238522296
 20
524.0494073693763
 30
0.0
 41
1.255820421171479
 10
241.8307416873586
 20
523.5466306489463
 30
0.0
 41
1.087572357908661
  0
LINE
  5
425
330
2
100
AcDbEntity
  8
AM_VIS
100
AcDbLine
 10
241.8307416873586
 20
520.8893517848167
 30
0.0
 11
241.8307416873586
 21
523.5466306489463
 31
0.0
  0
SPLINE
  5
426
330
2
100
AcDbEntity
  8
AM_VIS
100
AcDbSpline
210
0.0
220
0.0
230
1.0
 70
    12
 71
     2
 72
     6
 73
     3
 74
     0
 42
0.0000000001
 43
0.0000000001
 40
1.758606428749256
 40
1.758606428749256
 40
1.758606428749256
 40
9.964266317414162
 40
9.964266317414162
 40
9.964266317414162
 10
241.8307416873586
 20
520.8893517848167
 30
0.0
 41
1.087572357908662
 10
243.6501238522296
 20
520.3865750643866
 30
0.0
 41
1.255820421171479
 10
245.4695062291726
 20
520.8893520192365
 30
0.0
 41
1.087572289972703
  0
SPLINE
  5
427
330
2
100
AcDbEntity
  8
AM_VIS
100
AcDbSpline
210
0.0
220
0.0
230
1.0
 70
    12
 71
     2
 72
     6
 73
     3
 74
     0
 42
0.0000000001
 43
0.0000000001
 40
9.821376700645865
 40
9.821376700645865
 40
9.821376700645865
 40
9.964262000169098
 40
9.964262000169098
 40
9.964262000169098
 10
256.7669534789213
 20
523.566391520333
 30
0.0
 41
1.093329447467588
 10
256.8030786998756
 20
523.5567117965518
 30
0.0
 41
1.090501772348932
 10
256.839562421985
 20
523.5466297112674
 30
0.0
 41
1.08757206721543
  0
LINE
  5
428
330
2
100
AcDbEntity
  8
AM_VIS
100
AcDbLine
 10
256.839562421985
 20
520.8893527224956
 30
0.0
 11
256.839562421985
 21
523.5466297112675
 31
0.0
  0
SPLINE
  5
429
330
2
100
AcDbEntity
  8
AM_VIS
100
AcDbSpline
210
0.0
220
0.0
230
1.0
 70
    12
 71
     2
 72
     6
 73
     3
 74
     0
 42
0.0000000001
 43
0.0000000001
 40
1.758602202031912
 40
1.758602202031912
 40
1.758602202031912
 40
1.901487501555255
 40
1.901487501555255
 40
1.901487501555255
 10
256.839562421985
 20
520.8893527224955
 30
0.0
 41
1.08757206721543
 10
256.8030786998756
 20
520.879270637211
 30
0.0
 41
1.090501772348935
 10
256.7669534789213
 20
520.86959091343
 30
0.0
 41
1.093329447467593
  0
SPLINE
  5
42A
330
2
100
AcDbEntity
  8
AM_VIS
100
AcDbSpline
210
0.0
220
0.0
230
1.0
 70
    12
 71
     2
 72
     6
 73
     3
 74
     0
 42
0.0000000001
 43
0.0000000001
 40
1.758602202031911
 40
1.758602202031911
 40
1.758602202031911
 40
9.964260343510504
 40
9.964260343510504
 40
9.964260343510504
 10
256.839562421985
 20
523.5466297112674
 30
0.0
 41
1.08757206721543
 10
254.9067393965881
 20
524.0494064903024
 30
0.0
 41
1.255820017571921
 10
252.9739165964857
 20
523.546629945687
 30
0.0
 41
1.087572135151323
  0
SPLINE
  5
42B
330
2
100
AcDbEntity
  8
AM_VIS
100
AcDbSpline
210
0.0
220
0.0
230
1.0
 70
    12
 71
     2
 72
     6
 73
     3
 74
     0
 42
0.0000000001
 43
0.0000000001
 40
1.758603858690499
 40
1.758603858690499
 40
1.758603858690499
 40
9.964262000169108
 40
9.964262000169108
 40
9.964262000169108
 10
252.9739165964857
 20
520.8893524880759
 30
0.0
 41
1.087572135151323
 10
254.9067393965881
 20
520.3865759434605
 30
0.0
 41
1.255820017571922
 10
256.839562421985
 20
520.8893527224956
 30
0.0
 41
1.08757206721543
  0
LINE
  5
42C
330
2
100
AcDbEntity
  8
AM_VIS
100
AcDbLine
 10
244.3351503052057
 20
524.2179912168815
 30
0.0
 11
249.2478882730191
 21
524.2179912168815
 31
0.0
  0
LINE
  5
42D
330
2
100
AcDbEntity
  8
AM_VIS
100
AcDbLine
 10
249.2478882730191
 20
524.2179912168815
 30
0.0
 11
254.3351503052057
 21
524.2179912168815
 31
0.0
  0
LINE
  5
42E
330
2
100
AcDbEntity
  8
AM_VIS
100
AcDbLine
 10
254.3351503052058
 20
524.2179912168815
 30
0.0
 11
256.7669534789214
 21
523.566391520333
 31
0.0
  0
LINE
  5
42F
330
2
100
AcDbEntity
  8
AM_VIS
100
AcDbLine
 10
244.3351503052057
 20
524.2179912168815
 30
0.0
 11
241.9033505965684
 21
523.5663924487978
 31
0.0
  0
LINE
  5
430
330
2
100
AcDbEntity
  8
AM_VIS
100
AcDbLine
 10
244.3351503052057
 20
520.2179912168815
 30
0.0
 11
241.9033505965685
 21
520.869589984965
 31
0.0
  0
LINE
  5
431
330
2
100
AcDbEntity
  8
AM_VIS
100
AcDbLine
 10
254.3351503052058
 20
520.2179912168815
 30
0.0
 11
256.7669534789213
 21
520.8695909134299
 31
0.0
  0
LINE
  5
432
330
2
100
AcDbEntity
  8
AM_VIS
100
AcDbLine
 10
245.4351503052071
 20
527.0179912168813
 30
0.0
 11
253.234556316317
 21
527.0179912168813
 31
0.0
  0
LINE
  5
433
330
2
100
AcDbEntity
  8
AM_VIS
100
AcDbLine
 10
253.234556316317
 20
527.0179912168813
 30
0.0
 11
253.235150305207
 21
527.0179912168813
 31
0.0
  0
LINE
  5
434
330
2
100
AcDbEntity
  8
AM_VIS
100
AcDbLine
 10
254.3351503052071
 20
489.0179912168814
 30
0.0
 11
254.3343887809891
 21
489.0179912168814
 31
0.0
  0
LINE
  5
435
330
2
100
AcDbEntity
  8
AM_VIS
100
AcDbLine
 10
254.3343887809891
 20
489.0179912168814
 30
0.0
 11
244.3351503052071
 21
489.0179912168814
 31
0.0
  0
LINE
  5
436
330
2
100
AcDbEntity
  8
AM_VIS
100
AcDbLine
 10
245.4351503052071
 20
524.2179912168815
 30
0.0
 11
245.4351503052071
 21
527.0179912168813
 31
0.0
  0
LINE
  5
437
330
2
100
AcDbEntity
  8
AM_VIS
100
AcDbLine
 10
253.235150305207
 20
524.2179912168815
 30
0.0
 11
253.235150305207
 21
527.0179912168813
 31
0.0
  0
LINE
  5
438
330
2
100
AcDbEntity
  8
AM_VIS
100
AcDbLine
 10
254.3351503052071
 20
492.0179912168814
 30
0.0
 11
254.3351503052071
 21
489.0179912168814
 31
0.0
  0
LINE
  5
439
330
2
100
AcDbEntity
  8
AM_VIS
100
AcDbLine
 10
244.335150305207
 20
492.0179912168814
 30
0.0
 11
244.335150305207
 21
489.0179912168814
 31
0.0
  0
ELLIPSE
  5
43A
330
2
100
AcDbEntity
  8
AM_VIS
100
AcDbEllipse
 10
270.0460889561181
 20
506.1179912168817
 30
0.0
 11
0.0000000000000004
 21
-10.0
 31
0.0
210
0.0
220
0.0
230
1.0
 40
0.9938696747300287
 41
5.457462810064694
 42
10.25050045788427
  0
ELLIPSE
  5
43B
330
2
100
AcDbEntity
  8
AM_VIS
100
AcDbEllipse
 10
276.2373365225426
 20
506.1179912168817
 30
0.0
 11
0.0000000000000004
 21
-10.0
 31
0.0
210
0.0
220
0.0
230
1.0
 40
0.9938696747300287
 41
3.458334142332875
 42
4.068887871591649
  0
ELLIPSE
  5
43C
330
2
100
AcDbEntity
  8
AM_VIS
100
AcDbEllipse
 10
276.2373365225426
 20
506.1179912168817
 30
0.0
 11
0.0000000000000004
 21
-10.0
 31
0.0
210
0.0
220
0.0
230
1.0
 40
0.9938696747300287
 41
5.355890089178211
 42
5.96644381843649
  0
ELLIPSE
  5
43D
330
2
100
AcDbEntity
  8
AM_VIS
100
AcDbEllipse
 10
299.3448064600157
 20
529.3679912168818
 30
0.0
 11
0.0000000000000001
 21
-3.0
 31
0.0
210
0.0
220
0.0
230
1.0
 40
0.9938696747300287
 41
4.12053908674704
 42
5.304238874022338
  0
ELLIPSE
  5
43E
330
2
100
AcDbEntity
  8
AM_VIS
100
AcDbEllipse
 10
296.0280666922883
 20
529.3679912168818
 30
0.0
 11
0.0000000000000001
 21
-3.0
 31
0.0
210
0.0
220
0.0
230
1.0
 40
0.9938696747300287
 41
3.15769727392498
 42
4.712388980384689
  0
ELLIPSE
  5
43F
330
2
100
AcDbEntity
  8
AM_VIS
100
AcDbEllipse
 10
296.0280666922883
 20
529.3679912168818
 30
0.0
 11
0.0000000000000001
 21
-3.0
 31
0.0
210
0.0
220
0.0
230
1.0
 40
0.9938696747300287
 41
4.712388980384689
 42
6.267080686844399
  0
ELLIPSE
  5
440
330
2
100
AcDbEntity
  8
AM_VIS
100
AcDbEllipse
 10
299.3448064600157
 20
482.8679912168817
 30
0.0
 11
0.0000000000000001
 21
-3.0
 31
0.0
210
0.0
220
0.0
230
1.0
 40
0.9938696747300287
 41
4.120539086747006
 42
5.304238874022372
  0
ELLIPSE
  5
441
330
2
100
AcDbEntity
  8
AM_VIS
100
AcDbEllipse
 10
296.0280666922883
 20
482.8679912168817
 30
0.0
 11
0.0000000000000001
 21
-3.0
 31
0.0
210
0.0
220
0.0
230
1.0
 40
0.9938696747300287
 41
3.157697273924941
 42
4.712388980384689
  0
ELLIPSE
  5
442
330
2
100
AcDbEntity
  8
AM_VIS
100
AcDbEllipse
 10
296.0280666922883
 20
482.8679912168817
 30
0.0
 11
0.0000000000000001
 21
-3.0
 31
0.0
210
0.0
220
0.0
230
1.0
 40
0.9938696747300287
 41
4.712388980384689
 42
6.267080686844437
  0
ELLIPSE
  5
443
330
2
100
AcDbEntity
  8
AM_VIS
100
AcDbEllipse
 10
253.1298665850693
 20
482.8679912168817
 30
0.0
 11
0.0000000000000001
 21
-3.0
 31
0.0
210
0.0
220
0.0
230
1.0
 40
0.9938696747300287
 41
4.120539086747006
 42
5.304238874022372
  0
ELLIPSE
  5
444
330
2
100
AcDbEntity
  8
AM_VIS
100
AcDbEllipse
 10
249.813126817342
 20
482.8679912168817
 30
0.0
 11
0.0000000000000001
 21
-3.0
 31
0.0
210
0.0
220
0.0
230
1.0
 40
0.9938696747300287
 41
3.157697273924941
 42
4.712388980384689
  0
ELLIPSE
  5
445
330
2
100
AcDbEntity
  8
AM_VIS
100
AcDbEllipse
 10
249.813126817342
 20
482.8679912168817
 30
0.0
 11
0.0000000000000001
 21
-3.0
 31
0.0
210
0.0
220
0.0
230
1.0
 40
0.9938696747300287
 41
4.712388980384689
 42
6.267080686844437
  0
ELLIPSE
  5
446
330
2
100
AcDbEntity
  8
AM_VIS
100
AcDbEllipse
 10
253.1298665850693
 20
529.3679912168818
 30
0.0
 11
0.0000000000000001
 21
-3.0
 31
0.0
210
0.0
220
0.0
230
1.0
 40
0.9938696747300287
 41
4.120539086747024
 42
5.30423887402236
  0
ELLIPSE
  5
447
330
2
100
AcDbEntity
  8
AM_VIS
100
AcDbEllipse
 10
249.813126817342
 20
529.3679912168818
 30
0.0
 11
0.0000000000000001
 21
-3.0
 31
0.0
210
0.0
220
0.0
230
1.0
 40
0.9938696747300287
 41
3.157697273924961
 42
4.712388980384689
  0
ELLIPSE
  5
448
330
2
100
AcDbEntity
  8
AM_VIS
100
AcDbEllipse
 10
249.813126817342
 20
529.3679912168818
 30
0.0
 11
0.0000000000000001
 21
-3.0
 31
0.0
210
0.0
220
0.0
230
1.0
 40
0.9938696747300287
 41
4.712388980384689
 42
5.612399314433579
  0
ELLIPSE
  5
449
330
2
100
AcDbEntity
  8
AM_VIS
100
AcDbEllipse
 10
296.0280666922883
 20
482.8679912168817
 30
0.0
 11
0.0000000000000004
 21
-11.75
 31
0.0
210
0.0
220
0.0
230
1.0
 40
0.9938696747300287
 41
0.0
 42
1.570796326794896
  0
LINE
  5
44A
330
2
100
AcDbEntity
  8
AM_VIS
100
AcDbLine
 10
296.0280666922883
 20
471.1179912168817
 30
0.0
 11
299.3448064600157
 21
471.1179912168817
 31
0.0
  0
ELLIPSE
  5
44B
330
2
100
AcDbEntity
  8
AM_VIS
100
AcDbEllipse
 10
299.3448064600157
 20
482.8679912168817
 30
0.0
 11
0.0000000000000004
 21
-11.75
 31
0.0
210
0.0
220
0.0
230
1.0
 40
0.9938696747300287
 41
0.0
 42
1.570796326794896
  0
LINE
  5
44C
330
2
100
AcDbEntity
  8
AM_VIS
100
AcDbLine
 10
311.0227751380936
 20
529.3679912168818
 30
0.0
 11
311.0227751380936
 21
482.8679912168817
 31
0.0
  0
LINE
  5
44D
330
2
100
AcDbEntity
  8
AM_VIS
100
AcDbLine
 10
307.7060353703663
 20
529.3679912168818
 30
0.0
 11
307.7060353703663
 21
482.8679912168817
 31
0.0
  0
ELLIPSE
  5
44E
330
2
100
AcDbEntity
  8
AM_VIS
100
AcDbEllipse
 10
299.3448064600157
 20
529.3679912168818
 30
0.0
 11
0.0000000000000004
 21
-11.75
 31
0.0
210
0.0
220
0.0
230
1.0
 40
0.9938696747300287
 41
1.570796326794896
 42
3.141592653589793
  0
ELLIPSE
  5
44F
330
2
100
AcDbEntity
  8
AM_VIS
100
AcDbEllipse
 10
249.813126817342
 20
482.8679912168817
 30
0.0
 11
0.0000000000000004
 21
-11.75
 31
0.0
210
0.0
220
0.0
230
1.0
 40
0.9938696747300287
 41
5.350581483269377
 42
5.404674053468284
  0
LINE
  5
450
330
2
100
AcDbEntity
  8
AM_VIS
100
AcDbLine
 10
238.1351581392642
 20
488.4827092346671
 30
0.0
 11
238.1351581392642
 21
493.6179912168815
 31
0.0
  0
LINE
  5
451
330
2
100
AcDbEntity
  8
AM_VIS
100
AcDbLine
 10
238.1351581392642
 20
499.1179912168814
 30
0.0
 11
238.1351581392642
 21
500.1179912168813
 31
0.0
  0
LINE
  5
452
330
2
100
AcDbEntity
  8
AM_VIS
100
AcDbLine
 10
238.1351581392642
 20
512.1179912168813
 30
0.0
 11
238.1351581392642
 21
513.1179912168814
 31
0.0
  0
LINE
  5
453
330
2
100
AcDbEntity
  8
AM_VIS
100
AcDbLine
 10
238.1351581392642
 20
518.6179912168815
 30
0.0
 11
238.1351581392642
 21
523.7532731990962
 31
0.0
  0
ELLIPSE
  5
454
330
2
100
AcDbEntity
  8
AM_VIS
100
AcDbEllipse
 10
249.813126817342
 20
529.3679912168818
 30
0.0
 11
0.0000000000000004
 21
-11.75
 31
0.0
210
0.0
220
0.0
230
1.0
 40
0.9938696747300287
 41
4.020103907301187
 42
4.074196477500001
  0
ELLIPSE
  5
455
330
2
100
AcDbEntity
  8
AM_VIS
100
AcDbEllipse
 10
296.0280666922883
 20
529.3679912168818
 30
0.0
 11
0.0000000000000004
 21
-11.75
 31
0.0
210
0.0
220
0.0
230
1.0
 40
0.9938696747300287
 41
1.570796326794896
 42
3.141592653589793
  0
LINE
  5
456
330
2
100
AcDbEntity
  8
AM_VIS
100
AcDbLine
 10
299.3448064600157
 20
541.1179912168818
 30
0.0
 11
296.0280666922884
 21
541.1179912168818
 31
0.0
  0
LINE
  5
457
330
2
100
AcDbEntity
  8
AM_VIS
100
AcDbLine
 10
296.0280666922884
 20
471.1179912168817
 30
0.0
 11
284.9355309638605
 21
471.1179912168817
 31
0.0
  0
LINE
  5
458
330
2
100
AcDbEntity
  8
AM_VIS
100
AcDbLine
 10
284.9355309638605
 20
541.1179912168818
 30
0.0
 11
296.0280666922884
 21
541.1179912168818
 31
0.0
  0
SPLINE
  5
459
330
2
100
AcDbEntity
  8
AM_VIS
100
AcDbSpline
210
0.0
220
0.0
230
1.0
 70
     8
 71
     1
 72
    21
 73
    19
 74
     0
 42
0.0000000001
 43
0.0000000001
 40
6.758788338631049
 40
6.758788338631049
 40
6.771017005379039
 40
6.787841671516332
 40
6.804666337653626
 40
6.821491003790919
 40
6.838315669928213
 40
6.855140336065507
 40
6.8719650022028
 40
6.888789668340093
 40
6.905614334477387
 40
6.922439000614681
 40
6.939275011160749
 40
6.956111021706815
 40
6.972947032252882
 40
6.989783042798951
 40
7.006619053345017
 40
7.023455063891084
 40
7.040291074437152
 40
7.050503124058643
 40
7.050503124058643
 10
262.0661489094022
 20
490.1184403367101
 30
0.0
 10
261.871866764503
 20
490.2200653744495
 30
0.0
 10
261.6069493436888
 20
490.3643857955243
 30
0.0
 10
261.3444903011532
 20
490.5131658305146
 30
0.0
 10
261.0845639369478
 20
490.6663630122859
 30
0.0
 10
260.827243816301
 20
490.8239336235577
 30
0.0
 10
260.5726027488393
 20
490.9858327101848
 30
0.0
 10
260.3207127680652
 20
491.152014094786
 30
0.0
 10
260.0716451111015
 20
491.3224303907112
 30
0.0
 10
259.8254701987068
 20
491.4970330163425
 30
0.0
 10
259.5822576155669
 20
491.6757722097227
 30
0.0
 10
259.3419151809672
 20
491.8587216839451
 30
0.0
 10
259.1046758851934
 20
492.0457101266929
 30
0.0
 10
258.8706068239123
 20
492.2366842170839
 30
0.0
 10
258.6397741782484
 20
492.4315895125532
 30
0.0
 10
258.4122431964617
 20
492.6303704650749
 30
0.0
 10
258.1880781759305
 20
492.8329704376737
 30
0.0
 10
257.9673424454398
 20
493.0393317212192
 30
0.0
 10
257.835570877634
 20
493.166748026442
 30
0.0
  0
SPLINE
  5
45A
330
2
100
AcDbEntity
  8
AM_VIS
100
AcDbSpline
210
0.0
220
0.0
230
1.0
 70
     8
 71
     1
 72
    22
 73
    20
 74
     0
 42
0.0000000001
 43
0.0000000001
 40
8.657460143890322
 40
8.657460143890322
 40
8.658310883590214
 40
8.67515813170408
 40
8.692005379817949
 40
8.708852627931815
 40
8.725699876045684
 40
8.74254712415955
 40
8.759394372273419
 40
8.776241620387287
 40
8.793088868501154
 40
8.809936116615022
 40
8.826783364728889
 40
8.843630612842757
 40
8.860464232755099
 40
8.877297852667441
 40
8.894131472579783
 40
8.910965092492126
 40
8.927798712404468
 40
8.94463233231681
 40
8.94917492931793
 40
8.94917492931793
 10
257.8352354612703
 20
519.0695848227535
 30
0.0
 10
257.8461135055381
 20
519.0803023353498
 30
0.0
 10
258.0650626260893
 20
519.2888675430623
 30
0.0
 10
258.2874804080353
 20
519.4936989667557
 30
0.0
 10
258.513303941915
 20
519.6947381927631
 30
0.0
 10
258.7424693373705
 20
519.8919278729777
 30
0.0
 10
258.9749117407437
 20
520.0852117418583
 30
0.0
 10
259.2105653529843
 20
520.2745346331521
 30
0.0
 10
259.4493634478644
 20
520.4598424963342
 30
0.0
 10
259.6912383904973
 20
520.6410824127506
 30
0.0
 10
259.9361216561526
 20
520.8182026114627
 30
0.0
 10
260.1839438493685
 20
520.9911524847848
 30
0.0
 10
260.4346347233531
 20
521.1598826035079
 30
0.0
 10
260.6879170345771
 20
521.324213431472
 30
0.0
 10
260.9439207084895
 20
521.4842362567163
 30
0.0
 10
261.2025732407293
 20
521.6399053831579
 30
0.0
 10
261.463801358477
 20
521.7911763468085
 30
0.0
 10
261.727531041149
 20
521.9380059292813
 30
0.0
 10
261.9936875413503
 20
522.0803521709496
 30
0.0
 10
262.0661451011299
 20
522.1175438607822
 30
0.0
  0
LINE
  5
45B
330
2
100
AcDbEntity
  8
AM_VIS
100
AcDbLine
 10
318.3881325624866
 20
471.1179912168819
 30
0.0
 11
321.4564049115315
 21
471.1179912168819
 31
0.0
  0
ELLIPSE
  5
45C
330
2
100
AcDbEntity
  8
AM_VIS
100
AcDbEllipse
 10
321.4564049115315
 20
482.8679912168819
 30
0.0
 11
0.0000000000000004
 21
-11.75
 31
0.0
210
0.0
220
0.0
230
1.0
 40
0.9938696747300287
 41
0.0
 42
1.570796326794896
  0
LINE
  5
45D
330
2
100
AcDbEntity
  8
AM_VIS
100
AcDbLine
 10
333.1343735896093
 20
529.3679912168819
 30
0.0
 11
333.1343735896093
 21
482.8679912168819
 31
0.0
  0
LINE
  5
45E
330
2
100
AcDbEntity
  8
AM_VIS
100
AcDbLine
 10
329.817633821882
 20
529.3679912168819
 30
0.0
 11
329.817633821882
 21
482.8679912168819
 31
0.0
  0
ELLIPSE
  5
45F
330
2
100
AcDbEntity
  8
AM_VIS
100
AcDbEllipse
 10
321.4564049115315
 20
529.3679912168819
 30
0.0
 11
0.0000000000000004
 21
-11.75
 31
0.0
210
0.0
220
0.0
230
1.0
 40
0.9938696747300287
 41
1.570796326794896
 42
3.141592653589793
  0
LINE
  5
460
330
2
100
AcDbEntity
  8
AM_VIS
100
AcDbLine
 10
321.4564049115315
 20
541.1179912168819
 30
0.0
 11
318.3881325624865
 21
541.1179912168819
 31
0.0
  0
ELLIPSE
  5
461
330
2
100
AcDbEntity
  8
AM_VIS
100
AcDbEllipse
 10
276.2373365225428
 20
506.1179912168815
 30
0.0
 11
0.0000000000000004
 21
-10.0
 31
0.0
210
0.0
220
0.0
230
1.0
 40
0.9938696747300287
 41
3.458334142332846
 42
4.068887871591615
  0
ELLIPSE
  5
462
330
2
100
AcDbEntity
  8
AM_VIS
100
AcDbEllipse
 10
276.2373365225428
 20
506.1179912168815
 30
0.0
 11
0.0000000000000004
 21
-10.0
 31
0.0
210
0.0
220
0.0
230
1.0
 40
0.9938696747300287
 41
5.355890089178185
 42
5.966443818436449
  0
ELLIPSE
  5
463
330
2
100
AcDbEntity
  8
AM_VIS
100
AcDbEllipse
 10
246.7727820302586
 20
529.3679912168816
 30
0.0
 11
0.0000000000000002
 21
-4.25
 31
0.0
210
0.0
220
0.0
230
1.0
 40
0.9938696747300287
 41
0.9849063157767828
 42
1.570796326794896
  0
ELLIPSE
  5
464
330
2
100
AcDbEntity
  8
AM_VIS
100
AcDbEllipse
 10
246.7727820302586
 20
529.3679912168816
 30
0.0
 11
0.0000000000000002
 21
-4.25
 31
0.0
210
0.0
220
0.0
230
1.0
 40
0.9938696747300287
 41
1.570796326794896
 42
5.9609598982006
  0
ELLIPSE
  5
465
330
2
100
AcDbEntity
  8
AM_VIS
100
AcDbEllipse
 10
246.7175030341298
 20
529.3679912168816
 30
0.0
 11
0.0000000000000002
 21
-4.75
 31
0.0
210
0.0
220
0.0
230
1.0
 40
0.9938696747300287
 41
1.570796326794896
 42
6.00809463443614
  0
ELLIPSE
  5
466
330
2
100
AcDbEntity
  8
AM_VIS
100
AcDbEllipse
 10
246.7175030341298
 20
529.3679912168816
 30
0.0
 11
0.0000000000000002
 21
-4.75
 31
0.0
210
0.0
220
0.0
230
1.0
 40
0.9938696747300287
 41
1.053264334761783
 42
1.570796326794896
  0
LINE
  5
467
330
2
100
AcDbEntity
  8
AM_VIS
100
AcDbLine
 10
239.511947892337
 20
522.3679912168817
 30
0.0
 11
237.524208542877
 21
524.3679912168817
 31
0.0
  0
LINE
  5
468
330
2
100
AcDbEntity
  8
AM_VIS
100
AcDbLine
 10
241.8307416873586
 20
522.3679912168817
 30
0.0
 11
239.511947892337
 21
522.3679912168817
 31
0.0
  0
LINE
  5
469
330
2
100
AcDbEntity
  8
AM_VIS
100
AcDbLine
 10
239.511947892337
 20
536.3679912168817
 30
0.0
 11
253.9230581759225
 21
536.3679912168817
 31
0.0
  0
LINE
  5
46A
330
2
100
AcDbEntity
  8
AM_VIS
100
AcDbLine
 10
237.524208542877
 20
534.3679912168816
 30
0.0
 11
239.5119478923371
 21
536.3679912168817
 31
0.0
  0
LINE
  5
46B
330
2
100
AcDbEntity
  8
AM_VIS
100
AcDbLine
 10
237.524208542877
 20
524.3679912168817
 30
0.0
 11
237.524208542877
 21
534.3679912168816
 31
0.0
  0
ELLIPSE
  5
46C
330
2
100
AcDbEntity
  8
AM_VIS
100
AcDbEllipse
 10
292.9877219052049
 20
529.3679912168816
 30
0.0
 11
0.0000000000000002
 21
-4.25
 31
0.0
210
0.0
220
0.0
230
1.0
 40
0.9938696747300287
 41
1.570796326794896
 42
7.853981633974482
  0
ELLIPSE
  5
46D
330
2
100
AcDbEntity
  8
AM_VIS
100
AcDbEllipse
 10
292.9324429090761
 20
529.3679912168816
 30
0.0
 11
0.0000000000000002
 21
-4.75
 31
0.0
210
0.0
220
0.0
230
1.0
 40
0.9938696747300287
 41
4.712388980384689
 42
10.99557428756427
  0
LINE
  5
46E
330
2
100
AcDbEntity
  8
AM_VIS
100
AcDbLine
 10
302.1257374003289
 20
524.3679912168817
 30
0.0
 11
300.1379980508688
 21
522.3679912168817
 31
0.0
  0
LINE
  5
46F
330
2
100
AcDbEntity
  8
AM_VIS
100
AcDbLine
 10
302.1257374003289
 20
534.3679912168816
 30
0.0
 11
302.1257374003289
 21
524.3679912168817
 31
0.0
  0
LINE
  5
470
330
2
100
AcDbEntity
  8
AM_VIS
100
AcDbLine
 10
300.1379980508688
 20
536.3679912168817
 30
0.0
 11
302.1257374003289
 21
534.3679912168816
 31
0.0
  0
LINE
  5
471
330
2
100
AcDbEntity
  8
AM_VIS
100
AcDbLine
 10
285.7268877672834
 20
536.3679912168817
 30
0.0
 11
300.1379980508688
 21
536.3679912168817
 31
0.0
  0
LINE
  5
472
330
2
100
AcDbEntity
  8
AM_VIS
100
AcDbLine
 10
300.1379980508688
 20
522.3679912168817
 30
0.0
 11
285.7268877672834
 21
522.3679912168817
 31
0.0
  0
LINE
  5
473
330
2
100
AcDbEntity
  8
AM_VIS
100
AcDbLine
 10
255.2474495718371
 20
536.3679912168817
 30
0.0
 11
253.9230581759225
 21
536.3679912168817
 31
0.0
  0
LINE
  5
474
330
2
100
AcDbEntity
  8
AM_VIS
100
AcDbLine
 10
255.247449571837
 20
536.3679912168817
 30
0.0
 11
260.5473196666717
 21
536.3679912168817
 31
0.0
  0
LINE
  5
475
330
2
100
AcDbEntity
  8
AM_VIS
100
AcDbLine
 10
260.5473196666717
 20
536.3679912168817
 30
0.0
 11
276.4492344623522
 21
536.3679912168817
 31
0.0
  0
LINE
  5
476
330
2
100
AcDbEntity
  8
AM_VIS
100
AcDbLine
 10
276.4492344623522
 20
536.3679912168817
 30
0.0
 11
283.0758004642778
 21
536.3679912168817
 31
0.0
  0
LINE
  5
477
330
2
100
AcDbEntity
  8
AM_VIS
100
AcDbLine
 10
283.0758004642778
 20
536.3679912168817
 30
0.0
 11
283.5180324333082
 21
536.3679912168817
 31
0.0
  0
LINE
  5
478
330
2
100
AcDbEntity
  8
AM_VIS
100
AcDbLine
 10
285.7268877672834
 20
536.3679912168817
 30
0.0
 11
283.5180324333082
 21
536.3679912168817
 31
0.0
  0
LINE
  5
479
330
2
100
AcDbEntity
  8
AM_VIS
100
AcDbLine
 10
303.233621834081
 20
536.3679912168818
 30
0.0
 11
300.1379980508688
 21
536.3679912168818
 31
0.0
  0
LINE
  5
47A
330
2
100
AcDbEntity
  8
AM_VIS
100
AcDbLine
 10
300.1379980508688
 20
522.3679912168817
 30
0.0
 11
303.233621834081
 21
522.3679912168817
 31
0.0
  0
LINE
  5
47B
330
2
100
AcDbEntity
  8
AM_VIS
100
AcDbLine
 10
303.233621834081
 20
522.3679912168818
 30
0.0
 11
305.2213611835411
 21
524.3679912168818
 31
0.0
  0
LINE
  5
47C
330
2
100
AcDbEntity
  8
AM_VIS
100
AcDbLine
 10
305.2213611835411
 20
524.3679912168818
 30
0.0
 11
302.1257374003289
 21
524.3679912168818
 31
0.0
  0
LINE
  5
47D
330
2
100
AcDbEntity
  8
AM_VIS
100
AcDbLine
 10
305.2213611835411
 20
534.3679912168818
 30
0.0
 11
305.2213611835411
 21
524.3679912168818
 31
0.0
  0
LINE
  5
47E
330
2
100
AcDbEntity
  8
AM_VIS
100
AcDbLine
 10
302.1257374003289
 20
534.3679912168816
 30
0.0
 11
305.2213611835411
 21
534.3679912168816
 31
0.0
  0
LINE
  5
47F
330
2
100
AcDbEntity
  8
AM_VIS
100
AcDbLine
 10
305.2213611835411
 20
534.3679912168818
 30
0.0
 11
303.233621834081
 21
536.3679912168818
 31
0.0
  0
LINE
  5
480
330
2
100
AcDbEntity
  8
AM_VIS
100
AcDbLine
 10
283.5180324333082
 20
522.3679912168817
 30
0.0
 11
285.7268877672834
 21
522.3679912168817
 31
0.0
  0
LINE
  5
481
330
2
100
AcDbEntity
  8
AM_VIS
100
AcDbLine
 10
283.5180324333082
 20
522.3679912168817
 30
0.0
 11
283.0758004642778
 21
522.3679912168817
 31
0.0
  0
LINE
  5
482
330
2
100
AcDbEntity
  8
AM_VIS
100
AcDbLine
 10
283.0758004642778
 20
522.3679912168817
 30
0.0
 11
276.4492344623522
 21
522.3679912168817
 31
0.0
  0
LINE
  5
483
330
2
100
AcDbEntity
  8
AM_VIS
100
AcDbLine
 10
276.4492344623522
 20
522.3679912168817
 30
0.0
 11
260.5473196666717
 21
522.3679912168817
 31
0.0
  0
LINE
  5
484
330
2
100
AcDbEntity
  8
AM_VIS
100
AcDbLine
 10
260.5473196666717
 20
522.3679912168817
 30
0.0
 11
256.839562421985
 21
522.3679912168817
 31
0.0
  0
LINE
  5
485
330
2
100
AcDbEntity
  8
AM_VIS
100
AcDbLine
 10
283.0758004642778
 20
536.3679912168817
 30
0.0
 11
283.0758004642778
 21
522.3679912168817
 31
0.0
  0
LINE
  5
486
330
2
100
AcDbEntity
  8
AM_VIS
100
AcDbLine
 10
276.4492344623522
 20
522.3679912168817
 30
0.0
 11
276.4492344623522
 21
536.3679912168817
 31
0.0
  0
LINE
  5
487
330
2
100
AcDbEntity
  8
AM_VIS
100
AcDbLine
 10
260.5473196666719
 20
536.3679912168817
 30
0.0
 11
260.5473196666719
 21
522.3679912168817
 31
0.0
  0
LINE
  5
488
330
2
100
AcDbEntity
  8
AM_VIS
100
AcDbLine
 10
255.247449571837
 20
536.3679912168817
 30
0.0
 11
255.247449571837
 21
523.973541365132
 31
0.0
  0
ELLIPSE
  5
489
330
2
100
AcDbEntity
  8
AM_VIS
100
AcDbEllipse
 10
292.987721905205
 20
482.8679912168817
 30
0.0
 11
0.0
 21
-4.25
 31
0.0
210
0.0
220
0.0
230
1.0
 40
0.9938696747300287
 41
1.570796326794896
 42
7.853981633974482
  0
ELLIPSE
  5
48A
330
2
100
AcDbEntity
  8
AM_VIS
100
AcDbEllipse
 10
292.9324429090762
 20
482.8679912168817
 30
0.0
 11
0.0000000000000001
 21
-4.75
 31
0.0
210
0.0
220
0.0
230
1.0
 40
0.9938696747300287
 41
4.712388980384689
 42
10.99557428756427
  0
LINE
  5
48B
330
2
100
AcDbEntity
  8
AM_VIS
100
AcDbLine
 10
300.1379980508689
 20
489.8679912168817
 30
0.0
 11
302.1257374003289
 21
487.8679912168817
 31
0.0
  0
LINE
  5
48C
330
2
100
AcDbEntity
  8
AM_VIS
100
AcDbLine
 10
285.7268877672836
 20
489.8679912168817
 30
0.0
 11
300.137998050869
 21
489.8679912168817
 31
0.0
  0
LINE
  5
48D
330
2
100
AcDbEntity
  8
AM_VIS
100
AcDbLine
 10
300.1379980508689
 20
475.8679912168817
 30
0.0
 11
285.7268877672835
 21
475.8679912168817
 31
0.0
  0
LINE
  5
48E
330
2
100
AcDbEntity
  8
AM_VIS
100
AcDbLine
 10
302.125737400329
 20
477.8679912168818
 30
0.0
 11
300.1379980508689
 21
475.8679912168817
 31
0.0
  0
LINE
  5
48F
330
2
100
AcDbEntity
  8
AM_VIS
100
AcDbLine
 10
302.125737400329
 20
487.8679912168817
 30
0.0
 11
302.125737400329
 21
477.8679912168818
 31
0.0
  0
ELLIPSE
  5
490
330
2
100
AcDbEntity
  8
AM_VIS
100
AcDbEllipse
 10
246.7727820302587
 20
482.8679912168817
 30
0.0
 11
0.0
 21
-4.25
 31
0.0
210
0.0
220
0.0
230
1.0
 40
0.9938696747300287
 41
1.570796326794896
 42
7.853981633974482
  0
ELLIPSE
  5
491
330
2
100
AcDbEntity
  8
AM_VIS
100
AcDbEllipse
 10
246.7175030341299
 20
482.8679912168817
 30
0.0
 11
0.0000000000000001
 21
-4.75
 31
0.0
210
0.0
220
0.0
230
1.0
 40
0.9938696747300287
 41
4.712388980384689
 42
10.99557428756427
  0
LINE
  5
492
330
2
100
AcDbEntity
  8
AM_VIS
100
AcDbLine
 10
237.5242085428771
 20
487.8679912168817
 30
0.0
 11
239.5119478923372
 21
489.8679912168817
 31
0.0
  0
LINE
  5
493
330
2
100
AcDbEntity
  8
AM_VIS
100
AcDbLine
 10
237.5242085428771
 20
477.8679912168818
 30
0.0
 11
237.5242085428771
 21
487.8679912168817
 31
0.0
  0
LINE
  5
494
330
2
100
AcDbEntity
  8
AM_VIS
100
AcDbLine
 10
239.5119478923371
 20
475.8679912168817
 30
0.0
 11
237.5242085428771
 21
477.8679912168818
 31
0.0
  0
LINE
  5
495
330
2
100
AcDbEntity
  8
AM_VIS
100
AcDbLine
 10
253.9230581759226
 20
475.8679912168817
 30
0.0
 11
239.5119478923372
 21
475.8679912168817
 31
0.0
  0
LINE
  5
496
330
2
100
AcDbEntity
  8
AM_VIS
100
AcDbLine
 10
239.5119478923371
 20
489.8679912168817
 30
0.0
 11
244.335150305207
 21
489.8679912168817
 31
0.0
  0
LINE
  5
497
330
2
100
AcDbEntity
  8
AM_VIS
100
AcDbLine
 10
302.125737400329
 20
487.8679912168817
 30
0.0
 11
305.2213611835412
 21
487.8679912168817
 31
0.0
  0
LINE
  5
498
330
2
100
AcDbEntity
  8
AM_VIS
100
AcDbLine
 10
305.2213611835412
 20
487.8679912168817
 30
0.0
 11
303.2336218340812
 21
489.8679912168817
 31
0.0
  0
LINE
  5
499
330
2
100
AcDbEntity
  8
AM_VIS
100
AcDbLine
 10
303.2336218340812
 20
489.8679912168817
 30
0.0
 11
300.1379980508689
 21
489.8679912168817
 31
0.0
  0
LINE
  5
49A
330
2
100
AcDbEntity
  8
AM_VIS
100
AcDbLine
 10
305.2213611835412
 20
477.8679912168818
 30
0.0
 11
302.125737400329
 21
477.8679912168818
 31
0.0
  0
LINE
  5
49B
330
2
100
AcDbEntity
  8
AM_VIS
100
AcDbLine
 10
305.2213611835412
 20
487.8679912168817
 30
0.0
 11
305.2213611835412
 21
477.8679912168818
 31
0.0
  0
LINE
  5
49C
330
2
100
AcDbEntity
  8
AM_VIS
100
AcDbLine
 10
300.1379980508689
 20
475.8679912168817
 30
0.0
 11
303.2336218340812
 21
475.8679912168817
 31
0.0
  0
LINE
  5
49D
330
2
100
AcDbEntity
  8
AM_VIS
100
AcDbLine
 10
303.2336218340812
 20
475.8679912168817
 30
0.0
 11
305.2213611835412
 21
477.8679912168818
 31
0.0
  0
LINE
  5
49E
330
2
100
AcDbEntity
  8
AM_VIS
100
AcDbLine
 10
283.5180324333083
 20
475.8679912168817
 30
0.0
 11
285.7268877672836
 21
475.8679912168817
 31
0.0
  0
LINE
  5
49F
330
2
100
AcDbEntity
  8
AM_VIS
100
AcDbLine
 10
283.5180324333083
 20
475.8679912168817
 30
0.0
 11
283.075800464278
 21
475.8679912168817
 31
0.0
  0
LINE
  5
4A0
330
2
100
AcDbEntity
  8
AM_VIS
100
AcDbLine
 10
283.075800464278
 20
475.8679912168817
 30
0.0
 11
276.4492344623523
 21
475.8679912168817
 31
0.0
  0
LINE
  5
4A1
330
2
100
AcDbEntity
  8
AM_VIS
100
AcDbLine
 10
276.4492344623523
 20
475.8679912168817
 30
0.0
 11
260.5473196666719
 21
475.8679912168817
 31
0.0
  0
LINE
  5
4A2
330
2
100
AcDbEntity
  8
AM_VIS
100
AcDbLine
 10
260.5473196666719
 20
475.8679912168817
 30
0.0
 11
255.2474495718371
 21
475.8679912168817
 31
0.0
  0
LINE
  5
4A3
330
2
100
AcDbEntity
  8
AM_VIS
100
AcDbLine
 10
253.9230581759226
 20
475.8679912168817
 30
0.0
 11
255.2474495718372
 21
475.8679912168817
 31
0.0
  0
LINE
  5
4A4
330
2
100
AcDbEntity
  8
AM_VIS
100
AcDbLine
 10
255.2474495718372
 20
489.8679912168817
 30
0.0
 11
254.3351503052071
 21
489.8679912168817
 31
0.0
  0
LINE
  5
4A5
330
2
100
AcDbEntity
  8
AM_VIS
100
AcDbLine
 10
255.2474495718372
 20
489.8679912168817
 30
0.0
 11
260.5473196666719
 21
489.8679912168817
 31
0.0
  0
LINE
  5
4A6
330
2
100
AcDbEntity
  8
AM_VIS
100
AcDbLine
 10
260.5473196666719
 20
489.8679912168817
 30
0.0
 11
276.4492344623523
 21
489.8679912168817
 31
0.0
  0
LINE
  5
4A7
330
2
100
AcDbEntity
  8
AM_VIS
100
AcDbLine
 10
276.4492344623523
 20
489.8679912168817
 30
0.0
 11
283.075800464278
 21
489.8679912168817
 31
0.0
  0
LINE
  5
4A8
330
2
100
AcDbEntity
  8
AM_VIS
100
AcDbLine
 10
283.075800464278
 20
489.8679912168817
 30
0.0
 11
283.5180324333082
 21
489.8679912168817
 31
0.0
  0
LINE
  5
4A9
330
2
100
AcDbEntity
  8
AM_VIS
100
AcDbLine
 10
285.7268877672835
 20
489.8679912168817
 30
0.0
 11
283.5180324333082
 21
489.8679912168817
 31
0.0
  0
LINE
  5
4AA
330
2
100
AcDbEntity
  8
AM_VIS
100
AcDbLine
 10
255.2474495718372
 20
475.8679912168817
 30
0.0
 11
255.2474495718372
 21
489.8679912168817
 31
0.0
  0
LINE
  5
4AB
330
2
100
AcDbEntity
  8
AM_VIS
100
AcDbLine
 10
260.5473196666719
 20
489.8679912168817
 30
0.0
 11
260.5473196666719
 21
475.8679912168817
 31
0.0
  0
LINE
  5
4AC
330
2
100
AcDbEntity
  8
AM_VIS
100
AcDbLine
 10
276.4492344623523
 20
475.8679912168817
 30
0.0
 11
276.4492344623523
 21
489.8679912168817
 31
0.0
  0
LINE
  5
4AD
330
2
100
AcDbEntity
  8
AM_VIS
100
AcDbLine
 10
283.075800464278
 20
475.8679912168817
 30
0.0
 11
283.075800464278
 21
489.8679912168817
 31
0.0
  0
LINE
  5
4AE
330
2
100
AcDbEntity
  8
AM_VIS
100
AcDbLine
 10
299.3448064600157
 20
471.1179912168817
 30
0.0
 11
299.5932738786982
 21
471.1179912168817
 31
0.0
  0
ELLIPSE
  5
4AF
330
2
100
AcDbEntity
  8
AM_VIS
100
AcDbEllipse
 10
299.5932738786982
 20
482.6179912168817
 30
0.0
 11
0.0000000000000004
 21
-11.5
 31
0.0
210
0.0
220
0.0
230
1.0
 40
0.9938696747300287
 41
0.0
 42
1.570796326794896
  0
LINE
  5
4B0
330
2
100
AcDbEntity
  8
AM_VIS
100
AcDbLine
 10
311.0227751380936
 20
482.6179912168817
 30
0.0
 11
311.0227751380936
 21
489.6179912168816
 31
0.0
  0
LINE
  5
4B1
330
2
100
AcDbEntity
  8
AM_VIS
100
AcDbLine
 10
311.0227751380936
 20
502.6179912168817
 30
0.0
 11
311.0227751380936
 21
509.6179912168818
 31
0.0
  0
LINE
  5
4B2
330
2
100
AcDbEntity
  8
AM_VIS
100
AcDbLine
 10
311.0227751380936
 20
522.6179912168817
 30
0.0
 11
311.0227751380936
 21
529.6179912168818
 31
0.0
  0
ELLIPSE
  5
4B3
330
2
100
AcDbEntity
  8
AM_VIS
100
AcDbEllipse
 10
299.5932738786982
 20
529.6179912168818
 30
0.0
 11
0.0000000000000004
 21
-11.5
 31
0.0
210
0.0
220
0.0
230
1.0
 40
0.9938696747300287
 41
1.570796326794896
 42
3.141592653589793
  0
LINE
  5
4B4
330
2
100
AcDbEntity
  8
AM_VIS
100
AcDbLine
 10
299.5932738786982
 20
541.1179912168817
 30
0.0
 11
299.3448064600157
 21
541.1179912168817
 31
0.0
  0
ELLIPSE
  5
4B5
330
2
100
AcDbEntity
  8
AM_VIS
100
AcDbEllipse
 10
326.3390899603267
 20
492.6179912168818
 30
0.0
 11
0.0000000000000001
 21
-1.5
 31
0.0
210
0.0
220
0.0
230
1.0
 40
0.9938696747300287
 41
4.712388980384689
 42
6.283185307179586
  0
LINE
  5
4B6
330
2
100
AcDbEntity
  8
AM_VIS
100
AcDbLine
 10
328.3268293097869
 20
491.1179912168817
 30
0.0
 11
311.0227751380935
 21
491.1179912168817
 31
0.0
  0
ELLIPSE
  5
4B7
330
2
100
AcDbEntity
  8
AM_VIS
100
AcDbEllipse
 10
328.3268293097869
 20
489.6179912168817
 30
0.0
 11
0.0000000000000001
 21
-1.5
 31
0.0
210
0.0
220
0.0
230
1.0
 40
0.9938696747300287
 41
1.570796326794896
 42
3.141592653589793
  0
LINE
  5
4B8
330
2
100
AcDbEntity
  8
AM_VIS
100
AcDbLine
 10
329.8176338218819
 20
482.6179912168818
 30
0.0
 11
329.8176338218819
 21
489.6179912168817
 31
0.0
  0
ELLIPSE
  5
4B9
330
2
100
AcDbEntity
  8
AM_VIS
100
AcDbEllipse
 10
326.3390899603267
 20
499.6179912168818
 30
0.0
 11
0.0000000000000001
 21
-1.5
 31
0.0
210
0.0
220
0.0
230
1.0
 40
0.9938696747300287
 41
3.141592653589793
 42
4.712388980384689
  0
LINE
  5
4BA
330
2
100
AcDbEntity
  8
AM_VIS
100
AcDbLine
 10
324.8482854482316
 20
492.6179912168818
 30
0.0
 11
324.8482854482316
 21
499.6179912168818
 31
0.0
  0
ELLIPSE
  5
4BB
330
2
100
AcDbEntity
  8
AM_VIS
100
AcDbEllipse
 10
328.3268293097869
 20
502.6179912168818
 30
0.0
 11
0.0000000000000001
 21
-1.5
 31
0.0
210
0.0
220
0.0
230
1.0
 40
0.9938696747300287
 41
0.0
 42
1.570796326794896
  0
LINE
  5
4BC
330
2
100
AcDbEntity
  8
AM_VIS
100
AcDbLine
 10
311.0227751380936
 20
501.1179912168818
 30
0.0
 11
328.3268293097869
 21
501.1179912168818
 31
0.0
  0
ELLIPSE
  5
4BD
330
2
100
AcDbEntity
  8
AM_VIS
100
AcDbEllipse
 10
328.3268293097869
 20
509.6179912168818
 30
0.0
 11
0.0000000000000001
 21
-1.5
 31
0.0
210
0.0
220
0.0
230
1.0
 40
0.9938696747300287
 41
1.570796326794896
 42
3.141592653589793
  0
LINE
  5
4BE
330
2
100
AcDbEntity
  8
AM_VIS
100
AcDbLine
 10
328.3268293097869
 20
511.1179912168818
 30
0.0
 11
311.0227751380936
 21
511.1179912168817
 31
0.0
  0
ELLIPSE
  5
4BF
330
2
100
AcDbEntity
  8
AM_VIS
100
AcDbEllipse
 10
326.3390899603267
 20
512.6179912168818
 30
0.0
 11
0.0000000000000001
 21
-1.5
 31
0.0
210
0.0
220
0.0
230
1.0
 40
0.9938696747300287
 41
4.712388980384689
 42
6.283185307179586
  0
ELLIPSE
  5
4C0
330
2
100
AcDbEntity
  8
AM_VIS
100
AcDbEllipse
 10
326.3390899603267
 20
519.6179912168818
 30
0.0
 11
0.0000000000000001
 21
-1.5
 31
0.0
210
0.0
220
0.0
230
1.0
 40
0.9938696747300287
 41
3.141592653589793
 42
4.712388980384689
  0
LINE
  5
4C1
330
2
100
AcDbEntity
  8
AM_VIS
100
AcDbLine
 10
324.8482854482316
 20
512.6179912168818
 30
0.0
 11
324.8482854482316
 21
519.6179912168818
 31
0.0
  0
ELLIPSE
  5
4C2
330
2
100
AcDbEntity
  8
AM_VIS
100
AcDbEllipse
 10
328.3268293097869
 20
522.6179912168817
 30
0.0
 11
0.0000000000000001
 21
-1.5
 31
0.0
210
0.0
220
0.0
230
1.0
 40
0.9938696747300287
 41
0.0
 42
1.570796326794896
  0
LINE
  5
4C3
330
2
100
AcDbEntity
  8
AM_VIS
100
AcDbLine
 10
311.0227751380936
 20
521.1179912168818
 30
0.0
 11
328.3268293097869
 21
521.1179912168818
 31
0.0
  0
ELLIPSE
  5
4C4
330
2
100
AcDbEntity
  8
AM_VIS
100
AcDbEllipse
 10
318.3881325624866
 20
529.6179912168818
 30
0.0
 11
0.0000000000000004
 21
-11.5
 31
0.0
210
0.0
220
0.0
230
1.0
 40
0.9938696747300287
 41
1.570796326794896
 42
3.141592653589793
  0
LINE
  5
4C5
330
2
100
AcDbEntity
  8
AM_VIS
100
AcDbLine
 10
318.3881325624866
 20
541.1179912168818
 30
0.0
 11
299.5932738786981
 21
541.1179912168818
 31
0.0
  0
LINE
  5
4C6
330
2
100
AcDbEntity
  8
AM_VIS
100
AcDbLine
 10
329.8176338218819
 20
522.6179912168817
 30
0.0
 11
329.8176338218819
 21
529.6179912168818
 31
0.0
  0
ELLIPSE
  5
4C7
330
2
100
AcDbEntity
  8
AM_VIS
100
AcDbEllipse
 10
318.3881325624866
 20
482.6179912168818
 30
0.0
 11
0.0000000000000004
 21
-11.5
 31
0.0
210
0.0
220
0.0
230
1.0
 40
0.9938696747300287
 41
0.0
 42
1.570796326794896
  0
LINE
  5
4C8
330
2
100
AcDbEntity
  8
AM_VIS
100
AcDbLine
 10
299.5932738786982
 20
471.1179912168817
 30
0.0
 11
318.3881325624866
 21
471.1179912168818
 31
0.0
  0
LINE
  5
4C9
330
2
100
AcDbEntity
  8
AM_VIS
100
AcDbLine
 10
329.8176338218819
 20
502.6179912168818
 30
0.0
 11
329.8176338218819
 21
509.6179912168818
 31
0.0
  0
ELLIPSE
  5
4CA
330
2
100
AcDbEntity
  8
AM_VIS
100
AcDbEllipse
 10
248.7075468947662
 20
482.8679912168817
 30
0.0
 11
0.0000000000000001
 21
-4.099999999999999
 31
0.0
210
0.0
220
0.0
230
1.0
 40
0.9938696747300287
 41
3.301208804007893
 42
6.123569156761486
  0
ELLIPSE
  5
4CB
330
2
100
AcDbEntity
  8
AM_VIS
100
AcDbEllipse
 10
248.7075468947662
 20
529.3679912168818
 30
0.0
 11
0.0000000000000001
 21
-4.099999999999999
 31
0.0
210
0.0
220
0.0
230
1.0
 40
0.9938696747300287
 41
3.301208804007907
 42
5.350758207105359
  0
ELLIPSE
  5
4CC
330
2
100
AcDbEntity
  8
AM_VIS
100
AcDbEllipse
 10
294.9224867697127
 20
529.3679912168818
 30
0.0
 11
0.0000000000000001
 21
-4.099999999999999
 31
0.0
210
0.0
220
0.0
230
1.0
 40
0.9938696747300287
 41
3.301208804007921
 42
6.123569156761486
  0
ELLIPSE
  5
4CD
330
2
100
AcDbEntity
  8
AM_VIS
100
AcDbEllipse
 10
294.9224867697127
 20
482.8679912168817
 30
0.0
 11
0.0000000000000001
 21
-4.099999999999999
 31
0.0
210
0.0
220
0.0
230
1.0
 40
0.9938696747300287
 41
3.301208804007907
 42
6.1235691567615
  0
LINE
  5
4CE
330
2
100
AcDbEntity
  8
AM_VIS
100
AcDbLine
 10
241.9989265903385
 20
489.8679912168817
 30
0.0
 11
241.9989265903385
 21
492.0179912168813
 31
0.0
  0
LINE
  5
4CF
330
2
100
AcDbEntity
  8
AM_VIS
100
AcDbLine
 10
241.9989265903385
 20
520.2179912168814
 30
0.0
 11
241.9989265903385
 21
520.8439804746186
 31
0.0
  0
LINE
  5
4D0
330
2
100
AcDbEntity
  8
AM_VIS
100
AcDbLine
 10
301.6311070741403
 20
522.3679912168817
 30
0.0
 11
301.6311070741403
 21
489.8679912168817
 31
0.0
  0
LINE
  5
4D1
330
2
100
AcDbEntity
  8
AM_VIS
100
AcDbLine
 10
302.7366869967161
 20
522.3679912168817
 30
0.0
 11
302.7366869967161
 21
489.8679912168817
 31
0.0
  0
LINE
  5
4D2
330
2
100
AcDbEntity
  8
AM_VIS
100
AcDbLine
 10
256.9355309638605
 20
490.1179912168817
 30
0.0
 11
256.906971711289
 21
490.1179912168817
 31
0.0
  0
LINE
  5
4D3
330
2
100
AcDbEntity
  8
AM_VIS
100
AcDbLine
 10
286.7230619531899
 20
490.1179912168817
 30
0.0
 11
284.5142066192146
 21
490.1179912168817
 31
0.0
  0
LINE
  5
4D4
330
2
100
AcDbEntity
  8
AM_VIS
100
AcDbLine
 10
284.5142066192146
 20
490.1179912168817
 30
0.0
 11
282.855836735351
 21
490.1179912168817
 31
0.0
  0
LINE
  5
4D5
330
2
100
AcDbEntity
  8
AM_VIS
100
AcDbLine
 10
284.5142066192146
 20
522.1179912168818
 30
0.0
 11
286.7230619531898
 21
522.1179912168818
 31
0.0
  0
LINE
  5
4D6
330
2
100
AcDbEntity
  8
AM_VIS
100
AcDbLine
 10
256.9069717112891
 20
522.1179912168818
 30
0.0
 11
256.9355309638605
 21
522.1179912168818
 31
0.0
  0
ELLIPSE
  5
4D7
330
2
100
AcDbEntity
  8
AM_VIS
100
AcDbEllipse
 10
270.0460889561181
 20
506.1179912168817
 30
0.0
 11
0.0000000000000002
 21
-10.0
 31
0.0
210
0.0
220
0.0
230
1.0
 40
0.9938696747300287
 41
5.457462810064686
 42
10.25050045788428
  0
ELLIPSE
  5
4D8
330
2
100
AcDbEntity
  8
AM_VIS
100
AcDbEllipse
 10
272.9205967548153
 20
506.1179912168817
 30
0.0
 11
0.0000000000000002
 21
-10.0
 31
0.0
210
0.0
220
0.0
230
1.0
 40
0.9938696747300287
 41
3.286713400025983
 42
4.068887871591664
  0
ELLIPSE
  5
4D9
330
2
100
AcDbEntity
  8
AM_VIS
100
AcDbEllipse
 10
272.9205967548153
 20
506.1179912168817
 30
0.0
 11
0.0000000000000002
 21
-10.0
 31
0.0
210
0.0
220
0.0
230
1.0
 40
0.9938696747300287
 41
5.35589008917822
 42
6.138064560743424
  0
LINE
  5
4DA
330
2
100
AcDbEntity
  8
AM_VIS
100
AcDbLine
 10
256.9355309638606
 20
490.1179912168817
 30
0.0
 11
282.855836735351
 21
490.1179912168817
 31
0.0
  0
LINE
  5
4DB
330
2
100
AcDbEntity
  8
AM_VIS
100
AcDbLine
 10
282.855836735351
 20
522.1179912168818
 30
0.0
 11
284.5142066192146
 21
522.1179912168818
 31
0.0
  0
LINE
  5
4DC
330
2
100
AcDbEntity
  8
AM_VIS
100
AcDbLine
 10
282.855836735351
 20
522.1179912168818
 30
0.0
 11
256.9355309638606
 21
522.1179912168818
 31
0.0
  0
ELLIPSE
  5
4DD
330
2
100
AcDbEntity
  8
AM_VIS
100
AcDbEllipse
 10
249.813126817342
 20
482.8679912168817
 30
0.0
 11
0.0000000000000001
 21
-4.099999999999999
 31
0.0
210
0.0
220
0.0
230
1.0
 40
0.9938696747300287
 41
4.712388980384689
 42
5.954150554394308
  0
ELLIPSE
  5
4DE
330
2
100
AcDbEntity
  8
AM_VIS
100
AcDbEllipse
 10
249.813126817342
 20
482.8679912168817
 30
0.0
 11
0.0000000000000001
 21
-4.099999999999999
 31
0.0
210
0.0
220
0.0
230
1.0
 40
0.9938696747300287
 41
3.470627406375071
 42
4.712388980384689
  0
ELLIPSE
  5
4DF
330
2
100
AcDbEntity
  8
AM_VIS
100
AcDbEllipse
 10
249.813126817342
 20
529.3679912168818
 30
0.0
 11
0.0000000000000001
 21
-4.099999999999999
 31
0.0
210
0.0
220
0.0
230
1.0
 40
0.9938696747300287
 41
4.712388980384689
 42
5.322759030492345
  0
ELLIPSE
  5
4E0
330
2
100
AcDbEntity
  8
AM_VIS
100
AcDbEllipse
 10
249.813126817342
 20
529.3679912168818
 30
0.0
 11
0.0000000000000001
 21
-4.099999999999999
 31
0.0
210
0.0
220
0.0
230
1.0
 40
0.9938696747300287
 41
3.470627406375085
 42
4.712388980384689
  0
ELLIPSE
  5
4E1
330
2
100
AcDbEntity
  8
AM_VIS
100
AcDbEllipse
 10
296.0280666922884
 20
482.8679912168817
 30
0.0
 11
0.0000000000000001
 21
-4.099999999999999
 31
0.0
210
0.0
220
0.0
230
1.0
 40
0.9938696747300287
 41
4.712388980384689
 42
5.954150554394308
  0
ELLIPSE
  5
4E2
330
2
100
AcDbEntity
  8
AM_VIS
100
AcDbEllipse
 10
296.0280666922884
 20
482.8679912168817
 30
0.0
 11
0.0000000000000001
 21
-4.099999999999999
 31
0.0
210
0.0
220
0.0
230
1.0
 40
0.9938696747300287
 41
3.470627406375071
 42
4.712388980384689
  0
ELLIPSE
  5
4E3
330
2
100
AcDbEntity
  8
AM_VIS
100
AcDbEllipse
 10
296.0280666922884
 20
529.3679912168818
 30
0.0
 11
0.0000000000000001
 21
-4.099999999999999
 31
0.0
210
0.0
220
0.0
230
1.0
 40
0.9938696747300287
 41
4.712388980384689
 42
5.954150554394279
  0
ELLIPSE
  5
4E4
330
2
100
AcDbEntity
  8
AM_VIS
100
AcDbEllipse
 10
296.0280666922884
 20
529.3679912168818
 30
0.0
 11
0.0000000000000001
 21
-4.099999999999999
 31
0.0
210
0.0
220
0.0
230
1.0
 40
0.9938696747300287
 41
3.4706274063751
 42
4.712388980384689
  0
LINE
  5
4E5
330
2
100
AcDbEntity
  8
AM_VIS
100
AcDbLine
 10
256.9355309638605
 20
522.3679912168817
 30
0.0
 11
256.9355309638605
 21
522.1179912168817
 31
0.0
  0
LINE
  5
4E6
330
2
100
AcDbEntity
  8
AM_VIS
100
AcDbLine
 10
256.9355309638605
 20
490.1179912168816
 30
0.0
 11
256.9355309638605
 21
489.8679912168817
 31
0.0
  0
LINE
  5
4E7
330
2
100
AcDbEntity
  8
AM_VIS
100
AcDbLine
 10
183.2788373969623
 20
500.2179912168814
 30
0.0
 11
183.2788373969623
 21
500.1179912168813
 31
0.0
  0
LINE
  5
4E8
330
2
100
AcDbEntity
  8
AM_VIS
100
AcDbLine
 10
173.7288373969622
 20
500.2179912168814
 30
0.0
 11
173.7288373969622
 21
500.1179912168813
 31
0.0
  0
LINE
  5
4E9
330
2
100
AcDbEntity
  8
AM_VIS
100
AcDbLine
 10
191.7651347816033
 20
500.2179912168814
 30
0.0
 11
166.7651347816033
 21
500.2179912168814
 31
0.0
  0
LINE
  5
4EA
330
2
100
AcDbEntity
  8
AM_VIS
100
AcDbLine
 10
191.7651347816033
 20
512.1179912168813
 30
0.0
 11
191.7651347816033
 21
510.3313070732516
 31
0.0
  0
LINE
  5
4EB
330
2
100
AcDbEntity
  8
AM_VIS
100
AcDbLine
 10
191.7651347816033
 20
501.9046753605111
 30
0.0
 11
191.7651347816033
 21
500.2179912168814
 31
0.0
  0
LINE
  5
4EC
330
2
100
AcDbEntity
  8
AM_VIS
100
AcDbLine
 10
166.7651347816033
 20
512.1179912168813
 30
0.0
 11
166.7651347816033
 21
500.2179912168814
 31
0.0
  0
LINE
  5
4ED
330
2
100
AcDbEntity
  8
AM_VIS
100
AcDbLine
 10
186.5118618366994
 20
525.8252509991639
 30
0.0
 11
186.5118618366994
 21
529.4107314345986
 31
0.0
  0
SPLINE
  5
4EE
330
2
100
AcDbEntity
  8
AM_VIS
100
AcDbSpline
210
0.0
220
0.0
230
1.0
 70
    12
 71
     2
 72
     6
 73
     3
 74
     0
 42
0.0000000001
 43
0.0000000001
 40
3.513110476771644
 40
3.513110476771644
 40
3.513110476771644
 40
10.94354333641812
 40
10.94354333641812
 40
10.94354333641812
 10
183.6251104907512
 20
525.8252508188411
 30
0.0
 41
1.27461328245827
 10
185.0684860796036
 20
525.4384996306755
 30
0.0
 41
1.471796511733411
 10
186.5118618366994
 20
525.8252509991639
 30
0.0
 41
1.274613202838728
  0
SPLINE
  5
4EF
330
2
100
AcDbEntity
  8
AM_VIS
100
AcDbSpline
210
0.0
220
0.0
230
1.0
 70
    12
 71
     2
 72
     6
 73
     3
 74
     0
 42
0.0000000001
 43
0.0000000001
 40
3.513108976624988
 40
3.513108976624988
 40
3.513108976624988
 40
10.94354183627143
 40
10.94354183627143
 40
10.94354183627143
 10
186.5118618366994
 20
529.4107314345987
 30
0.0
 41
1.27461320283873
 10
185.0684860796036
 20
529.7974828030872
 30
0.0
 41
1.47179651173341
 10
183.6251104907512
 20
529.4107316149215
 30
0.0
 41
1.274613282458269
  0
LINE
  5
4F0
330
2
100
AcDbEntity
  8
AM_VIS
100
AcDbLine
 10
183.6251104907512
 20
525.8252508188411
 30
0.0
 11
183.6251104907512
 21
529.4107316149215
 31
0.0
  0
SPLINE
  5
4F1
330
2
100
AcDbEntity
  8
AM_VIS
100
AcDbSpline
210
0.0
220
0.0
230
1.0
 70
    12
 71
     2
 72
     6
 73
     3
 74
     0
 42
0.0000000001
 43
0.0000000001
 40
7.239048164719878
 40
7.239048164719878
 40
7.239048164719878
 40
10.67298555067821
 40
10.67298555067821
 40
10.67298555067821
 10
180.738357798855
 20
525.6179912168813
 30
0.0
 41
1.0
 10
182.0781043019791
 20
525.6179912168813
 30
0.0
 41
1.081513766124146
 10
183.6251104907512
 20
525.8252508188411
 30
0.0
 41
1.085693285370878
  0
SPLINE
  5
4F2
330
2
100
AcDbEntity
  8
AM_VIS
100
AcDbSpline
210
0.0
220
0.0
230
1.0
 70
    12
 71
     2
 72
     6
 73
     3
 74
     0
 42
0.0000000001
 43
0.0000000001
 40
3.80511077876152
 40
3.80511077876152
 40
3.80511077876152
 40
7.239048164719878
 40
7.239048164719878
 40
7.239048164719878
 10
183.6251104907512
 20
529.4107316149215
 30
0.0
 41
1.085693285370907
 10
182.0781043019792
 20
529.6179912168813
 30
0.0
 41
1.081513766124174
 10
180.738357798855
 20
529.6179912168813
 30
0.0
 41
1.0
  0
SPLINE
  5
4F3
330
2
100
AcDbEntity
  8
AM_VIS
100
AcDbSpline
210
0.0
220
0.0
230
1.0
 70
    12
 71
     2
 72
     6
 73
     3
 74
     0
 42
0.0000000001
 43
0.0000000001
 40
7.239048164719878
 40
7.239048164719878
 40
7.239048164719878
 40
10.6729825514895
 40
10.6729825514895
 40
10.6729825514895
 10
180.738357798855
 20
529.6179912168813
 30
0.0
 41
1.0
 10
179.398612377668
 20
529.6179912168813
 30
0.0
 41
1.08151369493034
 10
177.851607798855
 20
529.4107319755672
 30
0.0
 41
1.085693278070094
  0
LINE
  5
4F4
330
2
100
AcDbEntity
  8
AM_VIS
100
AcDbLine
 10
177.851607798855
 20
525.8252504581954
 30
0.0
 11
177.851607798855
 21
529.4107319755672
 31
0.0
  0
SPLINE
  5
4F5
330
2
100
AcDbEntity
  8
AM_VIS
100
AcDbSpline
210
0.0
220
0.0
230
1.0
 70
    12
 71
     2
 72
     6
 73
     3
 74
     0
 42
0.0000000001
 43
0.0000000001
 40
3.805113777950255
 40
3.805113777950255
 40
3.805113777950255
 40
7.239048164719878
 40
7.239048164719878
 40
7.239048164719878
 10
177.851607798855
 20
525.8252504581954
 30
0.0
 41
1.085693278070065
 10
179.398612377668
 20
525.6179912168813
 30
0.0
 41
1.081513694930313
 10
180.738357798855
 20
525.6179912168813
 30
0.0
 41
1.0
  0
SPLINE
  5
4F6
330
2
100
AcDbEntity
  8
AM_VIS
100
AcDbSpline
210
0.0
220
0.0
230
1.0
 70
    12
 71
     2
 72
     6
 73
     3
 74
     0
 42
0.0000000001
 43
0.0000000001
 40
0.0
 40
0.0
 40
0.0
 40
3.430020985342803
 40
3.430020985342803
 40
3.430020985342803
 10
176.4099388520156
 20
525.6179912168813
 30
0.0
 41
1.0
 10
177.0790197805323
 20
525.6182360502135
 30
0.0
 41
1.081360322680671
 10
177.851607798855
 20
525.8252504581954
 30
0.0
 41
1.085583719899271
  0
SPLINE
  5
4F7
330
2
100
AcDbEntity
  8
AM_VIS
100
AcDbSpline
210
0.0
220
0.0
230
1.0
 70
    12
 71
     2
 72
     6
 73
     3
 74
     0
 42
0.0000000001
 43
0.0000000001
 40
3.80562167210728
 40
3.80562167210728
 40
3.80562167210728
 40
7.235642657451362
 40
7.235642657451362
 40
7.235642657451362
 10
177.851607798855
 20
529.4107319755672
 30
0.0
 41
1.08558371989931
 10
177.079019780532
 20
529.6177463835492
 30
0.0
 41
1.081360322680724
 10
176.4099388520151
 20
529.6179912168813
 30
0.0
 41
1.0
  0
LINE
  5
4F8
330
2
100
AcDbEntity
  8
AM_VIS
100
AcDbLine
 10
176.4099388520276
 20
529.6179912168813
 30
0.0
 11
176.4065247267601
 21
529.6179912168813
 31
0.0
  0
SPLINE
  5
4F9
330
2
100
AcDbEntity
  8
AM_VIS
100
AcDbSpline
210
0.0
220
0.0
230
1.0
 70
    12
 71
     2
 72
     6
 73
     3
 74
     0
 42
0.0000000001
 43
0.0000000001
 40
0.0
 40
0.0
 40
0.0
 40
3.430019485624504
 40
3.430019485624504
 40
3.430019485624504
 10
176.4065247267727
 20
529.6179912168813
 30
0.0
 41
1.0
 10
175.7374440687895
 20
529.6177463836482
 30
0.0
 41
1.081360287107379
 10
174.9648564529069
 20
529.4107321558901
 30
0.0
 41
1.085583716206181
  0
LINE
  5
4FA
330
2
100
AcDbEntity
  8
AM_VIS
100
AcDbLine
 10
174.9648564529069
 20
525.8252502778725
 30
0.0
 11
174.9648564529069
 21
529.4107321558901
 31
0.0
  0
SPLINE
  5
4FB
330
2
100
AcDbEntity
  8
AM_VIS
100
AcDbSpline
210
0.0
220
0.0
230
1.0
 70
    12
 71
     2
 72
     6
 73
     3
 74
     0
 42
0.0000000001
 43
0.0000000001
 40
3.805623171827114
 40
3.805623171827114
 40
3.805623171827114
 40
7.235642657450311
 40
7.235642657450311
 40
7.235642657450311
 10
174.9648564529069
 20
525.8252502778725
 30
0.0
 41
1.085583716205988
 10
175.7374440687893
 20
525.6182360501145
 30
0.0
 41
1.081360287107178
 10
176.4065247267721
 20
525.6179912168813
 30
0.0
 41
1.0
  0
LINE
  5
4FC
330
2
100
AcDbEntity
  8
AM_VIS
100
AcDbLine
 10
175.738357798855
 20
529.6179912168813
 30
0.0
 11
176.4065247267601
 21
529.6179912168813
 31
0.0
  0
LINE
  5
4FD
330
2
100
AcDbEntity
  8
AM_VIS
100
AcDbLine
 10
180.738357798855
 20
529.6179912168813
 30
0.0
 11
185.738357798855
 21
529.6179912168813
 31
0.0
  0
LINE
  5
4FE
330
2
100
AcDbEntity
  8
AM_VIS
100
AcDbLine
 10
176.4099388520276
 20
529.6179912168813
 30
0.0
 11
180.738357798855
 21
529.6179912168813
 31
0.0
  0
LINE
  5
4FF
330
2
100
AcDbEntity
  8
AM_VIS
100
AcDbLine
 10
175.738357798855
 20
525.6179912168813
 30
0.0
 11
174.9648564529069
 21
525.8252502778725
 31
0.0
  0
LINE
  5
500
330
2
100
AcDbEntity
  8
AM_VIS
100
AcDbLine
 10
175.738357798855
 20
529.6179912168813
 30
0.0
 11
174.9648564529069
 21
529.4107321558901
 31
0.0
  0
LINE
  5
501
330
2
100
AcDbEntity
  8
AM_VIS
100
AcDbLine
 10
185.738357798855
 20
529.6179912168813
 30
0.0
 11
186.5118618366994
 21
529.4107314345987
 31
0.0
  0
LINE
  5
502
330
2
100
AcDbEntity
  8
AM_VIS
100
AcDbLine
 10
185.738357798855
 20
525.6179912168813
 30
0.0
 11
186.5118618366994
 21
525.8252509991639
 31
0.0
  0
LINE
  5
503
330
2
100
AcDbEntity
  8
AM_VIS
100
AcDbLine
 10
186.238357798855
 20
483.3679912168813
 30
0.0
 11
180.738357798855
 21
483.3679912168813
 31
0.0
  0
LINE
  5
504
330
2
100
AcDbEntity
  8
AM_VIS
100
AcDbLine
 10
180.738357798855
 20
483.3679912168813
 30
0.0
 11
175.238357798855
 21
483.3679912168813
 31
0.0
  0
LINE
  5
505
330
2
100
AcDbEntity
  8
AM_VIS
100
AcDbLine
 10
174.738357798855
 20
483.8679912168813
 30
0.0
 11
180.738357798855
 21
483.8679912168813
 31
0.0
  0
LINE
  5
506
330
2
100
AcDbEntity
  8
AM_VIS
100
AcDbLine
 10
180.738357798855
 20
483.8679912168813
 30
0.0
 11
186.738357798855
 21
483.8679912168813
 31
0.0
  0
LINE
  5
507
330
2
100
AcDbEntity
  8
AM_VIS
100
AcDbLine
 10
184.738357798855
 20
533.1179912168813
 30
0.0
 11
180.738357798855
 21
533.1179912168813
 31
0.0
  0
LINE
  5
508
330
2
100
AcDbEntity
  8
AM_VIS
100
AcDbLine
 10
180.738357798855
 20
533.1179912168813
 30
0.0
 11
176.738357798855
 21
533.1179912168813
 31
0.0
  0
LINE
  5
509
330
2
100
AcDbEntity
  8
AM_VIS
100
AcDbLine
 10
177.738357798855
 20
534.1179912168813
 30
0.0
 11
180.738357798855
 21
534.1179912168813
 31
0.0
  0
LINE
  5
50A
330
2
100
AcDbEntity
  8
AM_VIS
100
AcDbLine
 10
180.738357798855
 20
534.1179912168813
 30
0.0
 11
183.738357798855
 21
534.1179912168813
 31
0.0
  0
LINE
  5
50B
330
2
100
AcDbEntity
  8
AM_VIS
100
AcDbLine
 10
175.238357798855
 20
483.3679912168813
 30
0.0
 11
174.738357798855
 21
483.8679912168813
 31
0.0
  0
LINE
  5
50C
330
2
100
AcDbEntity
  8
AM_VIS
100
AcDbLine
 10
186.238357798855
 20
483.3679912168813
 30
0.0
 11
186.738357798855
 21
483.8679912168813
 31
0.0
  0
LINE
  5
50D
330
2
100
AcDbEntity
  8
AM_VIS
100
AcDbLine
 10
174.738357798855
 20
483.8679912168813
 30
0.0
 11
174.738357798855
 21
486.6179912168814
 31
0.0
  0
LINE
  5
50E
330
2
100
AcDbEntity
  8
AM_VIS
100
AcDbLine
 10
186.738357798855
 20
483.8679912168813
 30
0.0
 11
186.738357798855
 21
486.6179912168814
 31
0.0
  0
LINE
  5
50F
330
2
100
AcDbEntity
  8
AM_VIS
100
AcDbLine
 10
183.738357798855
 20
534.1179912168813
 30
0.0
 11
184.738357798855
 21
533.1179912168813
 31
0.0
  0
LINE
  5
510
330
2
100
AcDbEntity
  8
AM_VIS
100
AcDbLine
 10
177.738357798855
 20
534.1179912168813
 30
0.0
 11
176.738357798855
 21
533.1179912168813
 31
0.0
  0
LINE
  5
511
330
2
100
AcDbEntity
  8
AM_VIS
100
AcDbLine
 10
176.738357798855
 20
529.6179912168813
 30
0.0
 11
176.738357798855
 21
533.1179912168813
 31
0.0
  0
LINE
  5
512
330
2
100
AcDbEntity
  8
AM_VIS
100
AcDbLine
 10
184.738357798855
 20
529.6179912168813
 30
0.0
 11
184.738357798855
 21
533.1179912168813
 31
0.0
  0
ENDSEC
  0
SECTION
  2
OBJECTS
  0
DICTIONARY
  5
8
330
0
100
AcDbDictionary
  3
ACAD_GROUP
350
20
  3
ACAD_LAYOUT
350
C
  3
ACAD_MLINESTYLE
350
21
  3
ACAD_PLOTSETTINGS
350
22
  3
ACAD_PLOTSTYLENAME
350
7
  3
ACDBHEADERROUNDTRIPXREC
350
541
  0
DICTIONARY
  5
3
330
2
100
AcDbDictionary
280
     1
  3
ACAD_LAYOUTSELFREF
360
562
  0
DICTIONARY
  5
539
330
D
100
AcDbDictionary
280
     1
  3
ACAD_LAYOUTSELFREF
360
563
  0
DICTIONARY
  5
20
102
{ACAD_REACTORS
330
8
102
}
330
8
100
AcDbDictionary
  0
DICTIONARY
  5
C
102
{ACAD_REACTORS
330
8
102
}
330
8
100
AcDbDictionary
  0
DICTIONARY
  5
21
102
{ACAD_REACTORS
330
8
102
}
330
8
100
AcDbDictionary
  3
STANDARD
350
24
  0
DICTIONARY
  5
22
102
{ACAD_REACTORS
330
8
102
}
330
8
100
AcDbDictionary
  0
ACDBDICTIONARYWDFLT
  5
7
102
{ACAD_REACTORS
330
8
102
}
330
8
100
AcDbDictionary
281
     1
  3
Normal
350
6
100
AcDbDictionaryWithDefault
340
6
  0
DICTIONARY
  5
541
102
{ACAD_REACTORS
330
8
102
}
330
8
100
AcDbDictionary
  3
CEPSNTYPE
350
54B
  3
DIMSTYLEDATA
350
54F
  3
FINGERPRINTGUID
350
54C
  3
HYPERLINKBASE
350
544
  3
INSUNITS
350
54A
  3
LAYOUTDICT
350
546
  3
LWETCUNION
350
549
  3
PLOTSETDICT
350
547
  3
PLOTSTYLNAMDICT
350
548
  3
PSVPSCALE
350
54E
  3
PUCSBASE
350
552
  3
PUCSORGBACK
350
558
  3
PUCSORGBOTTOM
350
554
  3
PUCSORGFRONT
350
557
  3
PUCSORGLEFT
350
555
  3
PUCSORGRIGHT
350
556
  3
PUCSORGTOP
350
553
  3
PUCSORTHOREF
350
550
  3
PUCSORTHOVIEW
350
551
  3
STYLESHEET
350
545
  3
TSTACKALIGN
350
542
  3
TSTACKSIZE
350
543
  3
UCSBASE
350
55B
  3
UCSORGBACK
350
561
  3
UCSORGBOTTOM
350
55D
  3
UCSORGFRONT
350
560
  3
UCSORGLEFT
350
55E
  3
UCSORGRIGHT
350
55F
  3
UCSORGTOP
350
55C
  3
UCSORTHOREF
350
559
  3
UCSORTHOVIEW
350
55A
  3
VERSIONGUID
350
54D
  0
XRECORD
  5
562
102
{ACAD_REACTORS
330
3
102
}
330
3
100
AcDbXrecord
340
2
  0
XRECORD
  5
563
102
{ACAD_REACTORS
330
539
102
}
330
539
100
AcDbXrecord
340
D
  0
MLINESTYLE
  5
24
102
{ACAD_REACTORS
330
21
102
}
330
21
100
AcDbMlineStyle
  2
STANDARD
 70
     0
  3

 62
   256
 51
90.0
 52
90.0
 71
     2
 49
0.5
 62
   256
  6
BYLAYER
 49
-0.5
 62
   256
  6
BYLAYER
  0
ACDBPLACEHOLDER
  5
6
102
{ACAD_REACTORS
330
7
102
}
330
7
100
AcDbPlaceHolder
280
     0
  0
XRECORD
  5
54B
102
{ACAD_REACTORS
330
541
102
}
330
541
100
AcDbXrecord
 90
        0
  0
XRECORD
  5
54F
102
{ACAD_REACTORS
330
541
102
}
330
541
100
AcDbXrecord
1000
DSTYLE
1002
{
1070
   289
 70
     0
1002
}
  0
XRECORD
  5
54C
102
{ACAD_REACTORS
330
541
102
}
330
541
100
AcDbXrecord
  1
{EAFFD8D2-A9F1-11D4-8125-0000E84152ED}
  0
XRECORD
  5
544
102
{ACAD_REACTORS
330
541
102
}
330
541
100
AcDbXrecord
  1

  0
XRECORD
  5
54A
102
{ACAD_REACTORS
330
541
102
}
330
541
100
AcDbXrecord
 90
        0
  0
XRECORD
  5
546
102
{ACAD_REACTORS
330
541
102
}
330
541
100
AcDbXrecord
340
C
  0
XRECORD
  5
549
102
{ACAD_REACTORS
330
541
102
}
330
541
100
AcDbXrecord
 90
    10781
  0
XRECORD
  5
547
102
{ACAD_REACTORS
330
541
102
}
330
541
100
AcDbXrecord
340
22
  0
XRECORD
  5
548
102
{ACAD_REACTORS
330
541
102
}
330
541
100
AcDbXrecord
340
7
  0
XRECORD
  5
54E
102
{ACAD_REACTORS
330
541
102
}
330
541
100
AcDbXrecord
 40
0.0
  0
XRECORD
  5
552
102
{ACAD_REACTORS
330
541
102
}
330
541
100
AcDbXrecord
340
0
  0
XRECORD
  5
558
102
{ACAD_REACTORS
330
541
102
}
330
541
100
AcDbXrecord
 10
0.0
 20
0.0
 30
0.0
  0
XRECORD
  5
554
102
{ACAD_REACTORS
330
541
102
}
330
541
100
AcDbXrecord
 10
0.0
 20
0.0
 30
0.0
  0
XRECORD
  5
557
102
{ACAD_REACTORS
330
541
102
}
330
541
100
AcDbXrecord
 10
0.0
 20
0.0
 30
0.0
  0
XRECORD
  5
555
102
{ACAD_REACTORS
330
541
102
}
330
541
100
AcDbXrecord
 10
0.0
 20
0.0
 30
0.0
  0
XRECORD
  5
556
102
{ACAD_REACTORS
330
541
102
}
330
541
100
AcDbXrecord
 10
0.0
 20
0.0
 30
0.0
  0
XRECORD
  5
553
102
{ACAD_REACTORS
330
541
102
}
330
541
100
AcDbXrecord
 10
0.0
 20
0.0
 30
0.0
  0
XRECORD
  5
550
102
{ACAD_REACTORS
330
541
102
}
330
541
100
AcDbXrecord
340
0
  0
XRECORD
  5
551
102
{ACAD_REACTORS
330
541
102
}
330
541
100
AcDbXrecord
 70
     0
  0
XRECORD
  5
545
102
{ACAD_REACTORS
330
541
102
}
330
541
100
AcDbXrecord
  1

  0
XRECORD
  5
542
102
{ACAD_REACTORS
330
541
102
}
330
541
100
AcDbXrecord
 90
        1
  0
XRECORD
  5
543
102
{ACAD_REACTORS
330
541
102
}
330
541
100
AcDbXrecord
 90
       70
  0
XRECORD
  5
55B
102
{ACAD_REACTORS
330
541
102
}
330
541
100
AcDbXrecord
340
0
  0
XRECORD
  5
561
102
{ACAD_REACTORS
330
541
102
}
330
541
100
AcDbXrecord
 10
0.0
 20
0.0
 30
0.0
  0
XRECORD
  5
55D
102
{ACAD_REACTORS
330
541
102
}
330
541
100
AcDbXrecord
 10
0.0
 20
0.0
 30
0.0
  0
XRECORD
  5
560
102
{ACAD_REACTORS
330
541
102
}
330
541
100
AcDbXrecord
 10
0.0
 20
0.0
 30
0.0
  0
XRECORD
  5
55E
102
{ACAD_REACTORS
330
541
102
}
330
541
100
AcDbXrecord
 10
0.0
 20
0.0
 30
0.0
  0
XRECORD
  5
55F
102
{ACAD_REACTORS
330
541
102
}
330
541
100
AcDbXrecord
 10
0.0
 20
0.0
 30
0.0
  0
XRECORD
  5
55C
102
{ACAD_REACTORS
330
541
102
}
330
541
100
AcDbXrecord
 10
0.0
 20
0.0
 30
0.0
  0
XRECORD
  5
559
102
{ACAD_REACTORS
330
541
102
}
330
541
100
AcDbXrecord
340
0
  0
XRECORD
  5
55A
102
{ACAD_REACTORS
330
541
102
}
330
541
100
AcDbXrecord
 70
     0
  0
XRECORD
  5
54D
102
{ACAD_REACTORS
330
541
102
}
330
541
100
AcDbXrecord
  1
{DC953127-C9F0-11D4-B217-0000E8450865}
  0
ENDSEC
  0
EOF
