  0
SECTION
  2
HEADER
  9
$ACADVER
  1
AC1015
  9
$ACADMAINTVER
 70
    10
  9
$DWGCODEPAGE
  3
ANSI_1252
  9
$INSBASE
 10
0.0
 20
0.0
 30
0.0
  9
$EXTMIN
 10
68.31797658607168
 20
20.27903633486336
 30
0.0
  9
$EXTMAX
 10
374.001109900597
 20
275.1935268741109
 30
0.0
  9
$LIMMIN
 10
0.0
 20
0.0
  9
$LIMMAX
 10
420.0
 20
297.0
  9
$ORTHOMODE
 70
     0
  9
$REGENMODE
 70
     1
  9
$FILLMODE
 70
     1
  9
$QTEXTMODE
 70
     0
  9
$MIRRTEXT
 70
     1
  9
$LTSCALE
 40
1.0
  9
$ATTMODE
 70
     1
  9
$TEXTSIZE
 40
3.5
  9
$TRACEWID
 40
1.0
  9
$TEXTSTYLE
  7
Standard
  9
$CLAYER
  8
0
  9
$CELTYPE
  6
ByLayer
  9
$CECOLOR
 62
   256
  9
$CELTSCALE
 40
1.0
  9
$DISPSILH
 70
     0
  9
$DIMSCALE
 40
1.0
  9
$DIMASZ
 40
6.0
  9
$DIMEXO
 40
1.0
  9
$DIMDLI
 40
3.75
  9
$DIMRND
 40
0.0
  9
$DIMDLE
 40
0.0
  9
$DIMEXE
 40
1.0
  9
$DIMTP
 40
0.0
  9
$DIMTM
 40
0.0
  9
$DIMTXT
 40
3.5
  9
$DIMCEN
 40
2.5
  9
$DIMTSZ
 40
0.0
  9
$DIMTOL
 70
     0
  9
$DIMLIM
 70
     0
  9
$DIMTIH
 70
     1
  9
$DIMTOH
 70
     1
  9
$DIMSE1
 70
     0
  9
$DIMSE2
 70
     0
  9
$DIMTAD
 70
     1
  9
$DIMZIN
 70
     1
  9
$DIMBLK
  1

  9
$DIMASO
 70
     1
  9
$DIMSHO
 70
     1
  9
$DIMPOST
  1

  9
$DIMAPOST
  1

  9
$DIMALT
 70
     0
  9
$DIMALTD
 70
     3
  9
$DIMALTF
 40
0.0393700787401575
  9
$DIMLFAC
 40
1.0
  9
$DIMTOFL
 70
     1
  9
$DIMTVP
 40
0.0
  9
$DIMTIX
 70
     0
  9
$DIMSOXD
 70
     0
  9
$DIMSAH
 70
     0
  9
$DIMBLK1
  1

  9
$DIMBLK2
  1

  9
$DIMSTYLE
  2
ISO-25
  9
$DIMCLRD
 70
     0
  9
$DIMCLRE
 70
     0
  9
$DIMCLRT
 70
     0
  9
$DIMTFAC
 40
1.0
  9
$DIMGAP
 40
1.524
  9
$DIMJUST
 70
     0
  9
$DIMSD1
 70
     0
  9
$DIMSD2
 70
     0
  9
$DIMTOLJ
 70
     0
  9
$DIMTZIN
 70
     1
  9
$DIMALTZ
 70
     0
  9
$DIMALTTZ
 70
     0
  9
$DIMUPT
 70
     0
  9
$DIMDEC
 70
     1
  9
$DIMTDEC
 70
     1
  9
$DIMALTU
 70
     2
  9
$DIMALTTD
 70
     3
  9
$DIMTXSTY
  7
Standard
  9
$DIMAUNIT
 70
     0
  9
$DIMADEC
 70
     0
  9
$DIMALTRND
 40
0.0
  9
$DIMAZIN
 70
     0
  9
$DIMDSEP
 70
    44
  9
$DIMATFIT
 70
     3
  9
$DIMFRAC
 70
     0
  9
$DIMLDRBLK
  1

  9
$DIMLUNIT
 70
     2
  9
$DIMLWD
 70
    -2
  9
$DIMLWE
 70
    -2
  9
$DIMTMOVE
 70
     0
  9
$LUNITS
 70
     2
  9
$LUPREC
 70
     2
  9
$SKETCHINC
 40
1.0
  9
$FILLETRAD
 40
10.0
  9
$AUNITS
 70
     0
  9
$AUPREC
 70
     2
  9
$MENU
  1
.
  9
$ELEVATION
 40
0.0
  9
$PELEVATION
 40
0.0
  9
$THICKNESS
 40
0.0
  9
$LIMCHECK
 70
     0
  9
$CHAMFERA
 40
0.0
  9
$CHAMFERB
 40
0.0
  9
$CHAMFERC
 40
0.0
  9
$CHAMFERD
 40
0.0
  9
$SKPOLY
 70
     0
  9
$TDCREATE
 40
2457688.607531898
  9
$TDUCREATE
 40
2457688.565865232
  9
$TDUPDATE
 40
2457690.480891898
  9
$TDUUPDATE
 40
2457690.439225231
  9
$TDINDWG
 40
0.0003252546
  9
$TDUSRTIMER
 40
0.0003252546
  9
$USRTIMER
 70
     1
  9
$ANGBASE
 50
0.0
  9
$ANGDIR
 70
     0
  9
$PDMODE
 70
     0
  9
$PDSIZE
 40
-1.0
  9
$PLINEWID
 40
0.0
  9
$SPLFRAME
 70
     0
  9
$SPLINETYPE
 70
     6
  9
$SPLINESEGS
 70
     8
  9
$HANDSEED
  5
4D4
  9
$SURFTAB1
 70
     6
  9
$SURFTAB2
 70
     6
  9
$SURFTYPE
 70
     6
  9
$SURFU
 70
     6
  9
$SURFV
 70
     6
  9
$UCSBASE
  2

  9
$UCSNAME
  2

  9
$UCSORG
 10
0.0
 20
0.0
 30
0.0
  9
$UCSXDIR
 10
1.0
 20
0.0
 30
0.0
  9
$UCSYDIR
 10
0.0
 20
1.0
 30
0.0
  9
$UCSORTHOREF
  2

  9
$UCSORTHOVIEW
 70
     0
  9
$UCSORGTOP
 10
0.0
 20
0.0
 30
0.0
  9
$UCSORGBOTTOM
 10
0.0
 20
0.0
 30
0.0
  9
$UCSORGLEFT
 10
0.0
 20
0.0
 30
0.0
  9
$UCSORGRIGHT
 10
0.0
 20
0.0
 30
0.0
  9
$UCSORGFRONT
 10
0.0
 20
0.0
 30
0.0
  9
$UCSORGBACK
 10
0.0
 20
0.0
 30
0.0
  9
$PUCSBASE
  2

  9
$PUCSNAME
  2

  9
$PUCSORG
 10
0.0
 20
0.0
 30
0.0
  9
$PUCSXDIR
 10
1.0
 20
0.0
 30
0.0
  9
$PUCSYDIR
 10
0.0
 20
1.0
 30
0.0
  9
$PUCSORTHOREF
  2

  9
$PUCSORTHOVIEW
 70
     0
  9
$PUCSORGTOP
 10
0.0
 20
0.0
 30
0.0
  9
$PUCSORGBOTTOM
 10
0.0
 20
0.0
 30
0.0
  9
$PUCSORGLEFT
 10
0.0
 20
0.0
 30
0.0
  9
$PUCSORGRIGHT
 10
0.0
 20
0.0
 30
0.0
  9
$PUCSORGFRONT
 10
0.0
 20
0.0
 30
0.0
  9
$PUCSORGBACK
 10
0.0
 20
0.0
 30
0.0
  9
$USERI1
 70
     0
  9
$USERI2
 70
     0
  9
$USERI3
 70
     0
  9
$USERI4
 70
     0
  9
$USERI5
 70
     0
  9
$USERR1
 40
0.0
  9
$USERR2
 40
0.0
  9
$USERR3
 40
0.0
  9
$USERR4
 40
0.0
  9
$USERR5
 40
0.0
  9
$WORLDVIEW
 70
     1
  9
$SHADEDGE
 70
     3
  9
$SHADEDIF
 70
    70
  9
$TILEMODE
 70
     1
  9
$MAXACTVP
 70
    64
  9
$PINSBASE
 10
0.0
 20
0.0
 30
0.0
  9
$PLIMCHECK
 70
     0
  9
$PEXTMIN
 10
1.000000000000000E+20
 20
1.000000000000000E+20
 30
1.000000000000000E+20
  9
$PEXTMAX
 10
-1.000000000000000E+20
 20
-1.000000000000000E+20
 30
-1.000000000000000E+20
  9
$PLIMMIN
 10
0.0
 20
0.0
  9
$PLIMMAX
 10
420.0
 20
297.0
  9
$UNITMODE
 70
     0
  9
$VISRETAIN
 70
     1
  9
$PLINEGEN
 70
     0
  9
$PSLTSCALE
 70
     1
  9
$TREEDEPTH
 70
  3020
  9
$CMLSTYLE
  2
Standard
  9
$CMLJUST
 70
     0
  9
$CMLSCALE
 40
20.0
  9
$PROXYGRAPHICS
 70
     1
  9
$MEASUREMENT
 70
     1
  9
$CELWEIGHT
370
    -1
  9
$ENDCAPS
280
     0
  9
$JOINSTYLE
280
     0
  9
$LWDISPLAY
290
     1
  9
$INSUNITS
 70
     4
  9
$HYPERLINKBASE
  1

  9
$STYLESHEET
  1

  9
$XEDIT
290
     1
  9
$CEPSNTYPE
380
     0
  9
$PSTYLEMODE
290
     1
  9
$FINGERPRINTGUID
  2
{2EA786CC-DDBC-40EF-8A06-17F475162496}
  9
$VERSIONGUID
  2
{BB799C2D-2A6A-4AF7-B521-4D0CB84CD746}
  9
$EXTNAMES
290
     1
  9
$PSVPSCALE
 40
0.0
  9
$OLESTARTUP
290
     0
  0
ENDSEC
  0
SECTION
  2
CLASSES
  0
CLASS
  1
ACDBDICTIONARYWDFLT
  2
AcDbDictionaryWithDefault
  3
AutoCAD 2000
 90
        0
280
     0
281
     0
  0
CLASS
  1
VISUALSTYLE
  2
AcDbVisualStyle
  3
ObjectDBX Classes
 90
    36863
280
     0
281
     0
  0
CLASS
  1
MATERIAL
  2
AcDbMaterial
  3
ObjectDBX Classes
 90
    33921
280
     0
281
     0
  0
CLASS
  1
SCALE
  2
AcDbScale
  3
ObjectDBX Classes
 90
     1153
280
     0
281
     0
  0
CLASS
  1
TABLESTYLE
  2
AcDbTableStyle
  3
ObjectDBX Classes
 90
    36863
280
     0
281
     0
  0
CLASS
  1
MLEADERSTYLE
  2
AcDbMLeaderStyle
  3
ACDB_MLEADERSTYLE_CLASS
 90
    36863
280
     0
281
     0
  0
CLASS
  1
SUN
  2
AcDbSun
  3
SCENEOE
 90
     1153
280
     0
281
     0
  0
CLASS
  1
ACDBPLACEHOLDER
  2
AcDbPlaceHolder
  3
AutoCAD 2000
 90
        0
280
     0
281
     0
  0
CLASS
  1
LAYOUT
  2
AcDbLayout
  3
AutoCAD 2000
 90
        0
280
     0
281
     0
  0
CLASS
  1
ACME_DOCUMENT
  2
AcMeDbDoc
  3
AcMeServices
 90
        0
280
     0
281
     0
  0
CLASS
  1
AMGSETTINGSOBJ
  2
AmgSettingsObj
  3
"AcadM|Product Description: AutoCAD Mechanical 2000|Company: Autodesk"
 90
        0
280
     0
281
     0
  0
CLASS
  1
ACMESCOPE
  2
AcMeScope
  3
AcMeServices
 90
        0
280
     0
281
     0
  0
CLASS
  1
ACMECOMMANDHISTORY
  2
AcMeCommandHistory
  3
AcMeServices
 90
        0
280
     0
281
     0
  0
CLASS
  1
DICTIONARYVAR
  2
AcDbDictionaryVar
  3
AutoCAD 2000
 90
        0
280
     0
281
     0
  0
CLASS
  1
ACIMSYSVARMAN
  2
AcImSysVarManager
  3
AcMeServices
 90
        0
280
     0
281
     0
  0
CLASS
  1
ACIMREALSYSVAR
  2
AcImRealSysVar
  3
AcMeServices
 90
        0
280
     0
281
     0
  0
CLASS
  1
ACIMINTSYSVAR
  2
AcImIntSysVar
  3
AcMeServices
 90
        0
280
     0
281
     0
  0
CLASS
  1
ACMEDRAWINGMAN
  2
AcMeDrawingMan
  3
AcMeServices
 90
        0
280
     0
281
     0
  0
CLASS
  1
ACMEVIEW
  2
AcMeView
  3
AcMeServices
 90
        0
280
     0
281
     0
  0
CLASS
  1
ACDBENTITYCACHE
  2
AcMeEntityCache
  3
AcMeServices
 90
        0
280
     0
281
     0
  0
CLASS
  1
GSMANAGER
  2
AcMeGSManager
  3
AcMeServices
 90
        0
280
     0
281
     0
  0
CLASS
  1
AMDTINTERNALREACTOR
  2
AmdtInternalReactor
  3
AcMeServices
 90
        0
280
     0
281
     0
  0
CLASS
  1
ACMESTATEMGR
  2
AcMeStateMgr
  3
AcMeServices
 90
        0
280
     0
281
     0
  0
CLASS
  1
ACGREFMASTER
  2
AcGrefMaster
  3
AcAttribServices
 90
        0
280
     0
281
     0
  0
CLASS
  1
AM_DRAWING_MGR
  2
AcDmDwgMgr
  3
AcMechDwgViewMgmt
 90
        0
280
     0
281
     0
  0
CLASS
  1
AM_DWG_DOCUMENT
  2
AcDmDwgDocument
  3
AcMechDwgViewMgmt
 90
        0
280
     0
281
     0
  0
CLASS
  1
AM_DWG_SHEET
  2
AcDmSheet
  3
AcMechDwgViewMgmt
 90
        0
280
     0
281
     0
  0
CLASS
  1
AM_VIEWDIMPARMAP
  2
AcDmViewDimParMap
  3
AcMechDwgViewMgmt
 90
        0
280
     0
281
     0
  0
CLASS
  1
AM_DWGMGR_NAME
  2
AcDmDwgMgrName
  3
AcMechDwgViewMgmt
 90
        0
280
     0
281
     0
  0
CLASS
  1
ACME_DATABASE
  2
AcMeDbDatabase
  3
AcMeServices
 90
        0
280
     0
281
     0
  0
CLASS
  1
ACRFINSADJUSTERMGR
  2
AcRfInsAdjusterMgr
  3
AcMeServices
 90
        0
280
     0
281
     0
  0
CLASS
  1
ACGREFMASTER
  2
AcGrefacadMaster
  3
AcGrefServices
 90
        0
280
     0
281
     0
  0
CLASS
  1
AMDTMENUSTATEMGR
  2
AmdtMenuStateMgr
  3
McadcomServices
 90
        0
280
     0
281
     0
  0
CLASS
  1
AMDTMCOMMENUSTATE
  2
AmdtMcomMenuState
  3
McadcomServices
 90
        0
280
     0
281
     0
  0
CLASS
  1
AMIMASTER
  2
AmiMaster
  3
AmiServices
 90
        0
280
     0
281
     0
  0
CLASS
  1
ASAPP
  2
AcAsAppObject
  3
AutoSurfServices
 90
        0
280
     0
281
     0
  0
CLASS
  1
IM_STATIC_MAN
  2
AcImStaticVarManager
  3
AcMeServices
 90
        0
280
     0
281
     0
  0
CLASS
  1
ACIMSTRSYSVAR
  2
AcImStrSysVar
  3
AcMeServices
 90
        0
280
     0
281
     0
  0
CLASS
  1
ACIMDBLSTATICVAR
  2
AcImDblStaticVar
  3
AcMeServices
 90
        0
280
     0
281
     0
  0
CLASS
  1
ACIMSTRSTATICVAR
  2
AcImStrStaticVar
  3
AcMeServices
 90
        0
280
     0
281
     0
  0
CLASS
  1
ACIMINTSTATICVAR
  2
AcImIntStaticVar
  3
AcMeServices
 90
        0
280
     0
281
     0
  0
CLASS
  1
ACASGREFMASTER
  2
AcAsGrefMaster
  3
AutoSurfResolverServices
 90
        0
280
     0
281
     0
  0
CLASS
  1
ACADGREFMODULE
  2
AcAdGrefModule
  3
AdGrefServices
 90
        0
280
     0
281
     0
  0
CLASS
  1
AMDTMAPISURFMOUDULE
  2
AmdtMApiSurfModule
  3
MApiSurfServices
 90
        0
280
     0
281
     0
  0
CLASS
  1
MAPIAMMOUDLE
  2
MApiAmModule
  3
MApiAmServices
 90
        0
280
     0
281
     0
  0
CLASS
  1
AMDTADMENUSTATE
  2
AmdtAdMenuState
  3
DesignerServices
 90
        0
280
     0
281
     0
  0
CLASS
  1
ADAPPL
  2
AcAdAppl
  3
DesignerServices
 90
        0
280
     0
281
     0
  0
CLASS
  1
DEPMGR
  2
AcAdDepMgr
  3
DesignerServices
 90
        0
280
     0
281
     0
  0
CLASS
  1
PARAMMGR
  2
AcAdParamMgr
  3
DesignerServices
 90
        0
280
     0
281
     0
  0
CLASS
  1
PARAMSCOPE
  2
AcAdParamScope
  3
DesignerServices
 90
        0
280
     0
281
     0
  0
CLASS
  1
NAMEDAPPL
  2
AcAdNamedAppl
  3
DesignerServices
 90
        0
280
     0
281
     0
  0
CLASS
  1
ADHNTMPLT
  2
AdHoleNoteTemplateMgr
  3
DesignerServices
 90
        0
280
     0
281
     0
  0
CLASS
  1
AM_HNTEMPLATE_MGR_NAME
  2
AdHoleNoteTemplateMgrName
  3
DesignerServices
 90
        0
280
     0
281
     0
  0
CLASS
  1
AMDTDMMENUSTATE
  2
AmdtDmMenuState
  3
AcMechDwgViewMgmt
 90
        0
280
     0
281
     0
  0
CLASS
  1
MAPIADMODULE
  2
MApiAdModule
  3
MApiAdServices
 90
        0
280
     0
281
     0
  0
CLASS
  1
AMDTAMMENUSTATE
  2
AmdtAmMenuState
  3
DesignerAssemblies
 90
        0
280
     0
281
     0
  0
CLASS
  1
ACAMPROJECT
  2
AcAmProject
  3
DesignerAssemblies
 90
        0
280
     0
281
     0
  0
CLASS
  1
ACAMGRCOMPDEF
  2
AcAmGrCompDef
  3
DesignerAssemblies
 90
        0
280
     0
281
     0
  0
CLASS
  1
ACCMCONTEXT
  2
AcCmContext
  3
DesignerAssemblies
 90
        0
280
     0
281
     0
  0
CLASS
  1
ACAMCOMPDEF
  2
AcAmCompDef
  3
DesignerAssemblies
 90
        0
280
     0
281
     0
  0
CLASS
  1
ACAMCOMPDEFMGR
  2
AcAmCompDefMgr
  3
DesignerAssemblies
 90
        0
280
     0
281
     0
  0
CLASS
  1
AMCONTEXTMGR
  2
AcAmContextMgr
  3
DesignerAssemblies
 90
        0
280
     0
281
     0
  0
CLASS
  1
ACAMCONTEXTMODELER
  2
AcAmContextModeler
  3
DesignerAssemblies
 90
        0
280
     0
281
     0
  0
CLASS
  1
ACMDATADICTIONARY
  2
AcmDataDictionary
  3
"AcmSymBB|Product Description: AutoCAD Mechanical 2000|Company: Autodesk"
 90
        0
280
     0
281
     0
  0
CLASS
  1
ACMDATAENTRYBLOCK
  2
AcmDataEntryBlock
  3
"AcmSymBB|Product Description: AutoCAD Mechanical 2000|Company: Autodesk"
 90
        0
280
     0
281
     0
  0
CLASS
  1
CATALOGSTATE
  2
AcAmCatalogState
  3
DesignerAssemblies
 90
        0
280
     0
281
     0
  0
CLASS
  1
ACAMGRCOMPDEFSET
  2
AcAmGrCompDefSet
  3
DesignerAssemblies
 90
        0
280
     0
281
     0
  0
CLASS
  1
AMDTBROWSERDBTAB
  2
AmdtBrowserDbTab
  3
McadcomServices
 90
        0
280
     0
281
     0
  0
CLASS
  1
CBROWSERAPPOBJECT
  2
CBrowserAppObject
  3
McadcomServices
 90
        0
280
     0
281
     0
  0
CLASS
  1
DM_PLACEHOLDER
  2
AcDmSelsetPlaceholder
  3
AcMechDwgViewMgmt
 90
        0
280
     0
281
     0
  0
CLASS
  1
ACMSTANDARDISO
  2
AcmStandardISO
  3
"Amdt_StdImp|Product Description: AutoCAD Mechanical 2000|Company: Autodesk"
 90
        0
280
     0
281
     0
  0
CLASS
  1
AMGOBJPROPCFG
  2
AmgObjPropCfg
  3
"AmgLay|Product Description: AutoCAD Mechanical 2000|Company: Autodesk"
 90
        1
280
     0
281
     0
  0
CLASS
  1
AMDTEDGESTANDARDISO
  2
AmdtEdgeStdISO
  3
"Amdt_StdImp|Product Description: AutoCAD Mechanical 2000|Company: Autodesk"
 90
        0
280
     0
281
     0
  0
CLASS
  1
ACMSURFSTANDARDISO
  2
AcmSurfTextStdISO
  3
"Amdt_StdImp|Product Description: AutoCAD Mechanical 2000|Company: Autodesk"
 90
        0
280
     0
281
     0
  0
CLASS
  1
ACMFCFSTANDARDISO
  2
AcmFCFStdISO
  3
"Amdt_StdImp|Product Description: AutoCAD Mechanical 2000|Company: Autodesk"
 90
        0
280
     0
281
     0
  0
CLASS
  1
ACMWELDSTANDARDISO
  2
AcmWeldingStdISO
  3
"Amdt_StdImp|Product Description: AutoCAD Mechanical 2000|Company: Autodesk"
 90
        0
280
     0
281
     0
  0
CLASS
  1
ACMIDSTANDARDISO
  2
AcmIdStdISO
  3
"Amdt_StdImp|Product Description: AutoCAD Mechanical 2000|Company: Autodesk"
 90
        0
280
     0
281
     0
  0
CLASS
  1
ACMDATUMSTANDARDISO
  2
AcmDatumStdISO
  3
"Amdt_StdImp|Product Description: AutoCAD Mechanical 2000|Company: Autodesk"
 90
        0
280
     0
281
     0
  0
CLASS
  1
ACMBOMSTANDARDISO
  2
AcmBOMStdISO
  3
"Amdt_StdImp|Product Description: AutoCAD Mechanical 2000|Company: Autodesk"
 90
        0
280
     0
281
     0
  0
CLASS
  1
ACMDETAILSTANDARDISO
  2
AmdtDetailSymStdISO
  3
"Amdt_StdImp|Product Description: AutoCAD Mechanical 2000|Company: Autodesk"
 90
        0
280
     0
281
     0
  0
CLASS
  1
ACMSECTIONSTANDARDISO
  2
AmdtSectionSymStdISO
  3
"Amdt_StdImp|Product Description: AutoCAD Mechanical 2000|Company: Autodesk"
 90
        0
280
     0
281
     0
  0
CLASS
  1
ACMCENTERLINESTANDARDISO
  2
AmdtCenterLineStdISO
  3
"Amdt_StdImp|Product Description: AutoCAD Mechanical 2000|Company: Autodesk"
 90
        0
280
     0
281
     0
  0
CLASS
  1
ACMTHREADLINESTANDARDCSN
  2
AmdtThreadLineStdCSN
  3
"Amdt_StdImp|Product Description: AutoCAD Mechanical 2000|Company: Autodesk"
 90
        0
280
     0
281
     0
  0
CLASS
  1
"AcAmgLayStd"
  2
AcAmgLayStd
  3
"AcAmgLayStd|Product Description: AutoCAD Mechanical 2000|Company: Autodesk"
 90
        0
280
     0
281
     0
  0
CLASS
  1
"AcAmgDimStd"
  2
AcAmgDimStd
  3
"AcAmgDimStd|Product Description: AutoCAD Mechanical 2000|Company: Autodesk"
 90
        0
280
     0
281
     0
  0
CLASS
  1
AcAmgTitleStd
  2
AcAmgTitleStd
  3
"TITLEAPP"
 90
        0
280
     0
281
     0
  0
CLASS
  1
LAYER_INDEX
  2
AcDbLayerIndex
  3
AutoCAD 2000
 90
        0
280
     0
281
     0
  0
CLASS
  1
IDBUFFER
  2
AcDbIdBuffer
  3
AutoCAD 2000
 90
        0
280
     0
281
     0
  0
ENDSEC
  0
SECTION
  2
TABLES
  0
TABLE
  2
VPORT
  5
8
330
0
100
AcDbSymbolTable
 70
     3
  0
VPORT
  5
4D3
330
8
100
AcDbSymbolTableRecord
100
AcDbViewportTableRecord
  2
*Active
 70
     0
 10
0.0
 20
0.0
 11
1.0
 21
1.0
 12
-148.3027884963892
 22
-2.760955845248815
 13
0.0
 23
0.0
 14
10.0
 24
10.0
 15
10.0
 25
10.0
 16
0.0
 26
0.0
 36
1.0
 17
449.6414342629482
 27
148.5
 37
0.0
 40
296.9999998616996
 41
3.027888446215139
 42
50.0
 43
0.0
 44
0.0
 50
0.0
 51
0.0
 71
     0
 72
  2000
 73
     1
 74
     3
 75
     0
 76
     0
 77
     0
 78
     0
281
     0
 65
     0
110
0.0
120
0.0
130
0.0
111
1.0
121
0.0
131
0.0
112
0.0
122
1.0
132
0.0
 79
     0
146
0.0
  0
ENDTAB
  0
TABLE
  2
LTYPE
  5
5
330
0
100
AcDbSymbolTable
 70
    19
  0
LTYPE
  5
14
330
5
100
AcDbSymbolTableRecord
100
AcDbLinetypeTableRecord
  2
ByBlock
 70
     0
  3

 72
    65
 73
     0
 40
0.0
  0
LTYPE
  5
15
330
5
100
AcDbSymbolTableRecord
100
AcDbLinetypeTableRecord
  2
ByLayer
 70
     0
  3

 72
    65
 73
     0
 40
0.0
  0
LTYPE
  5
16
330
5
100
AcDbSymbolTableRecord
100
AcDbLinetypeTableRecord
  2
Continuous
 70
     0
  3
Solid line
 72
    65
 73
     0
 40
0.0
  0
LTYPE
  5
6E
330
5
100
AcDbSymbolTableRecord
100
AcDbLinetypeTableRecord
  2
HIDDEN
 70
     0
  3
Hidden __ __ __ __ __ __ __ __ __ __ __ __ __ __
 72
    65
 73
     2
 40
1.905
 49
1.27
 74
     0
 49
-0.635
 74
     0
  0
LTYPE
  5
6F
330
5
100
AcDbSymbolTableRecord
100
AcDbLinetypeTableRecord
  2
PHANTOM
 70
     0
  3
Phantom ______  __  __  ______  __  __  ______
 72
    65
 73
     6
 40
12.69999999999999
 49
6.349999999999999
 74
     0
 49
-1.27
 74
     0
 49
1.27
 74
     0
 49
-1.27
 74
     0
 49
1.27
 74
     0
 49
-1.27
 74
     0
  0
LTYPE
  5
70
330
5
100
AcDbSymbolTableRecord
100
AcDbLinetypeTableRecord
  2
CENTER
 70
     0
  3
Center ____ _ ____ _ ____ _ ____ _ ____ _ ____
 72
    65
 73
     4
 40
10.15999999999999
 49
6.349999999999999
 74
     0
 49
-1.27
 74
     0
 49
1.27
 74
     0
 49
-1.27
 74
     0
  0
LTYPE
  5
71
330
5
100
AcDbSymbolTableRecord
100
AcDbLinetypeTableRecord
  2
CENTERX2
 70
     0
  3
Center (2x) ________  __  ________  __  _____
 72
    65
 73
     4
 40
20.31999999999999
 49
12.7
 74
     0
 49
-2.54
 74
     0
 49
2.54
 74
     0
 49
-2.54
 74
     0
  0
LTYPE
  5
72
330
5
100
AcDbSymbolTableRecord
100
AcDbLinetypeTableRecord
  2
DOT2
 70
     0
  3
Dot (.5x) ........................................
 72
    65
 73
     2
 40
0.635
 49
0.0
 74
     0
 49
-0.635
 74
     0
  0
LTYPE
  5
3FE
330
5
100
AcDbSymbolTableRecord
100
AcDbLinetypeTableRecord
  2
PHANTOM2
 70
     0
  3
Phantom (.5x) ___ _ _ ___ _ _ ___ _ _ ___ _ _
 72
    65
 73
     6
 40
31.75
 49
15.875
 74
     0
 49
-3.174999999999999
 74
     0
 49
3.174999999999999
 74
     0
 49
-3.174999999999999
 74
     0
 49
3.174999999999999
 74
     0
 49
-3.174999999999999
 74
     0
  0
LTYPE
  5
45E
330
5
100
AcDbSymbolTableRecord
100
AcDbLinetypeTableRecord
  2
ASULTYPE
 70
     0
  3
Solid line
 72
    65
 73
     2
 40
3.0
 49
2.5
 74
     0
 49
0.5
 74
     0
  0
LTYPE
  5
45F
330
5
100
AcDbSymbolTableRecord
100
AcDbLinetypeTableRecord
  2
ASVLTYPE
 70
     0
  3
__ __ __ __ __ __ __ __ __ __ __ __ __ __ __ __ __ __ __ __ __
 72
    65
 73
     2
 40
0.75
 49
0.5
 74
     0
 49
-0.25
 74
     0
  0
LTYPE
  5
4A6
330
5
100
AcDbSymbolTableRecord
100
AcDbLinetypeTableRecord
  2
AM_ISO02W050
 70
     0
  3
__ __ __ __ __ __ __ __ __ __ __ __ __ __ __
 72
    65
 73
     2
 40
7.5
 49
6.0
 74
     0
 49
-1.5
 74
     0
  0
LTYPE
  5
4A7
330
5
100
AcDbSymbolTableRecord
100
AcDbLinetypeTableRecord
  2
AM_ISO08W050
 70
     0
  3
____ . ____ . ____ . ____ . ____ . ____ . ____
 72
    65
 73
     4
 40
18.0
 49
12.0
 74
     0
 49
-1.5
 74
     0
 49
3.0
 74
     0
 49
-1.5
 74
     0
  0
LTYPE
  5
4A8
330
5
100
AcDbSymbolTableRecord
100
AcDbLinetypeTableRecord
  2
AM_ISO09W050
 70
     0
  3
_____ . . _____ . . _____ . . ____ .. ____
 72
    65
 73
     6
 40
22.5
 49
12.0
 74
     0
 49
-1.5
 74
     0
 49
3.0
 74
     0
 49
-1.5
 74
     0
 49
3.0
 74
     0
 49
-1.5
 74
     0
  0
LTYPE
  5
4A9
330
5
100
AcDbSymbolTableRecord
100
AcDbLinetypeTableRecord
  2
Amconstr
 70
     0
  3
_______________________
 72
    65
 73
     2
 40
9999.0
 49
9999.0
 74
     0
 49
0.0
 74
     0
  0
LTYPE
  5
4AA
330
5
100
AcDbSymbolTableRecord
100
AcDbLinetypeTableRecord
  2
AM_ISO08W050x2
 70
     0
  3
__ . __ . __ . __ . __ . __
 72
    65
 73
     4
 40
9.0
 49
6.0
 74
     0
 49
-0.75
 74
     0
 49
1.5
 74
     0
 49
-0.75
 74
     0
  0
LTYPE
  5
4AB
330
5
100
AcDbSymbolTableRecord
100
AcDbLinetypeTableRecord
  2
AM_ISO02W050x2
 70
     0
  3
 _ _ _ _ _ _ _ _ _ _ _ _
 72
    65
 73
     2
 40
3.75
 49
3.0
 74
     0
 49
-0.75
 74
     0
  0
LTYPE
  5
4AE
330
5
100
AcDbSymbolTableRecord
100
AcDbLinetypeTableRecord
  2
Amzigzag
 70
     0
  3
/\/-/\/-/\/-/\/-/\/-/\/
 72
    65
 73
     2
 40
11.00009999999999
 49
0.0001
 74
     4
 75
   135
340
4AD
 46
0.04
 50
0.0
 44
0.0
 45
0.0
 49
-11.0
 74
     0
  0
LTYPE
  5
4BC
330
5
100
AcDbSymbolTableRecord
100
AcDbLinetypeTableRecord
  2
ACISOWELD
 70
     0
  3
_ _ _ _ _
 72
    65
 73
     2
 40
2.0
 49
2.0
 74
     0
 49
-1.0
 74
     0
  0
LTYPE
  5
4BD
330
5
100
AcDbSymbolTableRecord
100
AcDbLinetypeTableRecord
  2
ACISOTGB
 70
     0
  3
__ . . __ . .
 72
    65
 73
     6
 40
9.0
 49
4.0
 74
     0
 49
-1.0
 74
     0
 49
1.0
 74
     0
 49
-1.0
 74
     0
 49
1.0
 74
     0
 49
-1.0
 74
     0
  0
LTYPE
  5
4BE
330
5
100
AcDbSymbolTableRecord
100
AcDbLinetypeTableRecord
  2
ACISOTGL
 70
     0
  3
_ _ _ _ _
 72
    65
 73
     2
 40
3.0
 49
2.0
 74
     0
 49
-1.0
 74
     0
  0
ENDTAB
  0
TABLE
  2
LAYER
  5
2
330
0
100
AcDbSymbolTable
 70
     1
  0
LAYER
  5
10
330
2
100
AcDbSymbolTableRecord
100
AcDbLayerTableRecord
  2
0
 70
     0
 62
     7
  6
Continuous
370
    -3
390
F
  0
ENDTAB
  0
TABLE
  2
STYLE
  5
3
330
0
100
AcDbSymbolTable
 70
     4
  0
STYLE
  5
11
330
3
100
AcDbSymbolTableRecord
100
AcDbTextStyleTableRecord
  2
Standard
 70
     0
 40
0.0
 41
1.0
 50
0.0
 71
     0
 42
3.5
  3
txt
  4

  0
STYLE
  5
4AD
330
3
100
AcDbSymbolTableRecord
100
AcDbTextStyleTableRecord
  2

 70
     1
 40
0.0
 41
1.0
 50
0.0
 71
     0
 42
3.5
  3
ltypeshp.shx
  4

  0
STYLE
  5
4AF
330
3
100
AcDbSymbolTableRecord
100
AcDbTextStyleTableRecord
  2
ACISOTS
 70
     0
 40
1.0
 41
1.0
 50
0.0
 71
     0
 42
3.5
  3
isocp.shx
  4

  0
STYLE
  5
4BB
330
3
100
AcDbSymbolTableRecord
100
AcDbTextStyleTableRecord
  2
ACISOGDT
 70
     0
 40
0.0
 41
1.0
 50
0.0
 71
     0
 42
3.5
  3
amgdt.shx
  4

  0
ENDTAB
  0
TABLE
  2
VIEW
  5
6
330
0
100
AcDbSymbolTable
 70
     0
  0
ENDTAB
  0
TABLE
  2
UCS
  5
7
330
0
100
AcDbSymbolTable
 70
     0
  0
ENDTAB
  0
TABLE
  2
APPID
  5
9
330
0
100
AcDbSymbolTable
 70
    13
  0
APPID
  5
12
330
9
100
AcDbSymbolTableRecord
100
AcDbRegAppTableRecord
  2
ACAD
 70
     0
  0
APPID
  5
3D8
330
9
100
AcDbSymbolTableRecord
100
AcDbRegAppTableRecord
  2
GENIUS_GENDIM_13
 70
     0
  0
APPID
  5
3D9
330
9
100
AcDbSymbolTableRecord
100
AcDbRegAppTableRecord
  2
GENIUS_GENDTOL_13
 70
     0
  0
APPID
  5
3DA
330
9
100
AcDbSymbolTableRecord
100
AcDbRegAppTableRecord
  2
GENIUS_GE3DTOL_13
 70
     0
  0
APPID
  5
3DD
330
9
100
AcDbSymbolTableRecord
100
AcDbRegAppTableRecord
  2
MCAD_NO_VIS
 70
     0
  0
APPID
  5
3DE
330
9
100
AcDbSymbolTableRecord
100
AcDbRegAppTableRecord
  2
ACAD_TEMP_GRAPHIC
 70
     0
  0
APPID
  5
411
330
9
100
AcDbSymbolTableRecord
100
AcDbRegAppTableRecord
  2
AD_DRAW
 70
     0
  0
APPID
  5
414
330
9
100
AcDbSymbolTableRecord
100
AcDbRegAppTableRecord
  2
ACATTRIBSERVICES
 70
     0
  0
APPID
  5
460
330
9
100
AcDbSymbolTableRecord
100
AcDbRegAppTableRecord
  2
ASURF_PCURVE_APPNAME
 70
     0
  0
APPID
  5
465
330
9
100
AcDbSymbolTableRecord
100
AcDbRegAppTableRecord
  2
AMG_3D2D_5.0
 70
     0
  0
APPID
  5
493
330
9
100
AcDbSymbolTableRecord
100
AcDbRegAppTableRecord
  2
DESIGNERASSEMBLIES
 70
     0
  0
APPID
  5
49B
330
9
100
AcDbSymbolTableRecord
100
AcDbRegAppTableRecord
  2
ACADM_DIM_EDIT
 70
     0
  0
APPID
  5
49C
330
9
100
AcDbSymbolTableRecord
100
AcDbRegAppTableRecord
  2
AMDT_DM_ADJ
 70
     0
  0
ENDTAB
  0
TABLE
  2
DIMSTYLE
  5
A
330
0
100
AcDbSymbolTable
 70
     8
100
AcDbDimStyleTable
 71
     0
  0
DIMSTYLE
105
27
330
A
100
AcDbSymbolTableRecord
100
AcDbDimStyleTableRecord
  2
ISO-25
 70
     0
 41
2.5
 42
0.625
 43
3.75
 44
1.25
 73
     0
 74
     0
 77
     1
 78
     8
140
2.5
141
2.5
143
0.03937007874016
147
0.625
171
     3
172
     1
271
     2
272
     2
274
     3
278
    44
283
     0
284
     8
340
11
  0
DIMSTYLE
105
4C2
330
A
100
AcDbSymbolTableRecord
100
AcDbDimStyleTableRecord
  2
AM_ISO
 70
     0
  4
"
 41
2.5
 42
1.0
 43
10.0
 44
1.0
 47
0.1
 48
0.1
 73
     0
 74
     0
 77
     1
 78
     8
 79
     2
140
3.5
141
0.0
143
0.0393701
146
0.71
147
1.5
172
     1
176
   256
177
   256
178
     2
271
     2
272
     3
274
     4
283
     0
284
     8
340
11
371
    -1
372
    -1
  0
DIMSTYLE
105
4C3
330
A
100
AcDbSymbolTableRecord
100
AcDbDimStyleTableRecord
  2
AM_ISO$3
 70
     0
  4
"
 41
2.5
 42
1.0
 43
10.0
 44
1.0
 47
0.1
 48
0.1
 73
     0
 77
     1
 78
     8
 79
     2
140
3.5
141
0.0
143
0.0393701
146
0.71
147
1.5
176
   256
177
   256
178
     2
271
     2
272
     3
274
     4
283
     0
284
     8
288
     1
289
     0
340
11
371
    -1
372
    -1
  0
DIMSTYLE
105
4C4
330
A
100
AcDbSymbolTableRecord
100
AcDbDimStyleTableRecord
  2
AM_ISO$4
 70
     0
  4
"
 41
2.5
 42
1.0
 43
10.0
 44
1.0
 47
0.1
 48
0.1
 73
     0
 77
     1
 78
     8
 79
     2
140
3.5
141
0.0
143
0.0393701
146
0.71
147
1.5
176
   256
177
   256
178
     2
271
     2
272
     3
274
     4
283
     0
284
     8
288
     1
289
     0
340
11
371
    -1
372
    -1
  0
DIMSTYLE
105
4C5
330
A
100
AcDbSymbolTableRecord
100
AcDbDimStyleTableRecord
  2
AM_ISO$6
 70
     0
  4
"
 41
2.5
 42
1.0
 43
10.0
 44
1.0
 47
0.1
 48
0.1
 73
     0
 74
     0
 78
     8
 79
     2
140
3.5
141
0.0
143
0.0393701
146
0.71
147
1.5
172
     1
176
   256
177
   256
178
     2
271
     2
272
     3
274
     4
283
     0
284
     8
340
11
371
    -1
372
    -1
  0
DIMSTYLE
105
4C6
330
A
100
AcDbSymbolTableRecord
100
AcDbDimStyleTableRecord
  2
AM_ISO$7
 70
     0
  4
"
 41
2.5
 42
1.0
 43
10.0
 44
1.0
 47
0.1
 48
0.1
 73
     0
 74
     0
 77
     1
 78
     8
 79
     2
140
5.0
141
0.0
143
0.0393701
146
0.71
147
1.5
172
     1
176
   256
177
   256
178
     2
271
     2
272
     3
274
     4
283
     0
284
     8
340
11
371
    -1
372
    -1
  0
DIMSTYLE
105
4C7
330
A
100
AcDbSymbolTableRecord
100
AcDbDimStyleTableRecord
  2
AM_ISO$SF
 70
     0
  4
"
 41
2.5
 42
1.0
 43
10.0
 44
1.0
 47
0.1
 48
0.1
 73
     0
 74
     0
 75
     1
 76
     1
 77
     1
 78
     8
 79
     2
140
3.5
141
0.0
143
0.0393701
146
0.71
147
1.5
172
     1
176
   256
177
   256
178
     2
271
     2
272
     3
274
     4
283
     0
284
     8
340
11
371
    -1
372
    -1
  0
DIMSTYLE
105
4CC
330
A
100
AcDbSymbolTableRecord
100
AcDbDimStyleTableRecord
  2
AM_ISO$SH
 70
     0
  4
"
 41
2.5
 42
1.0
 43
10.0
 44
1.0
 47
0.1
 48
0.1
 73
     0
 74
     0
 75
     1
 76
     1
 77
     1
 78
     8
 79
     2
140
3.5
141
0.0
143
0.0393701
144
2.0
146
0.71
147
1.5
172
     1
173
     1
176
   256
177
   256
178
     2
271
     2
272
     3
274
     4
283
     0
284
     8
340
11
343
4C8
371
    -1
372
    -1
  0
ENDTAB
  0
TABLE
  2
BLOCK_RECORD
  5
1
330
0
100
AcDbSymbolTable
 70
     3
  0
BLOCK_RECORD
  5
1F
102
{ACAD_XDICTIONARY
360
4CF
102
}
330
1
100
AcDbSymbolTableRecord
100
AcDbBlockTableRecord
  2
*Model_Space
340
22
  0
BLOCK_RECORD
  5
1B
330
1
100
AcDbSymbolTableRecord
100
AcDbBlockTableRecord
  2
*Paper_Space
340
1E
  0
BLOCK_RECORD
  5
23
330
1
100
AcDbSymbolTableRecord
100
AcDbBlockTableRecord
  2
*Paper_Space0
340
26
  0
BLOCK_RECORD
  5
48A
330
1
100
AcDbSymbolTableRecord
100
AcDbBlockTableRecord
  2
*U1
340
0
  0
BLOCK_RECORD
  5
4C8
330
1
100
AcDbSymbolTableRecord
100
AcDbBlockTableRecord
  2
GENAXEH
340
0
  0
ENDTAB
  0
ENDSEC
  0
SECTION
  2
BLOCKS
  0
BLOCK
  5
20
330
1F
100
AcDbEntity
  8
0
100
AcDbBlockBegin
  2
*Model_Space
 70
     0
 10
0.0
 20
0.0
 30
0.0
  3
*Model_Space
  1

  0
ENDBLK
  5
21
330
1F
100
AcDbEntity
  8
0
100
AcDbBlockEnd
  0
BLOCK
  5
1C
330
1B
100
AcDbEntity
 67
     1
  8
0
100
AcDbBlockBegin
  2
*Paper_Space
 70
     0
 10
0.0
 20
0.0
 30
0.0
  3
*Paper_Space
  1

  0
ENDBLK
  5
1D
330
1B
100
AcDbEntity
 67
     1
  8
0
100
AcDbBlockEnd
  0
BLOCK
  5
24
330
23
100
AcDbEntity
  8
0
100
AcDbBlockBegin
  2
*Paper_Space0
 70
     0
 10
0.0
 20
0.0
 30
0.0
  3
*Paper_Space0
  1

  0
ENDBLK
  5
25
330
23
100
AcDbEntity
  8
0
100
AcDbBlockEnd
  0
BLOCK
  5
48B
330
48A
100
AcDbEntity
  8
0
100
AcDbBlockBegin
  2
*U1
 70
     1
 10
0.0
 20
0.0
 30
0.0
  3
*U1
  1

  0
ENDBLK
  5
48C
330
48A
100
AcDbEntity
  8
0
100
AcDbBlockEnd
  0
BLOCK
  5
4CA
330
4C8
100
AcDbEntity
  8
0
100
AcDbBlockBegin
  2
GENAXEH
 70
     0
 10
0.0
 20
0.0
 30
0.0
  3
GENAXEH
  1

  0
LINE
  5
4C9
330
4C8
100
AcDbEntity
  8
0
100
AcDbLine
 10
-1.0
 20
0.0
 30
0.0
 11
1.0
 21
0.0
 31
0.0
  0
ENDBLK
  5
4CB
330
4C8
100
AcDbEntity
  8
0
100
AcDbBlockEnd
  0
ENDSEC
  0
SECTION
  2
ENTITIES
  0
SPLINE
  5
73
330
1F
100
AcDbEntity
  8
0
  6
Continuous
 62
     7
370
    15
100
AcDbSpline
210
0.0
220
0.0
230
1.0
 70
     8
 71
     3
 72
    29
 73
    25
 74
     0
 42
0.0000000001
 43
0.0000000001
 40
0.0
 40
0.0
 40
0.0
 40
0.0
 40
0.0505302077287706
 40
0.0726827578922343
 40
0.1103504830009173
 40
0.1513206537109383
 40
0.1960020553638312
 40
0.2428504828722747
 40
0.2909757734469345
 40
0.3398384118200278
 40
0.3891367733127413
 40
0.4387023016292439
 40
0.4884391811387828
 40
0.5382909002860693
 40
0.5882224371272719
 40
0.6382123861953993
 40
0.6882469450860231
 40
0.7383177185656714
 40
0.788419016735766
 40
0.8385484143965388
 40
0.8887058696157691
 40
0.9388924926848979
 40
0.9891121972099362
 40
1.0
 40
1.0
 40
1.0
 40
1.0
 10
246.3115470682891
 20
202.8064822328781
 30
0.0
 10
246.0342250143897
 20
202.9138292224942
 30
0.0
 10
245.6353243842964
 20
203.0682373598724
 30
0.0
 10
245.0100722447987
 20
203.2430191896371
 30
0.0
 10
244.4310404354935
 20
203.3713789485447
 30
0.0
 10
243.7122026135236
 20
203.4724316090402
 30
0.0
 10
242.9333801103049
 20
203.5161740935084
 30
0.0
 10
242.1115481083329
 20
203.4884227287029
 30
0.0
 10
241.2713738032001
 20
203.3813038157477
 30
0.0
 10
240.4310508328508
 20
203.1917132794264
 30
0.0
 10
239.6047592476735
 20
202.919589353405
 30
0.0
 10
238.8039450304674
 20
202.5667207902552
 30
0.0
 10
238.0383788954388
 20
202.1360699640169
 30
0.0
 10
237.3166665701885
 20
201.6316059499483
 30
0.0
 10
236.6465332137263
 20
201.0580992927531
 30
0.0
 10
236.0349570586805
 20
200.4210228788256
 30
0.0
 10
235.4881702995534
 20
199.7264861799563
 30
0.0
 10
235.0117542357631
 20
198.9811608505502
 30
0.0
 10
234.6103085521592
 20
198.1922148593938
 30
0.0
 10
234.2885422881232
 20
197.3672306812778
 30
0.0
 10
234.0471929111858
 20
196.5140981750799
 30
0.0
 10
233.8981154058284
 20
195.641092910788
 30
0.0
 10
233.8314154761251
 20
194.9874370092835
 30
0.0
 10
233.8418689793039
 20
194.6282020240053
 30
0.0
 10
233.8437315275582
 20
194.5641954911445
 30
0.0
  0
SPLINE
  5
74
330
1F
100
AcDbEntity
  8
0
  6
Continuous
 62
     7
370
    15
100
AcDbSpline
210
0.0
220
0.0
230
1.0
 70
     8
 71
     3
 72
    20
 73
    16
 74
     0
 42
0.0000000001
 43
0.0000000001
 40
0.0
 40
0.0
 40
0.0
 40
0.0
 40
0.0652986661857143
 40
0.1488350929653519
 40
0.2324893765136297
 40
0.3163105356334975
 40
0.4003829134361737
 40
0.4848578526128949
 40
0.5700214369372673
 40
0.6564877646925912
 40
0.7348564609721842
 40
0.8120837905029915
 40
0.8722434426453514
 40
0.9230343238080516
 40
1.0
 40
1.0
 40
1.0
 40
1.0
 10
251.8284933840545
 20
194.445775963137
 30
0.0
 10
251.8278264740055
 20
194.6771747897576
 30
0.0
 10
251.8263063875332
 20
195.2046015793678
 30
0.0
 10
251.7201944892308
 20
196.0233059444293
 30
0.0
 10
251.5292513435544
 20
196.8924600444153
 30
0.0
 10
251.2501041792821
 20
197.7401097203749
 30
0.0
 10
250.8879862782317
 20
198.5586965282635
 30
0.0
 10
250.4437836490424
 20
199.341402980473
 30
0.0
 10
249.9186634244541
 20
200.0826965735087
 30
0.0
 10
249.3354309147088
 20
200.7508415314564
 30
0.0
 10
248.7107208648848
 20
201.3395132715567
 30
0.0
 10
248.1082167413948
 20
201.8112542647847
 30
0.0
 10
247.551086766828
 20
202.1776279605974
 30
0.0
 10
246.9734077323119
 20
202.5093347507379
 30
0.0
 10
246.5603747245181
 20
202.6947691253398
 30
0.0
 10
246.3115470682891
 20
202.8064822328781
 30
0.0
  0
LINE
  5
75
330
1F
100
AcDbEntity
  8
0
  6
Continuous
 62
     7
370
    15
100
AcDbLine
 10
233.8363172685417
 20
194.564039028952
 30
0.0
 11
233.8320825447949
 21
193.9229463709091
 31
0.0
  0
LINE
  5
76
330
1F
100
AcDbEntity
  8
0
  6
Continuous
 62
     7
370
    15
100
AcDbLine
 10
251.8316896831306
 20
193.804057456324
 30
0.0
 11
251.8359234755548
 21
194.4451426637863
 31
0.0
  0
ARC
  5
77
330
1F
100
AcDbEntity
  8
0
  6
Continuous
 62
     7
370
    15
100
AcDbCircle
 10
238.8319731809442
 20
193.889923810836
 30
0.0
 40
4.999999999999976
100
AcDbArc
 50
179.6215511975259
 51
205.4634839606941
  0
ARC
  5
78
330
1F
100
AcDbEntity
  8
0
  6
Continuous
 62
     7
370
    15
100
AcDbCircle
 10
246.8317986680913
 20
193.8370827738389
 30
0.0
 40
5.000000000000053
100
AcDbArc
 50
333.7796184343597
 51
359.6215511975267
  0
ARC
  5
79
330
1F
100
AcDbEntity
  8
0
  6
Continuous
 62
     7
370
    15
100
AcDbCircle
 10
246.7742164830057
 20
185.11947505773
 30
0.0
 40
5.000000000000033
100
AcDbArc
 50
359.6215511975271
 51
25.46348396069367
  0
ARC
  5
7A
330
1F
100
AcDbEntity
  8
0
  6
Continuous
 62
     7
370
    15
100
AcDbCircle
 10
238.7743909958586
 20
185.1723160947271
 30
0.0
 40
5.000000000000015
100
AcDbArc
 50
153.7796184343583
 51
179.6215511975259
  0
LINE
  5
7B
330
1F
100
AcDbEntity
  8
0
  6
Continuous
 62
     7
370
    15
100
AcDbLine
 10
233.774499801329
 20
185.2053423894142
 30
0.0
 11
233.7644759764584
 21
183.687748528788
 31
0.0
  0
LINE
  5
7C
330
1F
100
AcDbEntity
  8
0
  6
Continuous
 62
     7
370
    15
100
AcDbLine
 10
251.7640831147941
 20
183.5688596142029
 30
0.0
 11
251.7741078709873
 21
185.0864460242485
 31
0.0
  0
ARC
  5
7D
330
1F
100
AcDbEntity
  8
0
  6
Continuous
 62
     7
370
    15
100
AcDbCircle
 10
238.2643777886169
 20
183.6580260917082
 30
0.0
 40
4.500000000000007
100
AcDbArc
 50
179.6215511975258
 51
212.258448701081
  0
ARC
  5
7E
330
1F
100
AcDbEntity
  8
0
  6
Continuous
 62
     7
370
    15
100
AcDbCircle
 10
247.2641814616574
 20
183.5985799250864
 30
0.0
 40
4.500000000000039
100
AcDbArc
 50
326.9846536939728
 51
359.621551197527
  0
ARC
  5
7F
330
1F
100
AcDbEntity
  8
0
  6
Continuous
 62
     7
370
    15
100
AcDbCircle
 10
247.1964990235908
 20
173.3518526872032
 30
0.0
 40
4.500000000000067
100
AcDbArc
 50
359.6215511975267
 51
32.25844870107974
  0
ARC
  5
80
330
1F
100
AcDbEntity
  8
0
  6
Continuous
 62
     7
370
    15
100
AcDbCircle
 10
238.1966953505503
 20
173.411298853825
 30
0.0
 40
4.50000000000001
100
AcDbArc
 50
146.9846536939725
 51
179.6215511975262
  0
LINE
  5
81
330
1F
100
AcDbEntity
  8
0
  6
Continuous
 62
     7
370
    15
100
AcDbLine
 10
233.6967939709934
 20
173.4410246384834
 30
0.0
 11
233.6964922224792
 21
173.395449436972
 31
0.0
  0
LINE
  5
82
330
1F
100
AcDbEntity
  8
0
  6
Continuous
 62
     7
370
    15
100
AcDbLine
 10
251.6961002921375
 20
173.2765605223869
 30
0.0
 11
251.6964001780065
 21
173.3221282733177
 31
0.0
  0
ARC
  5
83
330
1F
100
AcDbEntity
  8
0
  6
Continuous
 62
     7
370
    15
100
AcDbCircle
 10
238.196394336813
 20
173.3657271257783
 30
0.0
 40
4.50000000000001
100
AcDbArc
 50
179.6215511975262
 51
217.4851975592567
  0
ARC
  5
84
330
1F
100
AcDbEntity
  8
0
  6
Continuous
 62
     7
370
    15
100
AcDbCircle
 10
247.1961980098535
 20
173.3062809591565
 30
0.0
 40
4.500000000000067
100
AcDbArc
 50
321.7579048357968
 51
359.6215511975267
  0
ARC
  5
85
330
1F
100
AcDbEntity
  8
0
  6
Continuous
 62
     7
370
    15
100
AcDbCircle
 10
247.1191696236525
 20
161.6446315634784
 30
0.0
 40
4.500000000000067
100
AcDbArc
 50
359.6215511975267
 51
37.48519755925619
  0
ARC
  5
86
330
1F
100
AcDbEntity
  8
0
  6
Continuous
 62
     7
370
    15
100
AcDbCircle
 10
238.119365950612
 20
161.7040777301002
 30
0.0
 40
4.50000000000001
100
AcDbArc
 50
141.7579048357957
 51
179.6215511975262
  0
LINE
  5
87
330
1F
100
AcDbEntity
  8
0
  6
Continuous
 62
     7
370
    15
100
AcDbLine
 10
233.6194643949779
 20
161.7338006866668
 30
0.0
 11
233.6173428421529
 21
161.4127067399715
 31
0.0
  0
LINE
  5
88
330
1F
100
AcDbEntity
  8
0
  6
Continuous
 62
     7
370
    15
100
AcDbLine
 10
251.6169509118112
 20
161.2938141000961
 30
0.0
 11
251.619070601991
 21
161.6149080467914
 31
0.0
  0
ARC
  5
89
330
1F
100
AcDbEntity
  8
0
  6
Continuous
 62
     7
370
    15
100
AcDbCircle
 10
238.1172450437695
 20
161.3829847770109
 30
0.0
 40
4.499999999999982
100
AcDbArc
 50
179.6215511975262
 51
209.6215511975269
  0
ARC
  5
8A
330
1F
100
AcDbEntity
  8
0
  6
Continuous
 62
     7
370
    15
100
AcDbCircle
 10
247.11704871681
 20
161.3235386103891
 30
0.0
 40
4.500000000000039
100
AcDbArc
 50
329.6215511975272
 51
359.6215511975267
  0
ARC
  5
8B
330
1F
100
AcDbEntity
  8
0
  6
Continuous
 62
     7
370
    15
100
AcDbCircle
 10
229.8033784153609
 20
189.5905661194034
 30
0.0
 40
5.000000000000008
100
AcDbArc
 50
333.77961843436
 51
25.46348396069338
  0
ARC
  5
8C
330
1F
100
AcDbEntity
  8
0
  6
Continuous
 62
     7
370
    15
100
AcDbCircle
 10
255.8028112485891
 20
189.4188327491626
 30
0.0
 40
5.000000000000002
100
AcDbArc
 50
153.7796184343586
 51
205.4634839606936
  0
LINE
  5
8D
330
1F
100
AcDbEntity
  8
0
  6
Continuous
 62
     7
370
    15
100
AcDbLine
 10
234.2053538387331
 20
159.1587757242416
 30
0.0
 11
236.2484064152154
 21
155.5654985380863
 31
0.0
  0
LINE
  5
8E
330
1F
100
AcDbEntity
  8
0
  6
Continuous
 62
     7
370
    15
100
AcDbLine
 10
248.9088753437313
 20
155.4818732214664
 30
0.0
 11
250.9992158239397
 21
159.0478477550243
 31
0.0
  0
ARC
  5
8F
330
1F
100
AcDbEntity
  8
0
  6
Continuous
 62
     7
370
    15
100
AcDbCircle
 10
230.2307110824364
 20
178.5875035097638
 30
0.0
 40
5.000000000000034
100
AcDbArc
 50
326.9846536939732
 51
32.25844870107958
  0
ARC
  5
90
330
1F
100
AcDbEntity
  8
0
  6
Continuous
 62
     7
370
    15
100
AcDbCircle
 10
255.2301657297713
 20
178.4223752691476
 30
0.0
 40
5.000000000000015
100
AcDbArc
 50
146.9846536939724
 51
212.2584487010803
  0
ARC
  5
91
330
1F
100
AcDbEntity
  8
0
  6
Continuous
 62
     7
370
    15
100
AcDbCircle
 10
230.658043749512
 20
167.5844409001241
 30
0.0
 40
5.000000000000046
100
AcDbArc
 50
321.7579048357967
 51
37.4851975592566
  0
ARC
  5
92
330
1F
100
AcDbEntity
  8
0
  6
Continuous
 62
     7
370
    15
100
AcDbCircle
 10
254.6575202109534
 20
167.4259177891326
 30
0.0
 40
5.000000000000001
100
AcDbArc
 50
141.7579048357955
 51
217.4851975592578
  0
ARC
  5
93
330
1F
100
AcDbEntity
  8
0
  6
Continuous
 62
     7
370
    15
100
AcDbCircle
 10
236.5984666982506
 20
158.5450064493357
 30
0.0
 40
2.999999999999997
100
AcDbArc
 50
263.299075868514
 51
269.6215511975261
  0
ARC
  5
94
330
1F
100
AcDbEntity
  8
0
  6
Continuous
 62
     7
370
    15
100
AcDbCircle
 10
248.5982049289713
 20
158.46574489384
 30
0.0
 40
3.000000000000047
100
AcDbArc
 50
269.6215511975272
 51
275.9440265265403
  0
LINE
  5
95
330
1F
100
AcDbEntity
  8
0
  6
Continuous
 62
     7
370
    15
100
AcDbLine
 10
179.2249603395971
 20
127.617634974191
 30
0.0
 11
179.4322205906423
 21
128.3911393506025
 31
0.0
  0
LINE
  5
96
330
1F
100
AcDbEntity
  8
0
  6
Continuous
 62
     7
370
    15
100
AcDbLine
 10
175.4322199349912
 20
128.3911393506025
 30
0.0
 11
175.6394801860364
 21
127.617634974191
 31
0.0
  0
LINE
  5
97
330
1F
100
AcDbEntity
  8
0
  6
Continuous
 62
     7
370
    15
100
AcDbLine
 10
179.4322205906423
 20
138.3911391270851
 30
0.0
 11
179.2249603395971
 21
139.1646397782062
 31
0.0
  0
LINE
  5
98
330
1F
100
AcDbEntity
  8
0
  6
Continuous
 62
     7
370
    15
100
AcDbLine
 10
175.6394801860364
 20
139.1646397782062
 30
0.0
 11
175.4322199349912
 21
138.3911391270851
 31
0.0
  0
LINE
  5
99
330
1F
100
AcDbEntity
  8
0
  6
Continuous
 62
     7
370
    15
100
AcDbLine
 10
175.4322199349912
 20
136.3911387992595
 30
0.0
 11
169.4322189515146
 21
136.3911387992595
 31
0.0
  0
LINE
  5
9A
330
1F
100
AcDbEntity
  8
0
  6
Continuous
 62
     7
370
    15
100
AcDbLine
 10
169.4322189515146
 20
130.3911396784281
 30
0.0
 11
175.4322199349912
 21
130.3911396784281
 31
0.0
  0
LINE
  5
9B
330
1F
100
AcDbEntity
  8
0
  6
Continuous
 62
     7
370
    15
100
AcDbLine
 10
232.9103358288916
 20
138.3911391270851
 30
0.0
 11
226.4321649646076
 21
138.3911391270851
 31
0.0
  0
LINE
  5
9C
330
1F
100
AcDbEntity
  8
0
  6
Continuous
 62
     7
370
    15
100
AcDbLine
 10
202.4321647559913
 20
138.3911391270851
 30
0.0
 11
179.9322216039213
 21
138.3911391270851
 31
0.0
  0
LINE
  5
9D
330
1F
100
AcDbEntity
  8
0
  6
Continuous
 62
     7
370
    15
100
AcDbLine
 10
179.9322216039213
 20
128.3911393506025
 30
0.0
 11
202.4321647559913
 21
128.3911393506025
 31
0.0
  0
LINE
  5
9E
330
1F
100
AcDbEntity
  8
0
  6
Continuous
 62
     7
370
    15
100
AcDbLine
 10
179.9322216039213
 20
138.3911391270851
 30
0.0
 11
179.4322205906423
 21
137.8911381138061
 31
0.0
  0
LINE
  5
9F
330
1F
100
AcDbEntity
  8
0
  6
Continuous
 62
     7
370
    15
100
AcDbLine
 10
179.4322205906423
 20
128.8911385012363
 30
0.0
 11
179.9322216039213
 21
128.3911393506025
 31
0.0
  0
LINE
  5
A0
330
1F
100
AcDbEntity
  8
0
  6
Continuous
 62
     7
370
    15
100
AcDbLine
 10
203.9321659331831
 20
141.3411406350826
 30
0.0
 11
202.4321647559913
 21
139.8411375952457
 31
0.0
  0
LINE
  5
A1
330
1F
100
AcDbEntity
  8
0
  6
Continuous
 62
     7
370
    15
100
AcDbLine
 10
202.4321647559913
 20
126.9411390197967
 30
0.0
 11
203.9321659331831
 21
125.4411397052501
 31
0.0
  0
LINE
  5
A2
330
1F
100
AcDbEntity
  8
0
  6
Continuous
 62
     7
370
    15
100
AcDbLine
 10
211.4321652998837
 20
141.3411406350826
 30
0.0
 11
203.9321659331831
 21
141.3411406350826
 31
0.0
  0
LINE
  5
A3
330
1F
100
AcDbEntity
  8
0
  6
Continuous
 62
     7
370
    15
100
AcDbLine
 10
203.9321659331831
 20
125.4411397052501
 30
0.0
 11
211.4321652998837
 21
125.4411397052501
 31
0.0
  0
LINE
  5
A4
330
1F
100
AcDbEntity
  8
0
  6
Continuous
 62
     7
370
    15
100
AcDbLine
 10
215.825958011082
 20
144.3607938957905
 30
0.0
 11
215.4321650242122
 21
142.8911407960151
 31
0.0
  0
LINE
  5
A5
330
1F
100
AcDbEntity
  8
0
  6
Continuous
 62
     7
370
    15
100
AcDbLine
 10
226.4321649646076
 20
142.8911407960151
 30
0.0
 11
226.0383724433991
 21
144.3607938957905
 31
0.0
  0
LINE
  5
A6
330
1F
100
AcDbEntity
  8
0
  6
Continuous
 62
     7
370
    15
100
AcDbLine
 10
215.4321650242122
 20
123.8911395443176
 30
0.0
 11
215.825958011082
 21
122.4214845818971
 31
0.0
  0
LINE
  5
A7
330
1F
100
AcDbEntity
  8
0
  6
Continuous
 62
     7
370
    15
100
AcDbLine
 10
226.0383724433991
 20
122.4214845818971
 30
0.0
 11
226.4321649646076
 21
123.8911395443176
 31
0.0
  0
LINE
  5
A8
330
1F
100
AcDbEntity
  8
0
  6
Continuous
 62
     7
370
    15
100
AcDbLine
 10
215.4321650242122
 20
147.3911387396549
 30
0.0
 11
211.4321652998837
 21
147.3911387396549
 31
0.0
  0
CIRCLE
  5
A9
330
1F
100
AcDbEntity
  8
0
  6
Continuous
 62
     7
370
    15
100
AcDbCircle
 10
242.4320949025846
 20
133.337469199461
 30
0.0
 40
3.000000000000026
  0
CIRCLE
  5
AA
330
1F
100
AcDbEntity
  8
0
  6
Continuous
 62
     7
370
    15
100
AcDbCircle
 10
234.511308447665
 20
125.4081790713624
 30
0.0
 40
1.499999999999982
  0
LWPOLYLINE
  5
AB
330
1F
100
AcDbEntity
  8
0
  6
Continuous
 62
     7
370
    15
100
AcDbPolyline
 90
       26
 70
   128
 43
0.0
 10
248.9088753437313
 20
155.4818732214664
 10
248.8589601790222
 20
155.482204772303
 10
248.7099988585027
 20
155.4831882489418
 10
248.4643439029964
 20
155.4848087502216
 10
248.1258677517685
 20
155.487047649691
 10
247.6999087458166
 20
155.4898602438663
 10
247.1931835835489
 20
155.4932055545543
 10
246.6136848753007
 20
155.4970351529812
 10
245.9705507581743
 20
155.5012819839214
 10
245.2739233350071
 20
155.50588271744
 10
244.5347903495344
 20
155.5107665730213
 10
243.7648082351001
 20
155.5158515942787
 10
242.9761195754322
 20
155.5210632754062
 10
242.181163114837
 20
155.5263122094368
 10
241.3924725925239
 20
155.5315238905643
 10
240.6224904780897
 20
155.5366089118217
 10
239.883357492617
 20
155.5414890421127
 10
239.1867319320949
 20
155.5460935009216
 10
238.5435978149684
 20
155.5503403318619
 10
237.9640991067203
 20
155.5541662049984
 10
237.4573739444526
 20
155.5575152409767
 10
237.0314140071782
 20
155.560327835152
 10
236.6929378559502
 20
155.5625630093311
 10
236.4472819691213
 20
155.5641872359012
 10
236.298322511247
 20
155.56517071254
 10
236.2484064152154
 20
155.5654985380863
  0
SPLINE
  5
AC
330
1F
100
AcDbEntity
  8
0
  6
Continuous
 62
     7
370
    15
100
AcDbSpline
210
0.0
220
0.0
230
1.0
 70
     8
 71
     3
 72
     9
 73
     5
 74
     0
 42
0.0000000001
 43
0.0000000001
 40
0.0
 40
0.0
 40
0.0
 40
0.0
 40
0.4987908080495158
 40
1.0
 40
1.0
 40
1.0
 40
1.0
 10
179.4322205906423
 20
133.3911401701664
 30
0.0
 10
179.422058422137
 20
133.8728441028312
 30
0.0
 10
179.4016848139202
 20
134.8385875064606
 30
0.0
 10
179.2839633962319
 20
135.7973496000071
 30
0.0
 10
179.2249603395971
 20
136.2778899741863
 30
0.0
  0
SPLINE
  5
AD
330
1F
100
AcDbEntity
  8
0
  6
Continuous
 62
     7
370
    15
100
AcDbSpline
210
0.0
220
0.0
230
1.0
 70
     8
 71
     3
 72
     9
 73
     5
 74
     0
 42
0.0000000001
 43
0.0000000001
 40
0.0
 40
0.0
 40
0.0
 40
0.0
 40
0.4989662080615726
 40
1.0
 40
1.0
 40
1.0
 40
1.0
 10
179.2249603395971
 20
136.2778899741863
 30
0.0
 10
179.2836626944526
 20
136.5167999844829
 30
0.0
 10
179.4013106511823
 20
136.995609984913
 30
0.0
 10
179.4219030852941
 20
137.477910058512
 30
0.0
 10
179.4322205906423
 20
137.7195586932396
 30
0.0
  0
LINE
  5
AE
330
1F
100
AcDbEntity
  8
0
  6
Continuous
 62
     7
370
    15
100
AcDbLine
 10
179.4322205906423
 20
137.7195586932396
 30
0.0
 11
179.4322205906423
 21
133.3911401701664
 31
0.0
  0
LINE
  5
AF
330
1F
100
AcDbEntity
  8
0
  6
Continuous
 62
     7
370
    15
100
AcDbLine
 10
179.4322205906423
 20
133.3911401701664
 30
0.0
 11
179.4322205906423
 21
129.0619542372917
 31
0.0
  0
SPLINE
  5
B0
330
1F
100
AcDbEntity
  8
0
  6
Continuous
 62
     7
370
    15
100
AcDbSpline
210
0.0
220
0.0
230
1.0
 70
     8
 71
     3
 72
     9
 73
     5
 74
     0
 42
0.0000000001
 43
0.0000000001
 40
0.0
 40
0.0
 40
0.0
 40
0.0
 40
0.4987929450383272
 40
1.0
 40
1.0
 40
1.0
 40
1.0
 10
179.4322205906423
 20
129.0619542372917
 30
0.0
 10
179.422023231172
 20
129.3026502823811
 30
0.0
 10
179.4015791579913
 20
129.7852073182889
 30
0.0
 10
179.2839279533753
 20
130.2642746928994
 30
0.0
 10
179.2249603395971
 20
130.5043866408561
 30
0.0
  0
SPLINE
  5
B1
330
1F
100
AcDbEntity
  8
0
  6
Continuous
 62
     7
370
    15
100
AcDbSpline
210
0.0
220
0.0
230
1.0
 70
     8
 71
     3
 72
     9
 73
     5
 74
     0
 42
0.0000000001
 43
0.0000000001
 40
0.0
 40
0.0
 40
0.0
 40
0.0
 40
0.4989648711482612
 40
1.0
 40
1.0
 40
1.0
 40
1.0
 10
179.2249603395971
 20
130.5043866408561
 30
0.0
 10
179.2836980388844
 20
130.9825132607729
 30
0.0
 10
179.4014171463482
 20
131.940750298215
 30
0.0
 10
179.4219386143019
 20
132.905976401651
 30
0.0
 10
179.4322205906423
 20
133.3895885867571
 30
0.0
  0
SPLINE
  5
B2
330
1F
100
AcDbEntity
  8
0
  6
Continuous
 62
     7
370
    15
100
AcDbSpline
210
0.0
220
0.0
230
1.0
 70
     8
 71
     3
 72
     9
 73
     5
 74
     0
 42
0.0000000001
 43
0.0000000001
 40
0.0
 40
0.0
 40
0.0
 40
0.0
 40
0.4987908080495158
 40
1.0
 40
1.0
 40
1.0
 40
1.0
 10
175.4322199349912
 20
133.3911401701664
 30
0.0
 10
175.4423821034966
 20
133.8728441028312
 30
0.0
 10
175.4627557117134
 20
134.8385875064606
 30
0.0
 10
175.5804771294016
 20
135.7973496000071
 30
0.0
 10
175.6394801860364
 20
136.2778899741863
 30
0.0
  0
LINE
  5
B3
330
1F
100
AcDbEntity
  8
0
  6
Continuous
 62
     7
370
    15
100
AcDbLine
 10
175.6394801860364
 20
136.2778899741863
 30
0.0
 11
179.2249603395971
 21
136.2778899741863
 31
0.0
  0
LINE
  5
B4
330
1F
100
AcDbEntity
  8
0
  6
Continuous
 62
     7
370
    15
100
AcDbLine
 10
175.6394801860364
 20
130.5043866408561
 30
0.0
 11
179.2249603395971
 21
130.5043866408561
 31
0.0
  0
SPLINE
  5
B5
330
1F
100
AcDbEntity
  8
0
  6
Continuous
 62
     7
370
    15
100
AcDbSpline
210
0.0
220
0.0
230
1.0
 70
     8
 71
     3
 72
     9
 73
     5
 74
     0
 42
0.0000000001
 43
0.0000000001
 40
0.0
 40
0.0
 40
0.0
 40
0.0
 40
0.4989632758511659
 40
1.0
 40
1.0
 40
1.0
 40
1.0
 10
175.6394801860364
 20
130.5043866408561
 30
0.0
 10
175.5807145822067
 20
130.9827687074742
 30
0.0
 10
175.4629391733261
 20
131.9415207635288
 30
0.0
 10
175.4424738257162
 20
132.9072662268582
 30
0.0
 10
175.4322199349912
 20
133.3911401701664
 30
0.0
  0
SPLINE
  5
B6
330
1F
100
AcDbEntity
  8
0
  6
Continuous
 62
     7
370
    15
100
AcDbSpline
210
0.0
220
0.0
230
1.0
 70
     8
 71
     3
 72
     9
 73
     5
 74
     0
 42
0.0000000001
 43
0.0000000001
 40
0.0
 40
0.0
 40
0.0
 40
0.0
 40
0.4989662080615726
 40
1.0
 40
1.0
 40
1.0
 40
1.0
 10
175.6394801860364
 20
136.2778899741863
 30
0.0
 10
175.5807778311809
 20
136.5167999844829
 30
0.0
 10
175.4631298744513
 20
136.995609984913
 30
0.0
 10
175.4425374403395
 20
137.477910058512
 30
0.0
 10
175.4322199349912
 20
137.7195586932396
 30
0.0
  0
LINE
  5
B7
330
1F
100
AcDbEntity
  8
0
  6
Continuous
 62
     7
370
    15
100
AcDbLine
 10
175.4322199349912
 20
137.722971059153
 30
0.0
 11
175.4322199349912
 21
137.7195586932396
 31
0.0
  0
SPLINE
  5
B8
330
1F
100
AcDbEntity
  8
0
  6
Continuous
 62
     7
370
    15
100
AcDbSpline
210
0.0
220
0.0
230
1.0
 70
     8
 71
     3
 72
     9
 73
     5
 74
     0
 42
0.0000000001
 43
0.0000000001
 40
0.0
 40
0.0
 40
0.0
 40
0.0
 40
0.4987943781067903
 40
1.0
 40
1.0
 40
1.0
 40
1.0
 10
175.4322199349912
 20
137.722971059153
 30
0.0
 10
175.4424450938578
 20
137.9635402594044
 30
0.0
 10
175.4629448414799
 20
138.4458416060324
 30
0.0
 10
175.580540553874
 20
138.9246555417725
 30
0.0
 10
175.6394801860364
 20
139.1646397782062
 30
0.0
  0
LINE
  5
B9
330
1F
100
AcDbEntity
  8
0
  6
Continuous
 62
     7
370
    15
100
AcDbLine
 10
179.2249603395971
 20
139.1646397782062
 30
0.0
 11
175.6394801860364
 21
139.1646397782062
 31
0.0
  0
SPLINE
  5
BA
330
1F
100
AcDbEntity
  8
0
  6
Continuous
 62
     7
370
    15
100
AcDbSpline
210
0.0
220
0.0
230
1.0
 70
     8
 71
     3
 72
     9
 73
     5
 74
     0
 42
0.0000000001
 43
0.0000000001
 40
0.0
 40
0.0
 40
0.0
 40
0.0
 40
0.4987943834223247
 40
1.0
 40
1.0
 40
1.0
 40
1.0
 10
179.4322205906423
 20
137.722971059153
 30
0.0
 10
179.4219954321297
 20
137.9635402581394
 30
0.0
 10
179.4014956854356
 20
138.4458415970917
 30
0.0
 10
179.2838999717711
 20
138.9246555404829
 30
0.0
 10
179.2249603395971
 20
139.1646397782062
 30
0.0
  0
LINE
  5
BB
330
1F
100
AcDbEntity
  8
0
  6
Continuous
 62
     7
370
    15
100
AcDbLine
 10
179.4322205906423
 20
137.722971059153
 30
0.0
 11
179.4322205906423
 21
137.7195586932396
 31
0.0
  0
LINE
  5
BC
330
1F
100
AcDbEntity
  8
0
  6
Continuous
 62
     7
370
    15
100
AcDbLine
 10
175.4322199349912
 20
133.3911401701664
 30
0.0
 11
175.4322199349912
 21
137.7195586932396
 31
0.0
  0
SPLINE
  5
BD
330
1F
100
AcDbEntity
  8
0
  6
Continuous
 62
     7
370
    15
100
AcDbSpline
210
0.0
220
0.0
230
1.0
 70
     8
 71
     3
 72
     9
 73
     5
 74
     0
 42
0.0000000001
 43
0.0000000001
 40
0.0
 40
0.0
 40
0.0
 40
0.0
 40
0.498792624897055
 40
1.0
 40
1.0
 40
1.0
 40
1.0
 10
175.4322199349912
 20
129.0619542372917
 30
0.0
 10
175.4424173157904
 20
129.3026494287765
 30
0.0
 10
175.4628614448537
 20
129.7852050630633
 30
0.0
 10
175.5805125729469
 20
130.2642738377844
 30
0.0
 10
175.6394801860364
 20
130.5043866408561
 30
0.0
  0
LINE
  5
BE
330
1F
100
AcDbEntity
  8
0
  6
Continuous
 62
     7
370
    15
100
AcDbLine
 10
175.4322199349912
 20
129.0619542372917
 30
0.0
 11
175.4322199349912
 21
133.3911401701664
 31
0.0
  0
SPLINE
  5
BF
330
1F
100
AcDbEntity
  8
0
  6
Continuous
 62
     7
370
    15
100
AcDbSpline
210
0.0
220
0.0
230
1.0
 70
     8
 71
     3
 72
     9
 73
     5
 74
     0
 42
0.0000000001
 43
0.0000000001
 40
0.0
 40
0.0
 40
0.0
 40
0.0
 40
0.4989616285433702
 40
1.0
 40
1.0
 40
1.0
 40
1.0
 10
179.2249603395971
 20
127.617634974191
 30
0.0
 10
179.2837612882444
 20
127.8569813244698
 30
0.0
 10
179.401607922702
 20
128.3366702155323
 30
0.0
 10
179.4220022500706
 20
128.8198584108185
 30
0.0
 10
179.4322205906423
 20
129.0619542372917
 30
0.0
  0
LINE
  5
C0
330
1F
100
AcDbEntity
  8
0
  6
Continuous
 62
     7
370
    15
100
AcDbLine
 10
175.6394801860364
 20
127.617634974191
 30
0.0
 11
179.2249603395971
 21
127.617634974191
 31
0.0
  0
SPLINE
  5
C1
330
1F
100
AcDbEntity
  8
0
  6
Continuous
 62
     7
370
    15
100
AcDbSpline
210
0.0
220
0.0
230
1.0
 70
     8
 71
     3
 72
     9
 73
     5
 74
     0
 42
0.0000000001
 43
0.0000000001
 40
0.0
 40
0.0
 40
0.0
 40
0.0
 40
0.4989616049566854
 40
1.0
 40
1.0
 40
1.0
 40
1.0
 10
175.6394801860364
 20
127.617634974191
 30
0.0
 10
175.5806792373407
 20
127.8569813301515
 30
0.0
 10
175.4628325972154
 20
128.3366702552766
 30
0.0
 10
175.4424382739754
 20
128.8198584164922
 30
0.0
 10
175.4322199349912
 20
129.0619542372917
 30
0.0
  0
LINE
  5
C2
330
1F
100
AcDbEntity
  8
0
  6
Continuous
 62
     7
370
    15
100
AcDbLine
 10
179.4322205906423
 20
129.0619542372917
 30
0.0
 11
179.4322205906423
 21
128.3911374879574
 31
0.0
  0
LINE
  5
C3
330
1F
100
AcDbEntity
  8
0
  6
Continuous
 62
     7
370
    15
100
AcDbLine
 10
175.4322199349912
 20
129.0619542372917
 30
0.0
 11
175.4322199349912
 21
128.3911374879574
 31
0.0
  0
LINE
  5
C4
330
1F
100
AcDbEntity
  8
0
  6
Continuous
 62
     7
370
    15
100
AcDbLine
 10
179.4322205906423
 20
138.3911391270851
 30
0.0
 11
179.4322205906423
 21
137.722971059153
 31
0.0
  0
LINE
  5
C5
330
1F
100
AcDbEntity
  8
0
  6
Continuous
 62
     7
370
    15
100
AcDbLine
 10
175.4322199349912
 20
137.722971059153
 30
0.0
 11
175.4322199349912
 21
138.3911391270851
 31
0.0
  0
LINE
  5
C6
330
1F
100
AcDbEntity
  8
0
  6
Continuous
 62
     7
370
    15
100
AcDbLine
 10
169.4322189515146
 20
136.2778899741863
 30
0.0
 11
165.4322220211538
 21
136.2778899741863
 31
0.0
  0
LINE
  5
C7
330
1F
100
AcDbEntity
  8
0
  6
Continuous
 62
     7
370
    15
100
AcDbLine
 10
169.4322189515146
 20
136.2778899741863
 30
0.0
 11
169.4322189515146
 21
130.5043866408561
 31
0.0
  0
LINE
  5
C8
330
1F
100
AcDbEntity
  8
0
  6
Continuous
 62
     7
370
    15
100
AcDbLine
 10
169.4322189515146
 20
130.5043866408561
 30
0.0
 11
165.4322220211538
 21
130.5043866408561
 31
0.0
  0
LINE
  5
C9
330
1F
100
AcDbEntity
  8
0
  6
Continuous
 62
     7
370
    15
100
AcDbLine
 10
165.4322220211538
 20
136.2778899741863
 30
0.0
 11
165.4322220211538
 21
130.5043866408561
 31
0.0
  0
LINE
  5
CA
330
1F
100
AcDbEntity
  8
0
  6
Continuous
 62
     7
370
    15
100
AcDbLine
 10
169.4322189515146
 20
139.1646397782062
 30
0.0
 11
165.4322220211538
 21
139.1646397782062
 31
0.0
  0
LINE
  5
CB
330
1F
100
AcDbEntity
  8
0
  6
Continuous
 62
     7
370
    15
100
AcDbLine
 10
169.4322189515146
 20
139.1646397782062
 30
0.0
 11
169.4322189515146
 21
136.2778899741863
 31
0.0
  0
LINE
  5
CC
330
1F
100
AcDbEntity
  8
0
  6
Continuous
 62
     7
370
    15
100
AcDbLine
 10
165.4322220211538
 20
139.1646397782062
 30
0.0
 11
165.4322220211538
 21
136.2778899741863
 31
0.0
  0
LINE
  5
CD
330
1F
100
AcDbEntity
  8
0
  6
Continuous
 62
     7
370
    15
100
AcDbLine
 10
169.4322189515146
 20
127.617634974191
 30
0.0
 11
165.4322220211538
 21
127.617634974191
 31
0.0
  0
LINE
  5
CE
330
1F
100
AcDbEntity
  8
0
  6
Continuous
 62
     7
370
    15
100
AcDbLine
 10
169.4322189515146
 20
130.5043866408561
 30
0.0
 11
169.4322189515146
 21
127.617634974191
 31
0.0
  0
LINE
  5
CF
330
1F
100
AcDbEntity
  8
0
  6
Continuous
 62
     7
370
    15
100
AcDbLine
 10
165.4322220211538
 20
130.5043866408561
 30
0.0
 11
165.4322220211538
 21
127.617634974191
 31
0.0
  0
CIRCLE
  5
D0
330
1F
100
AcDbEntity
  8
0
  6
Continuous
 62
     7
370
    15
100
AcDbCircle
 10
221.9321651583227
 20
133.391139305899
 30
0.0
 40
3.874999999993594
  0
SPLINE
  5
D1
330
1F
100
AcDbEntity
  8
0
  6
Continuous
 62
     7
370
    15
100
AcDbSpline
210
0.0
220
0.0
230
1.0
 70
     8
 71
     3
 72
     9
 73
     5
 74
     0
 42
0.0000000001
 43
0.0000000001
 40
0.0
 40
0.0
 40
0.0
 40
0.0
 40
0.4970405392894768
 40
1.0
 40
1.0
 40
1.0
 40
1.0
 10
224.2310860393258
 20
129.3851064068769
 30
0.0
 10
223.4658663620036
 20
129.387110057466
 30
0.0
 10
221.9263145209886
 20
129.3911412187711
 30
0.0
 10
220.3866756833877
 20
129.3951715872361
 30
0.0
 10
219.612299763939
 20
129.3971986991857
 30
0.0
  0
SPLINE
  5
D2
330
1F
100
AcDbEntity
  8
0
  6
Continuous
 62
     7
370
    15
100
AcDbSpline
210
0.0
220
0.0
230
1.0
 70
    24
 71
     3
 72
     9
 73
     5
 74
     0
 42
0.0000000001
 43
0.0000000001
 40
0.0
 40
0.0
 40
0.0
 40
0.0
 40
0.5
 40
1.0
 40
1.0
 40
1.0
 40
1.0
 10
219.612299763939
 20
129.3971986991857
 30
0.0
 10
219.2291462837718
 20
130.0648706826264
 30
0.0
 10
218.4628393234374
 20
131.4002146495079
 30
0.0
 10
217.696532363103
 20
132.7355586163893
 30
0.0
 10
217.3133788829359
 20
133.40323059983
 30
0.0
  0
SPLINE
  5
D3
330
1F
100
AcDbEntity
  8
0
  6
Continuous
 62
     7
370
    15
100
AcDbSpline
210
0.0
220
0.0
230
1.0
 70
     8
 71
     3
 72
     9
 73
     5
 74
     0
 42
0.0000000001
 43
0.0000000001
 40
0.0
 40
0.0
 40
0.0
 40
0.0
 40
0.4970405279125404
 40
1.0
 40
1.0
 40
1.0
 40
1.0
 10
217.3133788829359
 20
133.4032324624752
 30
0.0
 10
217.6977237392429
 20
134.0649303303243
 30
0.0
 10
218.4709903739
 20
135.3962058112758
 30
0.0
 10
219.2443005828608
 20
136.7275565873255
 30
0.0
 10
219.6332442773195
 20
137.3971720708107
 30
0.0
  0
SPLINE
  5
D4
330
1F
100
AcDbEntity
  8
0
  6
Continuous
 62
     7
370
    15
100
AcDbSpline
210
0.0
220
0.0
230
1.0
 70
     8
 71
     3
 72
     9
 73
     5
 74
     0
 42
0.0000000001
 43
0.0000000001
 40
0.0
 40
0.0
 40
0.0
 40
0.0
 40
0.4970405384333168
 40
1.0
 40
1.0
 40
1.0
 40
1.0
 10
219.6332442773195
 20
137.3971720708107
 30
0.0
 10
220.398463955746
 20
137.3951693478892
 30
0.0
 10
221.9380158016347
 20
137.3911400529592
 30
0.0
 10
223.4776546343811
 20
137.3871078254692
 30
0.0
 10
224.2520305527063
 20
137.3850797785019
 30
0.0
  0
SPLINE
  5
D5
330
1F
100
AcDbEntity
  8
0
  6
Continuous
 62
     7
370
    15
100
AcDbSpline
210
0.0
220
0.0
230
1.0
 70
    24
 71
     3
 72
     9
 73
     5
 74
     0
 42
0.0000000001
 43
0.0000000001
 40
0.0
 40
0.0
 40
0.0
 40
0.0
 40
0.5
 40
1.0
 40
1.0
 40
1.0
 40
1.0
 10
224.2520305527063
 20
137.3850797785019
 30
0.0
 10
224.6351840328735
 20
136.7174077950611
 30
0.0
 10
225.4014909932079
 20
135.3820638281797
 30
0.0
 10
226.1677979535423
 20
134.0467198612983
 30
0.0
 10
226.5509514337095
 20
133.3790478778576
 30
0.0
  0
SPLINE
  5
D6
330
1F
100
AcDbEntity
  8
0
  6
Continuous
 62
     7
370
    15
100
AcDbSpline
210
0.0
220
0.0
230
1.0
 70
     8
 71
     3
 72
     9
 73
     5
 74
     0
 42
0.0000000001
 43
0.0000000001
 40
0.0
 40
0.0
 40
0.0
 40
0.0
 40
0.4970407027433236
 40
1.0
 40
1.0
 40
1.0
 40
1.0
 10
226.5509514337095
 20
133.3790478778576
 30
0.0
 10
226.1666066442067
 20
132.7173493498371
 30
0.0
 10
225.3933404159453
 20
131.3860730089491
 30
0.0
 10
224.6200298021843
 20
130.0547218501223
 30
0.0
 10
224.2310860393258
 20
129.3851064068769
 30
0.0
  0
SPLINE
  5
D7
330
1F
100
AcDbEntity
  8
0
  6
Continuous
 62
     7
370
    15
100
AcDbSpline
210
0.0
220
0.0
230
1.0
 70
     8
 71
     3
 72
    11
 73
     7
 74
     0
 42
0.0000000001
 43
0.0000000001
 40
0.0
 40
0.0
 40
0.0
 40
0.0
 40
0.0495461179051456
 40
0.4781998415109492
 40
0.9098692825488654
 40
1.0
 40
1.0
 40
1.0
 40
1.0
 10
234.9567048450621
 20
139.6383998466228
 30
0.0
 10
234.9773012705213
 20
139.6495664588012
 30
0.0
 10
235.1760899507791
 20
139.7573422523385
 30
0.0
 10
235.6321172171402
 20
139.9944015846805
 30
0.0
 10
236.1835081713919
 20
140.2756295945969
 30
0.0
 10
236.487879226991
 20
140.433064676318
 30
0.0
 10
236.540453342131
 20
140.4602584911083
 30
0.0
  0
ARC
  5
D8
330
1F
100
AcDbEntity
  8
0
  6
Continuous
 62
     7
370
    15
100
AcDbCircle
 10
232.4983643398971
 20
143.4033023546414
 30
0.0
 40
5.000000000000001
100
AcDbArc
 50
323.9416341107067
 51
355.1169119309341
  0
LINE
  5
D9
330
1F
100
AcDbEntity
  8
0
  6
Continuous
 62
     7
370
    15
100
AcDbLine
 10
247.4954424624952
 20
142.9115330351089
 30
0.0
 11
247.4319858675512
 21
133.3044433516954
 31
0.0
  0
LWPOLYLINE
  5
DA
330
1F
100
AcDbEntity
  8
0
  6
Continuous
 62
     7
370
    15
100
AcDbPolyline
 90
        9
 70
   128
 43
0.0
 10
237.4982552801879
 20
143.3702764583324
 10
237.4995256041797
 20
143.562575943539
 10
237.5007717137846
 20
143.7512767983173
 10
237.5019870897444
 20
143.9352167320942
 10
237.5031633501562
 20
144.1132669819092
 10
237.5042930444392
 20
144.2843248618339
 10
237.5053696533354
 20
144.4473472905849
 10
237.5063866575869
 20
144.6013247144913
 10
237.5073375379356
 20
144.7453146351074
  0
LINE
  5
DB
330
1F
100
AcDbEntity
  8
0
  6
Continuous
 62
     7
370
    15
100
AcDbLine
 10
237.4802164932402
 20
142.977686740229
 30
0.0
 11
237.4982552801879
 21
143.3702764583324
 31
0.0
  0
LWPOLYLINE
  5
DC
330
1F
100
AcDbEntity
  8
0
  6
Continuous
 62
     7
370
    15
100
AcDbPolyline
 90
        9
 70
   128
 43
0.0
 10
247.5071193849357
 20
144.6792615128254
 10
247.5059198414596
 20
144.4974822474216
 10
247.5046178525003
 20
144.3004292917942
 10
247.503228319219
 20
144.0900025439953
 10
247.5017624174865
 20
143.8682211113666
 10
247.5002369111093
 20
143.6372307611202
 10
247.4986648386034
 20
143.3992517662739
 10
247.4970611011299
 20
143.1565714550709
 10
247.4954424624952
 20
142.9115330351089
  0
ARC
  5
DD
330
1F
100
AcDbEntity
  8
0
  6
Continuous
 62
     7
370
    15
100
AcDbCircle
 10
232.5762384552727
 20
141.0727718403618
 30
0.0
 40
2.779216301287084
100
AcDbArc
 50
290.8134544430538
 51
328.9285467727109
  0
LINE
  5
DE
330
1F
100
AcDbEntity
  8
0
  6
Continuous
 62
     7
370
    15
100
AcDbLine
 10
237.5073375379356
 20
144.7453146351074
 30
0.0
 11
237.549873833886
 21
151.1850079072212
 31
0.0
  0
LINE
  5
DF
330
1F
100
AcDbEntity
  8
0
  6
Continuous
 62
     7
370
    15
100
AcDbLine
 10
247.5496547495636
 20
151.1189585102295
 30
0.0
 11
247.5071193849357
 21
144.6792615128254
 31
0.0
  0
LINE
  5
E0
330
1F
100
AcDbEntity
  8
0
  6
Continuous
 62
     7
370
    15
100
AcDbLine
 10
233.1691168447646
 20
138.3541395438408
 30
0.0
 11
233.2260420744928
 21
138.3693834317421
 31
0.0
  0
SPLINE
  5
E1
330
1F
100
AcDbEntity
  8
0
  6
Continuous
 62
     7
370
    15
100
AcDbSpline
210
0.0
220
0.0
230
1.0
 70
     8
 71
     3
 72
    10
 73
     6
 74
     0
 42
0.0000000001
 43
0.0000000001
 40
0.0
 40
0.0
 40
0.0
 40
0.0
 40
0.3216423009928293
 40
0.7486600442318152
 40
1.0
 40
1.0
 40
1.0
 40
1.0
 10
233.2260420744928
 20
138.3693834317421
 30
0.0
 10
233.2664800805402
 20
138.3807949583323
 30
0.0
 10
233.3606042653961
 20
138.407356620077
 30
0.0
 10
233.4779643072103
 20
138.4446478517198
 30
0.0
 10
233.5405710161891
 20
138.4667367096064
 30
0.0
 10
233.5637675797256
 20
138.4749209058975
 30
0.0
  0
LINE
  5
E2
330
1F
100
AcDbEntity
  8
0
  6
Continuous
 62
     7
370
    15
100
AcDbLine
 10
233.4868720000299
 20
138.458663739035
 30
0.0
 11
233.2260420744928
 21
138.3693834317421
 31
0.0
  0
LWPOLYLINE
  5
E3
330
1F
100
AcDbEntity
  8
0
  6
Continuous
 62
     7
370
    15
100
AcDbPolyline
 90
        9
 70
   128
 43
0.0
 10
237.549873833886
 20
151.1850079072212
 10
237.5501141151103
 20
151.2213630152439
 10
237.5503739541086
 20
151.2607765866016
 10
237.5506524195584
 20
151.3028611911033
 10
237.5509448548468
 20
151.3472182226871
 10
237.5512503286513
 20
151.3934155476784
 10
237.5515651156815
 20
151.4410098565315
 10
237.5518854906472
 20
151.4895466638302
 10
237.5522086595806
 20
151.5385528577064
  0
LWPOLYLINE
  5
E4
330
1F
100
AcDbEntity
  8
0
  6
Continuous
 62
     7
370
    15
100
AcDbPolyline
 90
        9
 70
   128
 43
0.0
 10
247.5519905065807
 20
151.4725034607147
 10
247.5516664063247
 20
151.4234935415481
 10
247.5513460313591
 20
151.3749604595398
 10
247.5510312443288
 20
151.3273624253963
 10
247.5507276331695
 20
151.2811651004051
 10
247.5504333352359
 20
151.2368080688213
 10
247.5501558011087
 20
151.1947234643196
 10
247.5498950307878
 20
151.1553136182522
 10
247.5496547495636
 20
151.1189585102295
  0
LINE
  5
E5
330
1F
100
AcDbEntity
  8
0
  6
Continuous
 62
     7
370
    15
100
AcDbLine
 10
237.5522086595806
 20
151.5385528577064
 30
0.0
 11
237.5786302810224
 21
155.5384678316807
 31
0.0
  0
LINE
  5
E6
330
1F
100
AcDbEntity
  8
0
  6
Continuous
 62
     7
370
    15
100
AcDbLine
 10
247.5784121280225
 20
155.4724147093986
 30
0.0
 11
247.5519905065807
 21
151.4725034607147
 31
0.0
  0
ARC
  5
E7
330
1F
100
AcDbEntity
  8
0
  6
Continuous
 62
     7
370
    15
100
AcDbCircle
 10
242.4320949025846
 20
133.337469199461
 30
0.0
 40
5.000000000000008
100
AcDbArc
 50
315.0307395698835
 51
89.84999638547359
  0
LINE
  5
E8
330
1F
100
AcDbEntity
  8
0
  6
Continuous
 62
     7
370
    15
100
AcDbLine
 10
245.9695244406971
 20
129.8038327617143
 30
0.0
 11
238.0487395649465
 21
121.8745430482124
 31
0.0
  0
ARC
  5
E9
330
1F
100
AcDbEntity
  8
0
  6
Continuous
 62
     7
370
    15
100
AcDbCircle
 10
234.511308447665
 20
125.4081790713623
 30
0.0
 40
4.999999999999978
100
AcDbArc
 50
237.600022221291
 51
315.0307395698835
  0
LINE
  5
EA
330
1F
100
AcDbEntity
  8
0
  6
Continuous
 62
     7
370
    15
100
AcDbLine
 10
231.8321762805494
 20
121.1865378094409
 30
0.0
 11
219.2530327675553
 21
129.1694977802728
 31
0.0
  0
LINE
  5
EB
330
1F
100
AcDbEntity
  8
0
  6
Continuous
 62
     7
370
    15
100
AcDbLine
 10
221.9452554282538
 20
138.3911205006336
 30
0.0
 11
242.4451856141599
 21
138.3374502433037
 31
0.0
  0
ARC
  5
EC
330
1F
100
AcDbEntity
  8
0
  6
Continuous
 62
     7
370
    15
100
AcDbCircle
 10
221.9321651583227
 20
133.391139305899
 30
0.0
 40
5.000000000000015
100
AcDbArc
 50
89.84999638547359
 51
237.600022221291
  0
LINE
  5
ED
330
1F
100
AcDbEntity
  8
0
  6
Continuous
 62
     7
370
    15
100
AcDbLine
 10
179.9322216039213
 20
138.3911391270851
 30
0.0
 11
179.9322216039213
 21
128.3911393506025
 31
0.0
  0
SPLINE
  5
EE
330
1F
100
AcDbEntity
  8
0
  6
Continuous
 62
     7
370
    15
100
AcDbSpline
210
0.0
220
0.0
230
1.0
 70
     8
 71
     3
 72
     9
 73
     5
 74
     0
 42
0.0000000001
 43
0.0000000001
 40
0.0
 40
0.0
 40
0.0
 40
0.0
 40
0.4989633089717084
 40
1.0
 40
1.0
 40
1.0
 40
1.0
 10
215.825958011082
 20
138.8759670329784
 30
0.0
 10
215.7143030545238
 20
139.3304303211573
 30
0.0
 10
215.490529172656
 20
140.2412453650842
 30
0.0
 10
215.4516466131605
 20
141.1587013523571
 30
0.0
 10
215.4321650242122
 20
141.6183804643844
 30
0.0
  0
SPLINE
  5
EF
330
1F
100
AcDbEntity
  8
0
  6
Continuous
 62
     7
370
    15
100
AcDbSpline
210
0.0
220
0.0
230
1.0
 70
     8
 71
     3
 72
     9
 73
     5
 74
     0
 42
0.0000000001
 43
0.0000000001
 40
0.0
 40
0.0
 40
0.0
 40
0.0
 40
0.4987908232274514
 40
1.0
 40
1.0
 40
1.0
 40
1.0
 10
215.4321650242122
 20
133.3911401701664
 30
0.0
 10
215.4514732657281
 20
134.3063780014658
 30
0.0
 10
215.4901833634619
 20
136.1412911327407
 30
0.0
 10
215.7138528245972
 20
137.9629399359521
 30
0.0
 10
215.825958011082
 20
138.8759670329784
 30
0.0
  0
SPLINE
  5
F0
330
1F
100
AcDbEntity
  8
0
  6
Continuous
 62
     7
370
    15
100
AcDbSpline
210
0.0
220
0.0
230
1.0
 70
     8
 71
     3
 72
     9
 73
     5
 74
     0
 42
0.0000000001
 43
0.0000000001
 40
0.0
 40
0.0
 40
0.0
 40
0.0
 40
0.4989629822170233
 40
1.0
 40
1.0
 40
1.0
 40
1.0
 10
215.825958011082
 20
127.9063114447092
 30
0.0
 10
215.7143030532217
 20
128.8152363056378
 30
0.0
 10
215.4905290222019
 20
130.6368641484289
 30
0.0
 10
215.4516465714041
 20
132.4717796029495
 30
0.0
 10
215.4321650242122
 20
133.3911401701664
 30
0.0
  0
SPLINE
  5
F1
330
1F
100
AcDbEntity
  8
0
  6
Continuous
 62
     7
370
    15
100
AcDbSpline
210
0.0
220
0.0
230
1.0
 70
     8
 71
     3
 72
     9
 73
     5
 74
     0
 42
0.0000000001
 43
0.0000000001
 40
0.0
 40
0.0
 40
0.0
 40
0.0
 40
0.4987908599308057
 40
1.0
 40
1.0
 40
1.0
 40
1.0
 10
215.4321650242122
 20
125.1638980133031
 30
0.0
 10
215.4514732610788
 20
125.6215169123386
 30
0.0
 10
215.4901833466431
 20
126.5389733771562
 30
0.0
 10
215.7138528244505
 20
127.4497978792572
 30
0.0
 10
215.825958011082
 20
127.9063114447092
 30
0.0
  0
SPLINE
  5
F2
330
1F
100
AcDbEntity
  8
0
  6
Continuous
 62
     7
370
    15
100
AcDbSpline
210
0.0
220
0.0
230
1.0
 70
     8
 71
     3
 72
     9
 73
     5
 74
     0
 42
0.0000000001
 43
0.0000000001
 40
0.0
 40
0.0
 40
0.0
 40
0.0
 40
0.4989633105779981
 40
1.0
 40
1.0
 40
1.0
 40
1.0
 10
226.0383724433991
 20
138.8759670329784
 30
0.0
 10
226.1500274385152
 20
139.3304303204227
 30
0.0
 10
226.3738013969389
 20
140.2412453599449
 30
0.0
 10
226.41268356956
 20
141.1587013516235
 30
0.0
 10
226.4321649646076
 20
141.6183804643844
 30
0.0
  0
LINE
  5
F3
330
1F
100
AcDbEntity
  8
0
  6
Continuous
 62
     7
370
    15
100
AcDbLine
 10
226.0383724433991
 20
138.8759670329784
 30
0.0
 11
215.825958011082
 21
138.8759670329784
 31
0.0
  0
SPLINE
  5
F4
330
1F
100
AcDbEntity
  8
0
  6
Continuous
 62
     7
370
    15
100
AcDbSpline
210
0.0
220
0.0
230
1.0
 70
     8
 71
     3
 72
     9
 73
     5
 74
     0
 42
0.0000000001
 43
0.0000000001
 40
0.0
 40
0.0
 40
0.0
 40
0.0
 40
0.4987909893418996
 40
1.0
 40
1.0
 40
1.0
 40
1.0
 10
215.4321650242122
 20
141.6183804643844
 30
0.0
 10
215.4514732446862
 20
142.076000234665
 30
0.0
 10
215.4901832873424
 20
142.993458208163
 30
0.0
 10
215.7138528239331
 20
143.904281203442
 30
0.0
 10
215.825958011082
 20
144.3607938957905
 30
0.0
  0
LINE
  5
F5
330
1F
100
AcDbEntity
  8
0
  6
Continuous
 62
     7
370
    15
100
AcDbLine
 10
226.0383724433991
 20
144.3607938957905
 30
0.0
 11
215.825958011082
 21
144.3607938957905
 31
0.0
  0
SPLINE
  5
F6
330
1F
100
AcDbEntity
  8
0
  6
Continuous
 62
     7
370
    15
100
AcDbSpline
210
0.0
220
0.0
230
1.0
 70
     8
 71
     3
 72
     9
 73
     5
 74
     0
 42
0.0000000001
 43
0.0000000001
 40
0.0
 40
0.0
 40
0.0
 40
0.0
 40
0.4987909905302198
 40
1.0
 40
1.0
 40
1.0
 40
1.0
 10
226.4321649646076
 20
141.6183804643844
 30
0.0
 10
226.4128569382159
 20
142.0760002341272
 30
0.0
 10
226.3741472847572
 20
142.9934582043609
 30
0.0
 10
226.1504776696403
 20
143.9042812028936
 30
0.0
 10
226.0383724433991
 20
144.3607938957905
 30
0.0
  0
LINE
  5
F7
330
1F
100
AcDbEntity
  8
0
  6
Continuous
 62
     7
370
    15
100
AcDbLine
 10
226.0907635291728
 20
138.3802687299942
 30
0.0
 11
226.0383724433991
 21
138.8759670329784
 31
0.0
  0
LINE
  5
F8
330
1F
100
AcDbEntity
  8
0
  6
Continuous
 62
     7
370
    15
100
AcDbLine
 10
226.4321649646076
 20
138.4011378062462
 30
0.0
 11
226.4321649646076
 21
141.6183804643844
 31
0.0
  0
LINE
  5
F9
330
1F
100
AcDbEntity
  8
0
  6
Continuous
 62
     7
370
    15
100
AcDbLine
 10
215.825958011082
 20
127.9063114447092
 30
0.0
 11
221.2434985059003
 21
127.9063114447092
 31
0.0
  0
SPLINE
  5
FA
330
1F
100
AcDbEntity
  8
0
  6
Continuous
 62
     7
370
    15
100
AcDbSpline
210
0.0
220
0.0
230
1.0
 70
     8
 71
     3
 72
     9
 73
     5
 74
     0
 42
0.0000000001
 43
0.0000000001
 40
0.0
 40
0.0
 40
0.0
 40
0.0
 40
0.6167590028804765
 40
1.0
 40
1.0
 40
1.0
 40
1.0
 10
226.0383724433991
 20
122.4214845818971
 30
0.0
 10
226.1536498156766
 20
122.8758168122862
 30
0.0
 10
226.3405581084442
 20
123.612461479437
 30
0.0
 10
226.3778874116466
 20
124.354481314515
 30
0.0
 10
226.3921935310277
 20
124.6388537359928
 30
0.0
  0
LINE
  5
FB
330
1F
100
AcDbEntity
  8
0
  6
Continuous
 62
     7
370
    15
100
AcDbLine
 10
215.825958011082
 20
122.4214845818971
 30
0.0
 11
226.0383724433991
 21
122.4214845818971
 31
0.0
  0
SPLINE
  5
FC
330
1F
100
AcDbEntity
  8
0
  6
Continuous
 62
     7
370
    15
100
AcDbSpline
210
0.0
220
0.0
230
1.0
 70
     8
 71
     3
 72
     9
 73
     5
 74
     0
 42
0.0000000001
 43
0.0000000001
 40
0.0
 40
0.0
 40
0.0
 40
0.0
 40
0.4989631812166543
 40
1.0
 40
1.0
 40
1.0
 40
1.0
 10
215.825958011082
 20
122.4214845818971
 30
0.0
 10
215.7143030540147
 20
122.8759469984711
 30
0.0
 10
215.4905291138312
 20
123.7867605287719
 30
0.0
 10
215.4516465968345
 20
124.7042180270147
 30
0.0
 10
215.4321650242122
 20
125.1638980133031
 30
0.0
  0
LINE
  5
FD
330
1F
100
AcDbEntity
  8
0
  6
Continuous
 62
     7
370
    15
100
AcDbLine
 10
202.4321647559913
 20
139.8411375952457
 30
0.0
 11
202.4321647559913
 21
126.9411390197967
 31
0.0
  0
LINE
  5
FE
330
1F
100
AcDbEntity
  8
0
  6
Continuous
 62
     7
370
    15
100
AcDbLine
 10
203.9321659331831
 20
141.3411406350826
 30
0.0
 11
203.9321659331831
 21
125.4411397052501
 31
0.0
  0
LINE
  5
FF
330
1F
100
AcDbEntity
  8
0
  6
Continuous
 62
     7
370
    15
100
AcDbLine
 10
226.4321649646076
 20
141.6183804643844
 30
0.0
 11
226.4321649646076
 21
142.8911407960151
 31
0.0
  0
LINE
  5
100
330
1F
100
AcDbEntity
  8
0
  6
Continuous
 62
     7
370
    15
100
AcDbLine
 10
226.4321649646076
 20
123.8911395443176
 30
0.0
 11
226.4321649646076
 21
124.6134863717054
 31
0.0
  0
ARC
  5
101
330
1F
100
AcDbEntity
  8
0
  6
Continuous
 62
     7
370
    15
100
AcDbCircle
 10
218.4321651583227
 20
112.391139305899
 30
0.0
 40
3.0
100
AcDbArc
 50
180.0
 51
270.0000000000008
  0
LINE
  5
102
330
1F
100
AcDbEntity
  8
0
  6
Continuous
 62
     7
370
    15
100
AcDbLine
 10
218.4321650502893
 20
105.391139305899
 30
0.0
 11
227.4321651285204
 21
105.391139305899
 31
0.0
  0
ARC
  5
103
330
1F
100
AcDbEntity
  8
0
  6
Continuous
 62
     7
370
    15
100
AcDbCircle
 10
218.4321651583227
 20
112.391139305899
 30
0.0
 40
7.000000000000014
100
AcDbArc
 50
180.0
 51
270.0000000000008
  0
LINE
  5
104
330
1F
100
AcDbEntity
  8
0
  6
Continuous
 62
     7
370
    15
100
AcDbLine
 10
211.4321652998837
 20
130.3675418270324
 30
0.0
 11
211.4321652998837
 21
112.3911395219658
 31
0.0
  0
LINE
  5
105
330
1F
100
AcDbEntity
  8
0
  6
Continuous
 62
     7
370
    15
100
AcDbLine
 10
215.4321650242122
 20
112.3911395219658
 30
0.0
 11
215.4321650242122
 21
130.3675418270324
 31
0.0
  0
LINE
  5
106
330
1F
100
AcDbEntity
  8
0
  6
Continuous
 62
     7
370
    15
100
AcDbLine
 10
227.4321651285204
 20
109.3911394958888
 30
0.0
 11
218.4321650502893
 21
109.3911394958888
 31
0.0
  0
LINE
  5
107
330
1F
100
AcDbEntity
  8
0
  6
Continuous
 62
     7
370
    15
100
AcDbLine
 10
232.4321650167616
 20
109.3911394958888
 30
0.0
 11
232.4321650167616
 21
105.391139305899
 31
0.0
  0
LINE
  5
108
330
1F
100
AcDbEntity
  8
0
  6
Continuous
 62
     7
370
    15
100
AcDbLine
 10
232.4321650167616
 20
105.391139305899
 30
0.0
 11
227.4321651285204
 21
105.391139305899
 31
0.0
  0
LINE
  5
109
330
1F
100
AcDbEntity
  8
0
  6
Continuous
 62
     7
370
    15
100
AcDbLine
 10
227.4321651285204
 20
109.3911394958888
 30
0.0
 11
232.4321650167616
 21
109.3911394958888
 31
0.0
  0
LINE
  5
10A
330
1F
100
AcDbEntity
  8
0
  6
Continuous
 62
     7
370
    15
100
AcDbLine
 10
211.4321652998837
 20
130.3675418270324
 30
0.0
 11
211.4321652998837
 21
134.1123209816908
 31
0.0
  0
LINE
  5
10B
330
1F
100
AcDbEntity
  8
0
  6
Continuous
 62
     7
370
    15
100
AcDbLine
 10
215.4321650242122
 20
134.1123209816908
 30
0.0
 11
215.4321650242122
 21
130.3675418270324
 31
0.0
  0
LINE
  5
10C
330
1F
100
AcDbEntity
  8
0
  6
Continuous
 62
     7
370
    15
100
AcDbLine
 10
211.4321652998837
 20
134.1123209816908
 30
0.0
 11
211.4321652998837
 21
143.8765210581516
 31
0.0
  0
LINE
  5
10D
330
1F
100
AcDbEntity
  8
0
  6
Continuous
 62
     7
370
    15
100
AcDbLine
 10
215.4321650242122
 20
134.1123209816908
 30
0.0
 11
215.4321650242122
 21
143.8765210581516
 31
0.0
  0
LINE
  5
10E
330
1F
100
AcDbEntity
  8
0
  6
Continuous
 62
     7
370
    15
100
AcDbLine
 10
211.4321652998837
 20
143.8765210581516
 30
0.0
 11
211.4321652998837
 21
147.3911387396549
 31
0.0
  0
LINE
  5
10F
330
1F
100
AcDbEntity
  8
0
  6
Continuous
 62
     7
370
    15
100
AcDbLine
 10
215.4321650242122
 20
143.8765210581516
 30
0.0
 11
215.4321650242122
 21
147.3911387396549
 31
0.0
  0
SPLINE
  5
110
330
1F
100
AcDbEntity
  8
0
  6
Continuous
 62
     7
370
    15
100
AcDbSpline
210
0.0
220
0.0
230
1.0
 70
     8
 71
     3
 72
    28
 73
    24
 74
     0
 42
0.0000000001
 43
0.0000000001
 40
0.0
 40
0.0
 40
0.0
 40
0.0
 40
0.0559037226998475
 40
0.078899565209053
 40
0.1176085370567495
 40
0.1588634286517519
 40
0.203888097127761
 40
0.2514978603093021
 40
0.3009724549108087
 40
0.3517315002884659
 40
0.4033629100204799
 40
0.4555878445759793
 40
0.5082219877028824
 40
0.561145076213546
 40
0.6142770398772159
 40
0.6675651877984763
 40
0.7209746275891172
 40
0.7744820365145414
 40
0.8280741192445539
 40
0.8817416126057715
 40
0.9354828981024832
 40
0.989300326783263
 40
1.0
 40
1.0
 40
1.0
 40
1.0
 10
93.26507398874008
 20
203.2036875856613
 30
0.0
 10
92.96612695063467
 20
203.2741226417335
 30
0.0
 10
92.5442088709803
 20
203.3735309643136
 30
0.0
 10
91.90401438860668
 20
203.4591073634114
 30
0.0
 10
91.34033548253086
 20
203.5046391828174
 30
0.0
 10
90.65364231285002
 20
203.5087781699811
 30
0.0
 10
89.9198848273412
 20
203.4554705637712
 30
0.0
 10
89.14855797780031
 20
203.3330481897977
 30
0.0
 10
88.3604910055426
 20
203.135006592884
 30
0.0
 10
87.5729713658981
 20
202.8582443996135
 30
0.0
 10
86.80102811148316
 20
202.5026826142974
 30
0.0
 10
86.05737584886995
 20
202.0702715727138
 30
0.0
 10
85.35278531689668
 20
201.5644530063556
 30
0.0
 10
84.69651196939983
 20
200.9897297724172
 30
0.0
 10
84.09654757574534
 20
200.351494468616
 30
0.0
 10
83.55983596928725
 20
199.6558220819469
 30
0.0
 10
83.0924423845397
 20
198.9093866881866
 30
0.0
 10
82.69930401763387
 20
198.119358878062
 30
0.0
 10
82.38540882646153
 20
197.2933403797807
 30
0.0
 10
82.1515869315978
 20
196.4392135375373
 30
0.0
 10
82.01015251011648
 20
195.5653363240585
 30
0.0
 10
81.94896185770707
 20
194.916437055384
 30
0.0
 10
81.96210249444172
 20
194.5624862472248
 30
0.0
 10
81.9642817696228
 20
194.5037861836647
 30
0.0
  0
SPLINE
  5
111
330
1F
100
AcDbEntity
  8
0
  6
Continuous
 62
     7
370
    15
100
AcDbSpline
210
0.0
220
0.0
230
1.0
 70
     8
 71
     3
 72
    22
 73
    18
 74
     0
 42
0.0000000001
 43
0.0000000001
 40
0.0
 40
0.0
 40
0.0
 40
0.0
 40
0.0602646793527163
 40
0.1356340995322784
 40
0.2111785435510232
 40
0.286951999016014
 40
0.3630435640379622
 40
0.4395967250043825
 40
0.5168559148861139
 40
0.5952670149487413
 40
0.6658836226568798
 40
0.7360450031298989
 40
0.8047930668477205
 40
0.8674739271382748
 40
0.9108527599266219
 40
0.9601662666607547
 40
1.0
 40
1.0
 40
1.0
 40
1.0
 10
99.950340027143
 20
194.5057680381035
 30
0.0
 10
99.94768995474251
 20
194.7429176341996
 30
0.0
 10
99.94172559572495
 20
195.2766560074299
 30
0.0
 10
99.82778356419551
 20
196.1015584940511
 30
0.0
 10
99.62844090636515
 20
196.9714888285838
 30
0.0
 10
99.34033981301503
 20
197.8198644616581
 30
0.0
 10
98.96839457586029
 20
198.6390887592365
 30
0.0
 10
98.51330720335651
 20
199.4221081011379
 30
0.0
 10
97.97637645712192
 20
200.1627461442315
 30
0.0
 10
97.38227303445762
 20
200.8274367633993
 30
0.0
 10
96.74699036832043
 20
201.4118238563319
 30
0.0
 10
96.09081086721431
 20
201.9121416607657
 30
0.0
 10
95.41833983861485
 20
202.3339784956564
 30
0.0
 10
94.80605460864705
 20
202.6483918921635
 30
0.0
 10
94.24398435684862
 20
202.8885963153487
 30
0.0
 10
93.75340133041277
 20
203.0661091408567
 30
0.0
 10
93.41588616355771
 20
203.1611986592826
 30
0.0
 10
93.26507398874008
 20
203.2036875856613
 30
0.0
  0
SPLINE
  5
112
330
1F
100
AcDbEntity
  8
0
  6
Continuous
 62
     7
370
    15
100
AcDbSpline
210
0.0
220
0.0
230
1.0
 70
     8
 71
     3
 72
    12
 73
     8
 74
     0
 42
0.0000000001
 43
0.0000000001
 40
0.0
 40
0.0
 40
0.0
 40
0.0
 40
0.1074843951366143
 40
0.3704997667235958
 40
0.6335171856430923
 40
0.8965360074541774
 40
1.0
 40
1.0
 40
1.0
 40
1.0
 10
81.96782917730951
 20
161.3535826576446
 30
0.0
 10
81.96525657208377
 20
161.2683710690411
 30
0.0
 10
81.95638877657916
 20
160.9746458854031
 30
0.0
 10
82.03159373392264
 20
160.4743305520656
 30
0.0
 10
82.19562396967669
 20
159.8711659049274
 30
0.0
 10
82.38249026043606
 20
159.404425655782
 30
0.0
 10
82.53699508800981
 20
159.1582302796508
 30
0.0
 10
82.58061428569698
 20
159.0887253654693
 30
0.0
  0
SPLINE
  5
113
330
1F
100
AcDbEntity
  8
0
  6
Continuous
 62
     7
370
    15
100
AcDbSpline
210
0.0
220
0.0
230
1.0
 70
     8
 71
     3
 72
    12
 73
     8
 74
     0
 42
0.0000000001
 43
0.0000000001
 40
0.0
 40
0.0
 40
0.0
 40
0.0
 40
0.0456856527440772
 40
0.3114260549852875
 40
0.5771710678055042
 40
0.8429175741968892
 40
1.0
 40
1.0
 40
1.0
 40
1.0
 10
99.34946653448486
 20
159.1069867385124
 30
0.0
 10
99.36905499528405
 20
159.1370096035732
 30
0.0
 10
99.50258394153987
 20
159.3416669054541
 30
0.0
 10
99.67812383130237
 20
159.7634366791023
 30
0.0
 10
99.86036133921679
 20
160.3611372015418
 30
0.0
 10
99.95094164221404
 20
160.8975072192931
 30
0.0
 10
99.94792326891117
 20
161.2294682231834
 30
0.0
 10
99.94680193268203
 20
161.3527928961014
 30
0.0
  0
LINE
  5
114
330
1F
100
AcDbEntity
  8
0
  6
Continuous
 62
     7
370
    15
100
AcDbLine
 10
81.95731640808725
 20
161.6743562293743
 30
0.0
 11
81.95731640808725
 21
161.353262282679
 31
0.0
  0
LINE
  5
115
330
1F
100
AcDbEntity
  8
0
  6
Continuous
 62
     7
370
    15
100
AcDbLine
 10
99.95731656454944
 20
161.353262282679
 30
0.0
 11
99.95731656454944
 21
161.6743562293743
 31
0.0
  0
SPLINE
  5
116
330
1F
100
AcDbEntity
  8
0
  6
Continuous
 62
     7
370
    15
100
AcDbSpline
210
0.0
220
0.0
230
1.0
 70
     8
 71
     3
 72
    13
 73
     9
 74
     0
 42
0.0000000001
 43
0.0000000001
 40
0.0
 40
0.0
 40
0.0
 40
0.0
 40
0.0858732412838177
 40
0.296094821868475
 40
0.5063179128527519
 40
0.7165423397817002
 40
0.9267703254563064
 40
0.9999999999999998
 40
0.9999999999999998
 40
0.9999999999999998
 40
0.9999999999999998
 10
99.94680565797233
 20
161.6741438878273
 30
0.0
 10
99.94939657973485
 20
161.7593322639861
 30
0.0
 10
99.95833019521599
 20
162.0530656399124
 30
0.0
 10
99.88202467954781
 20
162.5526385969618
 30
0.0
 10
99.72269879813108
 20
163.158818846297
 30
0.0
 10
99.47103251108412
 20
163.7326829865148
 30
0.0
 10
99.22799403086919
 20
164.1615276398066
 30
0.0
 10
99.04714493324073
 20
164.3769669703978
 30
0.0
 10
99.00042359732532
 20
164.4326244962906
 30
0.0
  0
SPLINE
  5
117
330
1F
100
AcDbEntity
  8
0
  6
Continuous
 62
     7
370
    15
100
AcDbSpline
210
0.0
220
0.0
230
1.0
 70
     8
 71
     3
 72
    13
 73
     9
 74
     0
 42
0.0000000001
 43
0.0000000001
 40
0.0
 40
0.0
 40
0.0
 40
0.0
 40
0.0426424655332769
 40
0.2511106796545207
 40
0.4595916131965873
 40
0.6680748850917002
 40
0.8765606544842695
 40
1.0
 40
1.0
 40
1.0
 40
1.0
 10
82.92735732175851
 20
164.4539629591202
 30
0.0
 10
82.89927633028947
 20
164.4218559443649
 30
0.0
 10
82.73391448347837
 20
164.2327858660744
 30
0.0
 10
82.49827544791818
 20
163.834014103229
 30
0.0
 10
82.23133200504998
 20
163.2675928331861
 30
0.0
 10
82.05567229106
 20
162.6655540349126
 30
0.0
 10
81.96347858737896
 20
162.1300339218099
 30
0.0
 10
81.96664507550542
 20
161.7977772983054
 30
0.0
 10
81.96782265805149
 20
161.674214668343
 30
0.0
  0
SPLINE
  5
118
330
1F
100
AcDbEntity
  8
0
  6
Continuous
 62
     7
370
    15
100
AcDbSpline
210
0.0
220
0.0
230
1.0
 70
     8
 71
     3
 72
    13
 73
     9
 74
     0
 42
0.0000000001
 43
0.0000000001
 40
0.0
 40
0.0
 40
0.0
 40
0.0
 40
0.0852140089768646
 40
0.2937335266889906
 40
0.5022546675335824
 40
0.710775778707419
 40
0.9193027574832067
 40
0.9999999999999998
 40
0.9999999999999998
 40
0.9999999999999998
 40
0.9999999999999998
 10
81.96782917730951
 20
173.3363216293548
 30
0.0
 10
81.96523684453884
 20
173.2510974181679
 30
0.0
 10
81.95630104799297
 20
172.9573287243608
 30
0.0
 10
82.03259213273165
 20
172.4577083448901
 30
0.0
 10
82.19198442257301
 20
171.8515774209142
 30
0.0
 10
82.44341348456721
 20
171.2775365830623
 30
0.0
 10
82.69115691433183
 20
170.8421586328058
 30
0.0
 10
82.8774721878384
 20
170.6207515481976
 30
0.0
 10
82.92945652284169
 20
170.5589761508201
 30
0.0
  0
SPLINE
  5
119
330
1F
100
AcDbEntity
  8
0
  6
Continuous
 62
     7
370
    15
100
AcDbSpline
210
0.0
220
0.0
230
1.0
 70
     8
 71
     3
 72
    13
 73
     9
 74
     0
 42
0.0000000001
 43
0.0000000001
 40
0.0
 40
0.0
 40
0.0
 40
0.0
 40
0.0329669687742649
 40
0.243587933283215
 40
0.454218410544765
 40
0.6648560252503314
 40
0.8754923815138809
 40
1.0
 40
1.0
 40
1.0
 40
1.0
 10
99.00680781357431
 20
170.5792044771408
 30
0.0
 10
99.02824156851943
 20
170.6038153541464
 30
0.0
 10
99.18661233367323
 20
170.7856613924382
 30
0.0
 10
99.41603610110783
 20
171.1765943373274
 30
0.0
 10
99.68338942328919
 20
171.7426977161854
 30
0.0
 10
99.85893195699707
 20
172.3448221719257
 30
0.0
 10
99.9511348108988
 20
172.8801197686844
 30
0.0
 10
99.94797559629137
 20
173.2121726176174
 30
0.0
 10
99.94680193268203
 20
173.3355318678116
 30
0.0
  0
LINE
  5
11A
330
1F
100
AcDbEntity
  8
0
  6
Continuous
 62
     7
370
    15
100
AcDbLine
 10
81.95731640808725
 20
173.3815764559006
 30
0.0
 11
81.95731640808725
 21
173.3360012543892
 31
0.0
  0
LINE
  5
11B
330
1F
100
AcDbEntity
  8
0
  6
Continuous
 62
     7
370
    15
100
AcDbLine
 10
99.95731656454944
 20
173.3360012543892
 30
0.0
 11
99.95731656454944
 21
173.3815764559006
 31
0.0
  0
SPLINE
  5
11C
330
1F
100
AcDbEntity
  8
0
  6
Continuous
 62
     7
370
    15
100
AcDbSpline
210
0.0
220
0.0
230
1.0
 70
     8
 71
     3
 72
    12
 73
     8
 74
     0
 42
0.0000000001
 43
0.0000000001
 40
0.0
 40
0.0
 40
0.0
 40
0.0
 40
0.0996398759169539
 40
0.3435592443999251
 40
0.5874803705604722
 40
0.8314043716946192
 40
1.0
 40
1.0
 40
1.0
 40
1.0
 10
99.94680565797233
 20
173.3813603890632
 30
0.0
 10
99.94938317434552
 20
173.4665408471718
 30
0.0
 10
99.95827047543315
 20
173.7602438807826
 30
0.0
 10
99.88270537065259
 20
174.2603227820839
 30
0.0
 10
99.72021750046025
 20
174.8643490457174
 30
0.0
 10
99.50497553936189
 20
175.3863075188518
 30
0.0
 10
99.31524536493359
 20
175.683895260442
 30
0.0
 10
99.23770316891813
 20
175.8055185449814
 30
0.0
  0
SPLINE
  5
11D
330
1F
100
AcDbEntity
  8
0
  6
Continuous
 62
     7
370
    15
100
AcDbSpline
210
0.0
220
0.0
230
1.0
 70
     8
 71
     3
 72
    12
 73
     8
 74
     0
 42
0.0000000001
 43
0.0000000001
 40
0.0
 40
0.0
 40
0.0
 40
0.0
 40
0.1317641697273062
 40
0.3734692296239852
 40
0.6151797591481393
 40
0.8568890022959038
 40
1.0
 40
1.0
 40
1.0
 40
1.0
 10
82.69092758201503
 20
175.8244579208587
 30
0.0
 10
82.62763791372151
 20
175.7299511165744
 30
0.0
 10
82.4482511827942
 20
175.4620832776671
 30
0.0
 10
82.23450312732699
 20
174.9725851279699
 30
0.0
 10
82.0548132623043
 20
174.3733787189134
 30
0.0
 10
81.96359487182176
 20
173.8371710803448
 30
0.0
 10
81.96667659458482
 20
173.504975339969
 30
0.0
 10
81.96782265805149
 20
173.3814348948692
 30
0.0
  0
SPLINE
  5
11E
330
1F
100
AcDbEntity
  8
0
  6
Continuous
 62
     7
370
    15
100
AcDbSpline
210
0.0
220
0.0
230
1.0
 70
     8
 71
     3
 72
    12
 73
     8
 74
     0
 42
0.0000000001
 43
0.0000000001
 40
0.0
 40
0.0
 40
0.0
 40
0.0
 40
0.0988016889908819
 40
0.3405703816113914
 40
0.5823409510579804
 40
0.824111496869375
 40
1.0
 40
1.0
 40
1.0
 40
1.0
 10
81.96782917730951
 20
183.6286207211708
 30
0.0
 10
81.9652493840199
 20
183.5434051189886
 30
0.0
 10
81.95635681149321
 20
183.2496661105683
 30
0.0
 10
82.03195751087394
 20
182.7495717747458
 30
0.0
 10
82.1942976684517
 20
182.1454645463115
 30
0.0
 10
82.4129479631507
 20
181.6167474059306
 30
0.0
 10
82.6069628297917
 20
181.312890301761
 30
0.0
 10
82.68866819344902
 20
181.1849271429275
 30
0.0
  0
SPLINE
  5
11F
330
1F
100
AcDbEntity
  8
0
  6
Continuous
 62
     7
370
    15
100
AcDbSpline
210
0.0
220
0.0
230
1.0
 70
     8
 71
     3
 72
    12
 73
     8
 74
     0
 42
0.0000000001
 43
0.0000000001
 40
0.0
 40
0.0
 40
0.0
 40
0.0
 40
0.1229745798520209
 40
0.3671910472308337
 40
0.6114157901516598
 40
0.8556390739661505
 40
1.0
 40
1.0
 40
1.0
 40
1.0
 10
99.23772738330507
 20
181.2073384893631
 30
0.0
 10
99.29609345296034
 20
181.2946884305834
 30
0.0
 10
99.47036929326211
 20
181.5555075074271
 30
0.0
 10
99.67996304107641
 20
182.0373928632328
 30
0.0
 10
99.85986159317427
 20
182.6364711729207
 30
0.0
 10
99.95100920195156
 20
183.1725066983294
 30
0.0
 10
99.94794157210629
 20
183.5044955024085
 30
0.0
 10
99.94680193268203
 20
183.6278309596275
 30
0.0
  0
LINE
  5
120
330
1F
100
AcDbEntity
  8
0
  6
Continuous
 62
     7
370
    15
100
AcDbLine
 10
81.95731640808725
 20
185.1458942068313
 30
0.0
 11
81.95731640808725
 21
183.6283003462051
 31
0.0
  0
LINE
  5
121
330
1F
100
AcDbEntity
  8
0
  6
Continuous
 62
     7
370
    15
100
AcDbLine
 10
99.95731656454944
 20
183.6283003462051
 30
0.0
 11
99.95731656454944
 21
185.1458942068313
 31
0.0
  0
SPLINE
  5
122
330
1F
100
AcDbEntity
  8
0
  6
Continuous
 62
     7
370
    15
100
AcDbSpline
210
0.0
220
0.0
230
1.0
 70
     8
 71
     3
 72
    11
 73
     7
 74
     0
 42
0.0000000001
 43
0.0000000001
 40
0.0
 40
0.0
 40
0.0
 40
0.0
 40
0.1918556973819575
 40
0.4842578666134951
 40
0.776658771783373
 40
1.0
 40
1.0
 40
1.0
 40
1.0
 10
99.94750321858072
 20
185.1462965381836
 30
0.0
 10
99.94781770276475
 20
185.2906609009893
 30
0.0
 10
99.94861148393527
 20
185.6550471522256
 30
0.0
 10
99.8487380105986
 20
186.2326202534468
 30
0.0
 10
99.68724836725003
 20
186.8204692264811
 30
0.0
 10
99.521396981626
 20
187.1714007902657
 30
0.0
 10
99.44957532935285
 20
187.3233710897659
 30
0.0
  0
SPLINE
  5
123
330
1F
100
AcDbEntity
  8
0
  6
Continuous
 62
     7
370
    15
100
AcDbSpline
210
0.0
220
0.0
230
1.0
 70
     8
 71
     3
 72
    12
 73
     8
 74
     0
 42
0.0000000001
 43
0.0000000001
 40
0.0
 40
0.0
 40
0.0
 40
0.0
 40
0.0299583799102968
 40
0.3201325135155686
 40
0.6103089278278709
 40
0.9004856608804608
 40
1.0
 40
1.0
 40
1.0
 40
1.0
 10
82.46882577442073
 20
187.3398443234657
 30
0.0
 10
82.45770015046325
 20
187.3200702524528
 30
0.0
 10
82.33881274825371
 20
187.1087663343255
 30
0.0
 10
82.18436779998832
 20
186.6687768775406
 30
0.0
 10
82.02366673033315
 20
186.0305456584724
 30
0.0
 10
81.95407362656444
 20
185.5164937514222
 30
0.0
 10
81.96446348573193
 20
185.2214419427576
 30
0.0
 10
81.96711671553993
 20
185.1460953725075
 30
0.0
  0
SPLINE
  5
124
330
1F
100
AcDbEntity
  8
0
  6
Continuous
 62
     7
370
    15
100
AcDbSpline
210
0.0
220
0.0
230
1.0
 70
     8
 71
     3
 72
    11
 73
     7
 74
     0
 42
0.0000000001
 43
0.0000000001
 40
0.0
 40
0.0
 40
0.0
 40
0.0
 40
0.1906500693074468
 40
0.4812666655751414
 40
0.7718882313267903
 40
1.0
 40
1.0
 40
1.0
 40
1.0
 10
81.96713068537855
 20
193.8630139005874
 30
0.0
 10
81.96681936416382
 20
193.7186780481831
 30
0.0
 10
81.966033481822
 20
193.3543244727457
 30
0.0
 10
82.0658288892409
 20
192.776748674591
 30
0.0
 10
82.22884818279052
 20
192.1845272858257
 30
0.0
 10
82.39682093334639
 20
191.8294483114965
 30
0.0
 10
82.47068655692482
 20
191.6733031643127
 30
0.0
  0
SPLINE
  5
125
330
1F
100
AcDbEntity
  8
0
  6
Continuous
 62
     7
370
    15
100
AcDbSpline
210
0.0
220
0.0
230
1.0
 70
     8
 71
     3
 72
    12
 73
     8
 74
     0
 42
0.0000000001
 43
0.0000000001
 40
0.0
 40
0.0
 40
0.0
 40
0.0
 40
0.0218462194986662
 40
0.3143203874298885
 40
0.6067968541459222
 40
0.8992736376975905
 40
1.0
 40
1.0
 40
1.0
 40
1.0
 10
99.45494347267294
 20
191.6860064042305
 30
0.0
 10
99.46297243406434
 20
191.700323054281
 30
0.0
 10
99.57849202111935
 20
191.90630903693
 30
0.0
 10
99.73000747156596
 20
192.3407538220863
 30
0.0
 10
99.89104441158394
 20
192.97881804705
 30
0.0
 10
99.96057208068702
 20
193.4932263841133
 30
0.0
 10
99.95016240238321
 20
193.7885941525596
 30
0.0
 10
99.94749576800012
 20
193.8642581475471
 30
0.0
  0
LINE
  5
126
330
1F
100
AcDbEntity
  8
0
  6
Continuous
 62
     7
370
    15
100
AcDbLine
 10
81.95731640808725
 20
194.5045908463692
 30
0.0
 11
81.95731640808725
 21
193.8635056389068
 31
0.0
  0
LINE
  5
127
330
1F
100
AcDbEntity
  8
0
  6
Continuous
 62
     7
370
    15
100
AcDbLine
 10
99.95731656454944
 20
193.8635056389068
 30
0.0
 11
99.95731656454944
 21
194.5045908463692
 31
0.0
  0
LINE
  5
128
330
1F
100
AcDbEntity
  8
0
  6
Continuous
 62
     7
370
    15
100
AcDbLine
 10
82.56026302479648
 20
159.1030975354408
 30
0.0
 11
84.6269898211255
 21
155.5235294175838
 31
0.0
  0
LINE
  5
129
330
1F
100
AcDbEntity
  8
0
  6
Continuous
 62
     7
370
    15
100
AcDbLine
 10
97.2876426858499
 20
155.5235294175838
 30
0.0
 11
99.35436994784021
 21
159.1030975354408
 31
0.0
  0
SPLINE
  5
12A
330
1F
100
AcDbEntity
  8
0
  6
Continuous
 62
     7
370
    15
100
AcDbSpline
210
0.0
220
0.0
230
1.0
 70
     8
 71
     3
 72
    15
 73
    11
 74
     0
 42
0.0000000001
 43
0.0000000001
 40
0.0
 40
0.0
 40
0.0
 40
0.0
 40
0.0082710390994145
 40
0.1545339301301599
 40
0.3008086811989489
 40
0.4470886071200465
 40
0.5933698004835016
 40
0.7396513101061184
 40
0.8859337514916301
 40
1.0
 40
1.0
 40
1.0
 40
1.0
 10
99.45869577132606
 20
187.3278563392853
 30
0.0
 10
99.4526050085588
 20
187.3386839014602
 30
0.0
 10
99.33880679087367
 20
187.5409832397314
 30
0.0
 10
99.18925910259297
 20
187.9714625501915
 30
0.0
 10
99.02183317007541
 20
188.6090511678687
 30
0.0
 10
98.9489440624655
 20
189.2667369003711
 30
0.0
 10
98.96013363372459
 20
189.9276564176966
 30
0.0
 10
99.06126166255065
 20
190.5803901927076
 30
0.0
 10
99.22512908190121
 20
191.1718070050196
 30
0.0
 10
99.39149342411024
 20
191.5261994697447
 30
0.0
 10
99.46438242696666
 20
191.681469000647
 30
0.0
  0
SPLINE
  5
12B
330
1F
100
AcDbEntity
  8
0
  6
Continuous
 62
     7
370
    15
100
AcDbSpline
210
0.0
220
0.0
230
1.0
 70
     8
 71
     3
 72
    15
 73
    11
 74
     0
 42
0.0000000001
 43
0.0000000001
 40
0.0
 40
0.0
 40
0.0
 40
0.0
 40
0.004567021743906
 40
0.1518925284124405
 40
0.2992299812834708
 40
0.446572658386157
 40
0.5939166022766143
 40
0.7412608316191412
 40
0.8886060808905522
 40
1.0
 40
1.0
 40
1.0
 40
1.0
 10
82.46414494716072
 20
191.6668435109352
 30
0.0
 10
82.46747508696705
 20
191.6609035079471
 30
0.0
 10
82.57823071361308
 20
191.463347611954
 30
0.0
 10
82.72512405672797
 20
191.0378109022928
 30
0.0
 10
82.89286669650197
 20
190.4003819829579
 30
0.0
 10
82.96566559825633
 20
189.7426560212315
 30
0.0
 10
82.95452289515523
 20
189.0817379535717
 30
0.0
 10
82.853294819945
 20
188.4290387141003
 30
0.0
 10
82.69115766857394
 20
187.8425480820355
 30
0.0
 10
82.5271605921057
 20
187.4928289248588
 30
0.0
 10
82.45655559950018
 20
187.3422657621597
 30
0.0
  0
SPLINE
  5
12C
330
1F
100
AcDbEntity
  8
0
  6
Continuous
 62
     7
370
    15
100
AcDbSpline
210
0.0
220
0.0
230
1.0
 70
     8
 71
     3
 72
    17
 73
    13
 74
     0
 42
0.0000000001
 43
0.0000000001
 40
0.0
 40
0.0
 40
0.0
 40
0.0
 40
0.0449093165253633
 40
0.1607284078168742
 40
0.2765633604104451
 40
0.3924037418569272
 40
0.5082456923307395
 40
0.6240893530324554
 40
0.7399337320938613
 40
0.8557772650580876
 40
0.971621499019122
 40
0.9999999999999998
 40
0.9999999999999998
 40
0.9999999999999998
 40
0.9999999999999998
 10
99.25423041932726
 20
175.8160536659454
 30
0.0
 10
99.20610268846537
 20
175.8863900295269
 30
0.0
 10
99.03385572164943
 20
176.1381206859865
 30
0.0
 10
98.81490400612578
 20
176.6183728834239
 30
0.0
 10
98.60319582765933
 20
177.2433581885515
 30
0.0
 10
98.48047534811497
 20
177.8933190181537
 30
0.0
 10
98.44289741399704
 20
178.5532007471139
 30
0.0
 10
98.4932216638292
 20
179.2121858506806
 30
0.0
 10
98.62816767800774
 20
179.8598655734508
 30
0.0
 10
98.85290808409003
 20
180.4800781156372
 30
0.0
 10
99.06463822562791
 20
180.9294246733887
 30
0.0
 10
99.22246611509763
 20
181.1529477187841
 30
0.0
 10
99.25352168284797
 20
181.1969300282692
 30
0.0
  0
SPLINE
  5
12D
330
1F
100
AcDbEntity
  8
0
  6
Continuous
 62
     7
370
    15
100
AcDbSpline
210
0.0
220
0.0
230
1.0
 70
     8
 71
     3
 72
    17
 73
    13
 74
     0
 42
0.0000000001
 43
0.0000000001
 40
0.0
 40
0.0
 40
0.0
 40
0.0
 40
0.0410135313478818
 40
0.1578945966013924
 40
0.274791658507317
 40
0.3916941576003944
 40
0.5085982610448918
 40
0.6255040794168298
 40
0.7424106282327286
 40
0.8593163506865078
 40
0.9762226780841684
 40
1.0
 40
1.0
 40
1.0
 40
1.0
 10
82.67379124664211
 20
181.1735650075172
 30
0.0
 10
82.71727275106469
 20
181.1098700171015
 30
0.0
 10
82.88466859274896
 20
180.8646559502633
 30
0.0
 10
83.09953888847612
 20
180.3913887857556
 30
0.0
 10
83.31148855288066
 20
179.7665493944625
 30
0.0
 10
83.43414195403035
 20
179.1165503120674
 30
0.0
 10
83.47174405494209
 20
178.4566749843195
 30
0.0
 10
83.4213902029286
 20
177.7977028011949
 30
0.0
 10
83.28653840881116
 20
177.1499647982905
 30
0.0
 10
83.06145071028169
 20
176.5299723802878
 30
0.0
 10
82.85459185204047
 20
176.0883461240817
 30
0.0
 10
82.70238386934316
 20
175.8720682821695
 30
0.0
 10
82.67665878884935
 20
175.8355145824646
 30
0.0
  0
SPLINE
  5
12E
330
1F
100
AcDbEntity
  8
0
  6
Continuous
 62
     7
370
    15
100
AcDbSpline
210
0.0
220
0.0
230
1.0
 70
     8
 71
     3
 72
    18
 73
    14
 74
     0
 42
0.0000000001
 43
0.0000000001
 40
0.0
 40
0.0
 40
0.0
 40
0.0
 40
0.0524578165109184
 40
0.1522509286378137
 40
0.2520661437325608
 40
0.351889445705746
 40
0.4517154207236775
 40
0.5515424033882191
 40
0.6513698434222543
 40
0.7511985328550058
 40
0.8510262558093508
 40
0.9508534850383155
 40
0.9999999999999998
 40
0.9999999999999998
 40
0.9999999999999998
 40
0.9999999999999998
 10
99.0167655145421
 20
164.4453202856277
 30
0.0
 10
98.94442842935823
 20
164.535412974863
 30
0.0
 10
98.73448091101455
 20
164.79689346551
 30
0.0
 10
98.46414801800079
 20
165.2849110598669
 30
0.0
 10
98.2082277792351
 20
165.8932846880509
 30
0.0
 10
98.03823280983458
 20
166.5324267231316
 30
0.0
 10
97.95281510068747
 20
167.1877807416822
 30
0.0
 10
97.95455099967746
 20
167.8489099451962
 30
0.0
 10
98.04343245491585
 20
168.5038118231122
 30
0.0
 10
98.21675613159758
 20
169.1421235867776
 30
0.0
 10
98.47610167333677
 20
169.749118530428
 30
0.0
 10
98.74495739876975
 20
170.2297749857545
 30
0.0
 10
98.95155472385754
 20
170.4846634702172
 30
0.0
 10
99.01971128784561
 20
170.5687513125633
 30
0.0
  0
SPLINE
  5
12F
330
1F
100
AcDbEntity
  8
0
  6
Continuous
 62
     7
370
    15
100
AcDbSpline
210
0.0
220
0.0
230
1.0
 70
     8
 71
     3
 72
    18
 73
    14
 74
     0
 42
0.0000000001
 43
0.0000000001
 40
0.0
 40
0.0
 40
0.0
 40
0.0
 40
0.0492928835306167
 40
0.1498760425360387
 40
0.2504819358704684
 40
0.3510959849833777
 40
0.4517127188819308
 40
0.5523310460450649
 40
0.6529492611576613
 40
0.7535681822639918
 40
0.8541872118270951
 40
0.9548047180134087
 40
1.0
 40
1.0
 40
1.0
 40
1.0
 10
82.91218654267931
 20
170.5464666259979
 30
0.0
 10
82.97955075532597
 20
170.4624217981041
 30
0.0
 10
83.18437305170807
 20
170.2068817424584
 30
0.0
 10
83.45034458018842
 20
169.7253490138763
 30
0.0
 10
83.70644227076329
 20
169.117103398583
 30
0.0
 10
83.8763898646512
 20
168.4779271591649
 30
0.0
 10
83.96181932913883
 20
167.8225817724132
 30
0.0
 10
83.96008420983024
 20
167.1614458287
 30
0.0
 10
83.87118808076385
 20
166.5065561493432
 30
0.0
 10
83.69792278770411
 20
165.868200902422
 30
0.0
 10
83.43835292456628
 20
165.2613703947313
 30
0.0
 10
83.17484352217119
 20
164.7885328272055
 30
0.0
 10
82.97449958344534
 20
164.5408110818951
 30
0.0
 10
82.91240214385533
 20
164.4640286935066
 30
0.0
  0
SPLINE
  5
130
330
1F
100
AcDbEntity
  8
0
  6
Continuous
 62
     7
370
    15
100
AcDbSpline
210
0.0
220
0.0
230
1.0
 70
     8
 71
     3
 72
    10
 73
     6
 74
     0
 42
0.0000000001
 43
0.0000000001
 40
0.0
 40
0.0
 40
0.0
 40
0.0
 40
0.0877814841702698
 40
0.4066325736950587
 40
1.0
 40
1.0
 40
1.0
 40
1.0
 10
84.686040328969
 20
155.5167195869182
 30
0.0
 10
84.700970038632
 20
155.5152018065854
 30
0.0
 10
84.77012934166923
 20
155.5081709511734
 30
0.0
 10
84.85901863414838
 20
155.5039099885582
 30
0.0
 10
84.92674161739598
 20
155.5019001424376
 30
0.0
 10
84.97079313748026
 20
155.5005928052162
 30
0.0
  0
SPLINE
  5
131
330
1F
100
AcDbEntity
  8
0
  6
Continuous
 62
     7
370
    15
100
AcDbSpline
210
0.0
220
0.0
230
1.0
 70
     8
 71
     3
 72
    11
 73
     7
 74
     0
 42
0.0000000001
 43
0.0000000001
 40
0.0
 40
0.0
 40
0.0
 40
0.0
 40
0.0631467419454368
 40
0.624863151696384
 40
0.9264569988578115
 40
0.9999999999999998
 40
0.9999999999999998
 40
0.9999999999999998
 40
0.9999999999999998
 10
96.94654812120342
 20
155.4995348227714
 30
0.0
 10
96.95144208154893
 20
155.4996747972945
 30
0.0
 10
96.99986984506551
 20
155.5010599031438
 30
0.0
 10
97.068757815783
 20
155.5048862076214
 30
0.0
 10
97.1628294672247
 20
155.5094345258557
 30
0.0
 10
97.23217598107119
 20
155.5169177558638
 30
0.0
 10
97.24577088855648
 20
155.5183847916817
 30
0.0
  0
LWPOLYLINE
  5
132
330
1F
100
AcDbEntity
  8
0
  6
Continuous
 62
     7
370
    15
100
AcDbPolyline
 90
       15
 70
   128
 43
0.0
 10
90.95731626803962
 20
155.5654985380863
 10
90.16391021214866
 20
155.56517071254
 10
89.3830166060149
 20
155.5641872359012
 10
88.62695066273653
 20
155.5625630093311
 10
87.90763598882103
 20
155.560327835152
 10
87.23641667530381
 20
155.5575152409767
 10
86.62387813456797
 20
155.5541662049984
 10
86.07968027718806
 20
155.5503403318619
 10
85.61240593918109
 20
155.5460935009216
 10
85.22942374475741
 20
155.5414890421127
 10
84.93677425213599
 20
155.5366089118217
 10
84.73907216467404
 20
155.5315238905643
 10
84.63943508469009
 20
155.5263122094368
 10
84.63943508469009
 20
155.5210632754062
 10
84.64262393318557
 20
155.5207466257309
  0
LWPOLYLINE
  5
133
330
1F
100
AcDbEntity
  8
0
  6
Continuous
 62
     7
370
    15
100
AcDbPolyline
 90
       15
 70
   128
 43
0.0
 10
97.27352616392517
 20
155.5208919120525
 10
97.27519742228531
 20
155.5210632754062
 10
97.27519742228531
 20
155.5263122094368
 10
97.17556080796265
 20
155.5315238905643
 10
96.97785825483942
 20
155.5366089118217
 10
96.685208762218
 20
155.5414890421127
 10
96.30222656779432
 20
155.5460935009216
 10
95.83495222978735
 20
155.5503403318619
 10
95.29075437240743
 20
155.5541662049984
 10
94.67821606450224
 20
155.5575152409767
 10
94.00699651815438
 20
155.560327835152
 10
93.28768184423887
 20
155.5625630093311
 10
92.5316159009605
 20
155.5641872359012
 10
91.75072229482674
 20
155.56517071254
 10
90.95731626803962
 20
155.5654985380863
  0
SPLINE
  5
134
330
1F
100
AcDbEntity
  8
0
  6
Continuous
 62
     7
370
    15
100
AcDbSpline
210
0.0
220
0.0
230
1.0
 70
     8
 71
     3
 72
    15
 73
    11
 74
     0
 42
0.0000000001
 43
0.0000000001
 40
0.0
 40
0.0
 40
0.0
 40
0.0
 40
0.1333472079761174
 40
0.2746818698235569
 40
0.3484136251846466
 40
0.4220813657578914
 40
0.5724159174539483
 40
0.7227504260417458
 40
0.8699608555991876
 40
1.0
 40
1.0
 40
1.0
 40
1.0
 10
90.95731626803962
 20
155.5450727713798
 30
0.0
 10
91.32323499121904
 20
155.5449438661187
 30
0.0
 10
92.07699084866733
 20
155.5446783342139
 30
0.0
 10
93.00090028068099
 20
155.5428539712747
 30
0.0
 10
93.7221550970244
 20
155.54068925348
 30
0.0
 10
94.42762524187306
 20
155.5379704951589
 30
0.0
 10
95.23130268731419
 20
155.5336644151554
 30
0.0
 10
96.00609944999524
 20
155.5273227681435
 30
0.0
 10
96.5644416258522
 20
155.5204213569967
 30
0.0
 10
96.74622407818706
 20
155.5155329765537
 30
0.0
 10
96.8314860110774
 20
155.5132401657795
 30
0.0
  0
SPLINE
  5
135
330
1F
100
AcDbEntity
  8
0
  6
Continuous
 62
     7
370
    15
100
AcDbSpline
210
0.0
220
0.0
230
1.0
 70
     8
 71
     3
 72
    14
 73
    10
 74
     0
 42
0.0000000001
 43
0.0000000001
 40
0.0
 40
0.0
 40
0.0
 40
0.0
 40
0.1710481024896585
 40
0.2602808531723059
 40
0.3494360017101542
 40
0.5313760240822761
 40
0.7133160986255046
 40
0.8914753234627987
 40
1.0
 40
1.0
 40
1.0
 40
1.0
 10
96.85714860462093
 20
155.498230971167
 30
0.0
 10
96.76597634698238
 20
155.4957367504679
 30
0.0
 10
96.62724114525603
 20
155.4919413392235
 30
0.0
 10
96.29305700773812
 20
155.4871772128151
 30
0.0
 10
95.88227670095237
 20
155.4825203484448
 30
0.0
 10
95.23040078574057
 20
155.4772060734844
 30
0.0
 10
94.26905793032698
 20
155.4721091498959
 30
0.0
 10
93.32690258151131
 20
155.4687008635253
 30
0.0
 10
92.69610555104428
 20
155.4676467632134
 30
0.0
 10
92.45731626652622
 20
155.4672477317547
 30
0.0
  0
SPLINE
  5
136
330
1F
100
AcDbEntity
  8
0
  6
Continuous
 62
     7
370
    15
100
AcDbSpline
210
0.0
220
0.0
230
1.0
 70
     8
 71
     3
 72
    13
 73
     9
 74
     0
 42
0.0000000001
 43
0.0000000001
 40
0.0
 40
0.0
 40
0.0
 40
0.0
 40
0.0498560277289555
 40
0.1554479303786413
 40
0.3709304634935429
 40
0.5864129348190767
 40
0.7974174596615548
 40
1.0
 40
1.0
 40
1.0
 40
1.0
 10
88.45731630936706
 20
155.4694680047725
 30
0.0
 10
88.36997319440943
 20
155.4697224276266
 30
0.0
 10
88.09764290514527
 20
155.4705157019389
 30
0.0
 10
87.48888518549104
 20
155.4729367708451
 30
0.0
 10
86.68284348953601
 20
155.4772100534331
 30
0.0
 10
85.90811580641025
 20
155.4835605586817
 30
0.0
 10
85.33749987451328
 20
155.4906480660652
 30
0.0
 10
85.14954677995689
 20
155.4957378845802
 30
0.0
 10
85.05748390235448
 20
155.498230971167
 30
0.0
  0
SPLINE
  5
137
330
1F
100
AcDbEntity
  8
0
  6
Continuous
 62
     7
370
    15
100
AcDbSpline
210
0.0
220
0.0
230
1.0
 70
     8
 71
     3
 72
    15
 73
    11
 74
     0
 42
0.0000000001
 43
0.0000000001
 40
0.0
 40
0.0
 40
0.0
 40
0.0
 40
0.1291810730848597
 40
0.2029855555612715
 40
0.2767258767164246
 40
0.4272086688010625
 40
0.5776915040364795
 40
0.725047219501997
 40
0.8665212605416547
 40
1.0
 40
1.0
 40
1.0
 40
1.0
 10
85.08538586102867
 20
155.5132923198437
 30
0.0
 10
85.1690516439076
 20
155.5155690050981
 30
0.0
 10
85.30051784877484
 20
155.5191464194219
 30
0.0
 10
85.62180084543452
 20
155.5237045655978
 30
0.0
 10
86.03217376764616
 20
155.5283639934929
 30
0.0
 10
86.68472949909496
 20
155.5336638675914
 30
0.0
 10
87.64391980315371
 20
155.5388186377503
 30
0.0
 10
88.7193158057126
 20
155.5424745723865
 30
0.0
 10
89.83754267816516
 20
155.5446771059487
 30
0.0
 10
90.59136516007624
 20
155.544943464702
 30
0.0
 10
90.95731626803962
 20
155.5450727713798
 30
0.0
  0
LINE
  5
138
330
1F
100
AcDbEntity
  8
0
  6
Continuous
 62
     7
370
    15
100
AcDbLine
 10
88.45731630936706
 20
155.5384678316807
 30
0.0
 11
93.45731619760835
 21
155.5384678316807
 31
0.0
  0
LINE
  5
139
330
1F
100
AcDbEntity
  8
0
  6
Continuous
 62
     7
370
    15
100
AcDbLine
 10
93.45731619760835
 20
155.4724147093986
 30
0.0
 11
92.45731626652622
 21
155.4724147093986
 31
0.0
  0
LINE
  5
13A
330
1F
100
AcDbEntity
  8
0
  6
Continuous
 62
     7
370
    15
100
AcDbLine
 10
93.45731619760835
 20
155.5384678316807
 30
0.0
 11
93.45731619760835
 21
155.4724147093986
 31
0.0
  0
LINE
  5
13B
330
1F
100
AcDbEntity
  8
0
  6
Continuous
 62
     7
370
    15
100
AcDbLine
 10
95.72023657165908
 20
130.5043866408561
 30
0.0
 11
90.72023668341781
 21
127.617634974191
 31
0.0
  0
LINE
  5
13C
330
1F
100
AcDbEntity
  8
0
  6
Continuous
 62
     7
370
    15
100
AcDbLine
 10
85.7202367951765
 20
130.5043866408561
 30
0.0
 11
85.7202367951765
 21
136.2778899741863
 31
0.0
  0
LINE
  5
13D
330
1F
100
AcDbEntity
  8
0
  6
Continuous
 62
     7
370
    15
100
AcDbLine
 10
85.7202367951765
 20
136.2778899741863
 30
0.0
 11
90.72023668341781
 21
139.1646397782062
 31
0.0
  0
LINE
  5
13E
330
1F
100
AcDbEntity
  8
0
  6
Continuous
 62
     7
370
    15
100
AcDbLine
 10
90.72023668341781
 20
139.1646397782062
 30
0.0
 11
95.72023657165908
 21
136.2778899741863
 31
0.0
  0
LINE
  5
13F
330
1F
100
AcDbEntity
  8
0
  6
Continuous
 62
     7
370
    15
100
AcDbLine
 10
95.72023657165908
 20
136.2778899741863
 30
0.0
 11
95.72023657165908
 21
130.5043866408561
 31
0.0
  0
LINE
  5
140
330
1F
100
AcDbEntity
  8
0
  6
Continuous
 62
     7
370
    15
100
AcDbLine
 10
90.72023668341781
 20
127.617634974191
 30
0.0
 11
85.7202367951765
 21
130.5043866408561
 31
0.0
  0
LINE
  5
141
330
1F
100
AcDbEntity
  8
0
  6
Continuous
 62
     7
370
    15
100
AcDbLine
 10
97.00600235738301
 20
138.1916461063122
 30
0.0
 11
97.19439587571168
 21
138.1916461063122
 31
0.0
  0
LWPOLYLINE
  5
142
330
1F
100
AcDbEntity
  8
0
  6
Continuous
 62
     7
370
    15
100
AcDbPolyline
 90
        3
 70
   128
 43
0.0
 10
99.28430096261644
 20
144.4661935342048
 10
99.17671271615171
 20
144.6013247144913
 10
99.04359691791677
 20
144.7453146351074
  0
LINE
  5
143
330
1F
100
AcDbEntity
  8
0
  6
Continuous
 62
     7
370
    15
100
AcDbLine
 10
91.1895493081908
 20
149.77082437999
 30
0.0
 11
93.94598743893647
 21
147.0144485605453
 31
0.0
  0
LINE
  5
144
330
1F
100
AcDbEntity
  8
0
  6
Continuous
 62
     7
370
    15
100
AcDbLine
 10
93.85981821470403
 20
147.034565128157
 30
0.0
 11
91.1895493081908
 21
149.7047749829983
 31
0.0
  0
LINE
  5
145
330
1F
100
AcDbEntity
  8
0
  6
Continuous
 62
     7
370
    15
100
AcDbLine
 10
99.04359691791677
 20
144.7453146351074
 30
0.0
 11
92.60376289967888
 21
151.1850079072212
 31
0.0
  0
ARC
  5
146
330
1F
100
AcDbEntity
  8
0
  6
Continuous
 62
     7
370
    15
100
AcDbCircle
 10
92.9572430950759
 20
151.5385610296053
 30
0.0
 40
2.499926836246479
100
AcDbArc
 50
180.000187291608
 51
225.0006946406061
  0
LINE
  5
147
330
1F
100
AcDbEntity
  8
0
  6
Continuous
 62
     7
370
    15
100
AcDbLine
 10
90.45731625884281
 20
155.5384678316807
 30
0.0
 11
90.45731625884281
 21
151.5385528577064
 31
0.0
  0
LINE
  5
148
330
1F
100
AcDbEntity
  8
0
  6
Continuous
 62
     7
370
    15
100
AcDbLine
 10
92.45731626652622
 20
151.5385528577064
 30
0.0
 11
92.45731626652622
 21
155.5384678316807
 31
0.0
  0
ARC
  5
149
330
1F
100
AcDbEntity
  8
0
  6
Continuous
 62
     7
370
    15
100
AcDbCircle
 10
92.9573091650981
 20
151.5385583800832
 30
0.0
 40
0.4999928986023935
100
AcDbArc
 50
180.000632826752
 51
225.0003409274867
  0
ARC
  5
14A
330
1F
100
AcDbEntity
  8
0
  6
Continuous
 62
     7
370
    15
100
AcDbCircle
 10
92.95723189471592
 20
151.4725069931715
 30
0.0
 40
2.499915635875604
100
AcDbArc
 50
180.0000809606796
 51
225.0008009715331
  0
ARC
  5
14B
330
1F
100
AcDbEntity
  8
0
  6
Continuous
 62
     7
370
    15
100
AcDbCircle
 10
83.63876637504993
 20
142.9775542553993
 30
0.0
 40
2.499970223351126
100
AcDbArc
 50
134.9995306103848
 51
163.161921533384
  0
LINE
  5
14C
330
1F
100
AcDbEntity
  8
0
  6
Continuous
 62
     7
370
    15
100
AcDbLine
 10
86.87215313330733
 20
146.8519066942428
 30
0.0
 11
89.72508323859864
 21
149.7047749829983
 31
0.0
  0
LINE
  5
14D
330
1F
100
AcDbEntity
  8
0
  6
Continuous
 62
     7
370
    15
100
AcDbLine
 10
89.72508323859864
 20
149.77082437999
 30
0.0
 11
86.77917058594966
 21
146.8249765706753
 31
0.0
  0
LINE
  5
14E
330
1F
100
AcDbEntity
  8
0
  6
Continuous
 62
     7
370
    15
100
AcDbLine
 10
88.45731630936706
 20
151.5385528577064
 30
0.0
 11
88.45731630936706
 21
155.5384678316807
 31
0.0
  0
ARC
  5
14F
330
1F
100
AcDbEntity
  8
0
  6
Continuous
 62
     7
370
    15
100
AcDbCircle
 10
87.95738976905019
 20
151.5385608569985
 30
0.0
 40
2.499926489805426
100
AcDbArc
 50
314.9993030137823
 51
359.9998166643398
  0
LINE
  5
150
330
1F
100
AcDbEntity
  8
0
  6
Continuous
 62
     7
370
    15
100
AcDbLine
 10
81.87103495948457
 20
144.7453146351074
 30
0.0
 11
88.31086955979907
 21
151.1850079072212
 31
0.0
  0
ARC
  5
151
330
1F
100
AcDbEntity
  8
0
  6
Continuous
 62
     7
370
    15
100
AcDbCircle
 10
87.95732477055379
 20
151.5385579332544
 30
0.0
 40
0.4999915388390254
100
AcDbArc
 50
314.9995756639089
 51
359.9994183751948
  0
ARC
  5
152
330
1F
100
AcDbEntity
  8
0
  6
Continuous
 62
     7
370
    15
100
AcDbCircle
 10
87.95740096940733
 20
151.4725068205661
 30
0.0
 40
2.499915289437735
100
AcDbArc
 50
314.9991966828531
 51
359.9999229952681
  0
CIRCLE
  5
153
330
1F
100
AcDbEntity
  8
0
  6
Continuous
 62
     7
370
    15
100
AcDbCircle
 10
90.72023668341779
 20
133.391139305899
 30
0.0
 40
6.450000000000002
  0
LINE
  5
154
330
1F
100
AcDbEntity
  8
0
  6
Continuous
 62
     7
370
    15
100
AcDbLine
 10
95.73023664780402
 20
133.3911401701664
 30
0.0
 11
95.72023657165908
 21
133.0747531277632
 31
0.0
  0
LINE
  5
155
330
1F
100
AcDbEntity
  8
0
  6
Continuous
 62
     7
370
    15
100
AcDbLine
 10
93.4942193889662
 20
129.2191950154995
 30
0.0
 11
92.94755049996519
 21
128.9034710747694
 31
0.0
  0
LWPOLYLINE
  5
156
330
1F
100
AcDbEntity
  8
0
  6
Continuous
 62
     7
370
    15
100
AcDbPolyline
 90
        3
 70
   128
 43
0.0
 10
88.49421833657169
 20
128.9028284621929
 10
88.21523670122468
 20
129.0523523015474
 10
87.94887052864277
 20
129.2174571675752
  0
LINE
  5
157
330
1F
100
AcDbEntity
  8
0
  6
Continuous
 62
     7
370
    15
100
AcDbLine
 10
85.7202367951765
 20
133.0747531277632
 30
0.0
 11
85.7202367951765
 21
133.7075253499244
 31
0.0
  0
LINE
  5
158
330
1F
100
AcDbEntity
  8
0
  6
Continuous
 62
     7
370
    15
100
AcDbLine
 10
95.72023657165908
 20
133.7075253499244
 30
0.0
 11
95.73023664780402
 21
133.3911401701664
 31
0.0
  0
CIRCLE
  5
159
330
1F
100
AcDbEntity
  8
0
  6
Continuous
 62
     7
370
    15
100
AcDbCircle
 10
90.72023668341779
 20
133.391139305899
 30
0.0
 40
7.950000000000002
  0
ARC
  5
15A
330
1F
100
AcDbEntity
  8
0
  6
Continuous
 62
     7
370
    15
100
AcDbCircle
 10
90.72023668341779
 20
133.391139305899
 30
0.0
 40
14.0
100
AcDbArc
 50
48.5000000000001
 51
131.4999999999999
  0
LINE
  5
15B
330
1F
100
AcDbEntity
  8
0
  6
Continuous
 62
     7
370
    15
100
AcDbLine
 10
111.0333375727429
 20
134.1123209816908
 30
0.0
 11
99.99691733174467
 21
143.8765210581516
 31
0.0
  0
ARC
  5
15C
330
1F
100
AcDbEntity
  8
0
  6
Continuous
 62
     7
370
    15
100
AcDbCircle
 10
107.7202366834177
 20
130.3675415726687
 30
0.0
 40
5.0
100
AcDbArc
 50
0.0
 51
48.49999999999999
  0
LINE
  5
15D
330
1F
100
AcDbEntity
  8
0
  6
Continuous
 62
     7
370
    15
100
AcDbLine
 10
112.7202365642085
 20
130.3675418270324
 30
0.0
 11
112.7202365642085
 21
112.3911395219658
 31
0.0
  0
LINE
  5
15E
330
1F
100
AcDbEntity
  8
0
  6
Continuous
 62
     7
370
    15
100
AcDbLine
 10
68.72023680262708
 20
130.3675418270324
 30
0.0
 11
68.72023680262708
 21
112.3911395219658
 31
0.0
  0
ARC
  5
15F
330
1F
100
AcDbEntity
  8
0
  6
Continuous
 62
     7
370
    15
100
AcDbCircle
 10
73.72023668341779
 20
130.3675415726687
 30
0.0
 40
5.0
100
AcDbArc
 50
131.4999999999998
 51
180.0000000000011
  0
LINE
  5
160
330
1F
100
AcDbEntity
  8
0
  6
Continuous
 62
     7
370
    15
100
AcDbLine
 10
81.44355603509092
 20
143.8765210581516
 30
0.0
 11
70.40713579409265
 21
134.1123209816908
 31
0.0
  0
CIRCLE
  5
161
330
1F
100
AcDbEntity
  8
0
  6
Continuous
 62
     7
370
    15
100
AcDbCircle
 10
90.72023668341779
 20
133.391139305899
 30
0.0
 40
8.150000000000019
  0
LINE
  5
162
330
1F
100
AcDbEntity
  8
0
  6
Continuous
 62
     7
370
    15
100
AcDbLine
 10
112.7202365642085
 20
105.391139305899
 30
0.0
 11
68.72023680262708
 21
105.391139305899
 31
0.0
  0
LINE
  5
163
330
1F
100
AcDbEntity
  8
0
  6
Continuous
 62
     7
370
    15
100
AcDbLine
 10
68.72023680262708
 20
105.391139305899
 30
0.0
 11
68.72023680262708
 21
112.3911395219658
 31
0.0
  0
LINE
  5
164
330
1F
100
AcDbEntity
  8
0
  6
Continuous
 62
     7
370
    15
100
AcDbLine
 10
112.7202365642085
 20
112.3911395219658
 30
0.0
 11
112.7202365642085
 21
105.391139305899
 31
0.0
  0
LINE
  5
165
330
1F
100
AcDbEntity
  8
0
  6
Continuous
 62
     7
370
    15
100
AcDbLine
 10
356.5988496914922
 20
134.891139484713
 30
0.0
 11
356.3685457259832
 21
134.891139484713
 31
0.0
  0
LINE
  5
166
330
1F
100
AcDbEntity
  8
0
  6
Continuous
 62
     7
370
    15
100
AcDbLine
 10
356.3685457259832
 20
131.8911389929746
 30
0.0
 11
356.5988496914922
 21
131.8911389929746
 31
0.0
  0
LINE
  5
167
330
1F
100
AcDbEntity
  8
0
  6
Continuous
 62
     7
370
    15
100
AcDbLine
 10
339.5988496989427
 20
136.3374685419296
 30
0.0
 11
338.59884953503
 21
136.3374685419296
 31
0.0
  0
LINE
  5
168
330
1F
100
AcDbEntity
  8
0
  6
Continuous
 62
     7
370
    15
100
AcDbLine
 10
338.59884953503
 20
130.3374694210981
 30
0.0
 11
339.5988496989427
 21
130.3374694210981
 31
0.0
  0
LINE
  5
169
330
1F
100
AcDbEntity
  8
0
  6
Continuous
 62
     7
370
    15
100
AcDbLine
 10
345.5988497510968
 20
134.837469227383
 30
0.0
 11
344.5432561487375
 21
134.837469227383
 31
0.0
  0
LINE
  5
16A
330
1F
100
AcDbEntity
  8
0
  6
Continuous
 62
     7
370
    15
100
AcDbLine
 10
342.5432567522345
 20
134.837469227383
 30
0.0
 11
342.0988501087247
 21
134.837469227383
 31
0.0
  0
LINE
  5
16B
330
1F
100
AcDbEntity
  8
0
  6
Continuous
 62
     7
370
    15
100
AcDbLine
 10
342.0988501087247
 20
131.8374687356447
 30
0.0
 11
342.5432567522345
 21
131.8374687356447
 31
0.0
  0
LINE
  5
16C
330
1F
100
AcDbEntity
  8
0
  6
Continuous
 62
     7
370
    15
100
AcDbLine
 10
344.5432561487375
 20
131.8374687356447
 30
0.0
 11
345.5988497510968
 21
131.8374687356447
 31
0.0
  0
LINE
  5
16D
330
1F
100
AcDbEntity
  8
0
  6
Continuous
 62
     7
370
    15
100
AcDbLine
 10
363.598849907559
 20
130.3374694210981
 30
0.0
 11
364.5988500714718
 21
130.3374694210981
 31
0.0
  0
LINE
  5
16E
330
1F
100
AcDbEntity
  8
0
  6
Continuous
 62
     7
370
    15
100
AcDbLine
 10
364.5988500714718
 20
136.3374685419296
 30
0.0
 11
363.598849907559
 21
136.3374685419296
 31
0.0
  0
LINE
  5
16F
330
1F
100
AcDbEntity
  8
0
  6
Continuous
 62
     7
370
    15
100
AcDbLine
 10
357.5988498554049
 20
131.8374687356447
 30
0.0
 11
359.1802840158759
 21
131.8374687356447
 31
0.0
  0
LINE
  5
170
330
1F
100
AcDbEntity
  8
0
  6
Continuous
 62
     7
370
    15
100
AcDbLine
 10
359.1802840158759
 20
134.837469227383
 30
0.0
 11
357.5988498554049
 21
134.837469227383
 31
0.0
  0
LINE
  5
171
330
1F
100
AcDbEntity
  8
0
  6
Continuous
 62
     7
370
    15
100
AcDbLine
 10
361.0988494977771
 20
127.9081796777938
 30
0.0
 11
360.5231040195046
 21
127.9081796777938
 31
0.0
  0
LINE
  5
172
330
1F
100
AcDbEntity
  8
0
  6
Continuous
 62
     7
370
    15
100
AcDbLine
 10
360.317736215931
 20
127.9081796777938
 30
0.0
 11
343.4058039486824
 21
127.9081796777938
 31
0.0
  0
LINE
  5
173
330
1F
100
AcDbEntity
  8
0
  6
Continuous
 62
     7
370
    15
100
AcDbLine
 10
343.2004361451088
 20
127.9081796777938
 30
0.0
 11
342.0988501087247
 21
127.9081796777938
 31
0.0
  0
LINE
  5
174
330
1F
100
AcDbEntity
  8
0
  6
Continuous
 62
     7
370
    15
100
AcDbLine
 10
342.0988501087247
 20
122.90817885823
 30
0.0
 11
361.0988494977771
 21
122.90817885823
 31
0.0
  0
LINE
  5
175
330
1F
100
AcDbEntity
  8
0
  6
Continuous
 62
     7
370
    15
100
AcDbLine
 10
365.1488500684915
 20
126.9081795138811
 30
0.0
 11
363.598849907559
 21
126.9081795138811
 31
0.0
  0
LINE
  5
176
330
1F
100
AcDbEntity
  8
0
  6
Continuous
 62
     7
370
    15
100
AcDbLine
 10
363.598849907559
 20
123.9081790221427
 30
0.0
 11
365.1488500684915
 21
123.9081790221427
 31
0.0
  0
LINE
  5
177
330
1F
100
AcDbEntity
  8
0
  6
Continuous
 62
     7
370
    15
100
AcDbLine
 10
339.5988496989427
 20
126.9081795138811
 30
0.0
 11
338.0488495380102
 21
126.9081795138811
 31
0.0
  0
LINE
  5
178
330
1F
100
AcDbEntity
  8
0
  6
Continuous
 62
     7
370
    15
100
AcDbLine
 10
338.0488495380102
 20
123.9081790221427
 30
0.0
 11
339.5988496989427
 21
123.9081790221427
 31
0.0
  0
SPLINE
  5
179
330
1F
100
AcDbEntity
  8
0
  6
Continuous
 62
     7
370
    15
100
AcDbSpline
210
0.0
220
0.0
230
1.0
 70
     8
 71
     3
 72
    22
 73
    18
 74
     0
 42
0.0000000001
 43
0.0000000001
 40
0.0
 40
0.0
 40
0.0
 40
0.0
 40
0.0780266223791089
 40
0.1101226220018087
 40
0.1641499026536813
 40
0.2217303315917807
 40
0.2845726935060633
 40
0.3510231745349687
 40
0.420076360944965
 40
0.4909220390000593
 40
0.5629854960757515
 40
0.635877297130008
 40
0.7093407408518903
 40
0.7832064713676673
 40
0.8573645919113914
 40
0.9317400249228516
 40
1.0
 40
1.0
 40
1.0
 40
1.0
 10
349.0540124979286
 20
203.2036875856613
 30
0.0
 10
348.7594622890493
 20
203.1166761275234
 30
0.0
 10
348.3437498011324
 20
202.9938727865332
 30
0.0
 10
347.7453205097162
 20
202.7508582558927
 30
0.0
 10
347.2332000656555
 20
202.5109860796127
 30
0.0
 10
346.6347476798213
 20
202.1742087694331
 30
0.0
 10
346.0239080189706
 20
201.7641875856948
 30
0.0
 10
345.4146925121365
 20
201.2755254726215
 30
0.0
 10
344.8284287796411
 20
200.7128852785319
 30
0.0
 10
344.2816472190083
 20
200.0821592218814
 30
0.0
 10
343.7874727549605
 20
199.3907093710369
 30
0.0
 10
343.3559192018358
 20
198.6465402982102
 30
0.0
 10
342.9948334111897
 20
197.8579745508022
 30
0.0
 10
342.7093132616379
 20
197.0335255291925
 30
0.0
 10
342.5061953461143
 20
196.1818135755101
 30
0.0
 10
342.3825479762534
 20
195.336138207749
 30
0.0
 10
342.3707393781426
 20
194.7749299365027
 30
0.0
 10
342.3650882244526
 20
194.5063566339706
 30
0.0
  0
SPLINE
  5
17A
330
1F
100
AcDbEntity
  8
0
  6
Continuous
 62
     7
370
    15
100
AcDbSpline
210
0.0
220
0.0
230
1.0
 70
     8
 71
     3
 72
    28
 73
    24
 74
     0
 42
0.0000000001
 43
0.0000000001
 40
0.0
 40
0.0
 40
0.0
 40
0.0
 40
0.0044719337645303
 40
0.0579786668699426
 40
0.11156959878087
 40
0.1652364195400362
 40
0.2189768130866734
 40
0.2727931932355236
 40
0.3266945427067544
 40
0.3806955533055425
 40
0.4348216858507477
 40
0.4891122653301701
 40
0.5436307640913421
 40
0.5984796563314358
 40
0.6538345571140786
 40
0.7100151383239809
 40
0.7606109891946461
 40
0.8108803332374129
 40
0.8601374294539764
 40
0.9050472957489606
 40
0.9361273723237163
 40
0.971459808246743
 40
1.0
 40
1.0
 40
1.0
 40
1.0
 10
360.3584731966673
 20
194.5033391488289
 30
0.0
 10
360.3595586493706
 20
194.5278629258899
 30
0.0
 10
360.3736315547416
 20
194.845813945625
 30
0.0
 10
360.3198310329271
 20
195.4586735692924
 30
0.0
 10
360.190663257342
 20
196.3316943605263
 30
0.0
 10
359.9670087435927
 20
197.1886306850193
 30
0.0
 10
359.6623912984178
 20
198.0207776653777
 30
0.0
 10
359.2762361276293
 20
198.8200880528211
 30
0.0
 10
358.8127257600378
 20
199.5787534437944
 30
0.0
 10
358.2755944859142
 20
200.2893824890901
 30
0.0
 10
357.6694453266344
 20
200.945050831992
 30
0.0
 10
356.9991843614498
 20
201.5393380975018
 30
0.0
 10
356.2699403736873
 20
202.0663907313663
 30
0.0
 10
355.4865976949498
 20
202.5208781395928
 30
0.0
 10
354.6531366131882
 20
202.8979622473944
 30
0.0
 10
353.8076807727267
 20
203.1807613825705
 30
0.0
 10
352.9662639008571
 20
203.3734105837274
 30
0.0
 10
352.1483679782403
 20
203.4826649723372
 30
0.0
 10
351.3552274258802
 20
203.515704167689
 30
0.0
 10
350.6676065995916
 20
203.4852605386844
 30
0.0
 10
350.0603822266
 20
203.4152677461648
 30
0.0
 10
349.5463217349286
 20
203.3262547011997
 30
0.0
 10
349.2060541747502
 20
203.2415404398616
 30
0.0
 10
349.0540124979286
 20
203.2036875856613
 30
0.0
  0
LINE
  5
17B
330
1F
100
AcDbEntity
  8
0
  6
Continuous
 62
     7
370
    15
100
AcDbLine
 10
342.3617699221192
 20
194.5045908463692
 30
0.0
 11
342.3617699221192
 21
193.8635056389068
 31
0.0
  0
LINE
  5
17C
330
1F
100
AcDbEntity
  8
0
  6
Continuous
 62
     7
370
    15
100
AcDbLine
 10
360.3617700785814
 20
193.8635056389068
 30
0.0
 11
360.3617700785814
 21
194.5045908463692
 31
0.0
  0
SPLINE
  5
17D
330
1F
100
AcDbEntity
  8
0
  6
Continuous
 62
     7
370
    15
100
AcDbSpline
210
0.0
220
0.0
230
1.0
 70
     8
 71
     3
 72
    11
 73
     7
 74
     0
 42
0.0000000001
 43
0.0000000001
 40
0.0
 40
0.0
 40
0.0
 40
0.0
 40
0.191725379153932
 40
0.4841725581226333
 40
0.7766249166913127
 40
1.0
 40
1.0
 40
1.0
 40
1.0
 10
342.3715907186685
 20
193.8627307785248
 30
0.0
 10
342.3712779869761
 20
193.7184883760617
 30
0.0
 10
342.3704882318368
 20
193.3542266737326
 30
0.0
 10
342.4703532889701
 20
192.7767754418552
 30
0.0
 10
342.6318344939474
 20
192.1889268875079
 30
0.0
 10
342.7976891022341
 20
191.8379964619799
 30
0.0
 10
342.8695111573158
 20
191.6860287559723
 30
0.0
  0
SPLINE
  5
17E
330
1F
100
AcDbEntity
  8
0
  6
Continuous
 62
     7
370
    15
100
AcDbSpline
210
0.0
220
0.0
230
1.0
 70
     8
 71
     3
 72
    12
 73
     8
 74
     0
 42
0.0000000001
 43
0.0000000001
 40
0.0
 40
0.0
 40
0.0
 40
0.0
 40
0.0299488500531332
 40
0.3200306783316781
 40
0.6101147865917533
 40
0.9001992090958546
 40
1.0
 40
1.0
 40
1.0
 40
1.0
 10
359.8502607122479
 20
191.6695555222725
 30
0.0
 10
359.8613863393013
 20
191.689329593259
 30
0.0
 10
359.9802737745931
 20
191.9006335111044
 30
0.0
 10
360.1347167640795
 20
192.3406229845782
 30
0.0
 10
360.2954265746477
 20
192.9788541259432
 30
0.0
 10
360.365027112833
 20
193.4931468433538
 30
0.0
 10
360.3546190673621
 20
193.7884396590619
 30
0.0
 10
360.3519548699675
 20
193.8640271795486
 30
0.0
  0
SPLINE
  5
17F
330
1F
100
AcDbEntity
  8
0
  6
Continuous
 62
     7
370
    15
100
AcDbSpline
210
0.0
220
0.0
230
1.0
 70
     8
 71
     3
 72
    11
 73
     7
 74
     0
 42
0.0000000001
 43
0.0000000001
 40
0.0
 40
0.0
 40
0.0
 40
0.0
 40
0.190888723541758
 40
0.4814217616328646
 40
0.7719533661023638
 40
1.0
 40
1.0
 40
1.0
 40
1.0
 10
360.3519697711287
 20
185.1457079423164
 30
0.0
 10
360.3522843109637
 20
185.2902678239921
 30
0.0
 10
360.3530775810879
 20
185.6548481491495
 30
0.0
 10
360.2532642955293
 20
186.2326471408227
 30
0.0
 10
360.0902343209419
 20
186.8248688123696
 30
0.0
 10
359.9222650270933
 20
187.179948930361
 30
0.0
 10
359.8483999297438
 20
187.3360966814255
 30
0.0
  0
SPLINE
  5
180
330
1F
100
AcDbEntity
  8
0
  6
Continuous
 62
     7
370
    15
100
AcDbSpline
210
0.0
220
0.0
230
1.0
 70
     8
 71
     3
 72
    12
 73
     8
 74
     0
 42
0.0000000001
 43
0.0000000001
 40
0.0
 40
0.0
 40
0.0
 40
0.0
 40
0.0218499764177379
 40
0.3143744414623602
 40
0.6069012056871187
 40
0.8994282912338745
 40
1.0
 40
1.0
 40
1.0
 40
1.0
 10
342.8641430139957
 20
187.3233934415077
 30
0.0
 10
342.8561140534665
 20
187.3090767914481
 30
0.0
 10
342.7405944788164
 20
187.1030908086692
 30
0.0
 10
342.58907801865
 20
186.6686460340826
 30
0.0
 10
342.4280455965159
 20
186.0305817585953
 30
0.0
 10
342.3585223820687
 20
185.5163025507335
 30
0.0
 10
342.3689217322689
 20
185.2210639566093
 30
0.0
 10
342.3715823367654
 20
185.1455291283821
 30
0.0
  0
LINE
  5
181
330
1F
100
AcDbEntity
  8
0
  6
Continuous
 62
     7
370
    15
100
AcDbLine
 10
342.3617699221192
 20
185.1458942068313
 30
0.0
 11
342.3617699221192
 21
183.6283003462051
 31
0.0
  0
LINE
  5
182
330
1F
100
AcDbEntity
  8
0
  6
Continuous
 62
     7
370
    15
100
AcDbLine
 10
360.3617700785814
 20
183.6283003462051
 30
0.0
 11
360.3617700785814
 21
185.1458942068313
 31
0.0
  0
SPLINE
  5
183
330
1F
100
AcDbEntity
  8
0
  6
Continuous
 62
     7
370
    15
100
AcDbSpline
210
0.0
220
0.0
230
1.0
 70
     8
 71
     3
 72
    12
 73
     8
 74
     0
 42
0.0000000001
 43
0.0000000001
 40
0.0
 40
0.0
 40
0.0
 40
0.0
 40
0.0997236253235569
 40
0.3436203547840638
 40
0.587518836593337
 40
0.8314175327319858
 40
1.0
 40
1.0
 40
1.0
 40
1.0
 10
342.3722845539866
 20
183.6287548316215
 30
0.0
 10
342.3697034178137
 20
183.5434948418629
 30
0.0
 10
342.3608095280799
 20
183.2497122217995
 30
0.0
 10
342.4363795687749
 20
182.7495541792984
 30
0.0
 10
342.5988673739397
 20
182.1455292202276
 30
0.0
 10
342.8141148690248
 20
181.6235739194329
 30
0.0
 10
343.003841423661
 20
181.3259841977933
 30
0.0
 10
343.0813833177505
 20
181.2043582571243
 30
0.0
  0
SPLINE
  5
184
330
1F
100
AcDbEntity
  8
0
  6
Continuous
 62
     7
370
    15
100
AcDbSpline
210
0.0
220
0.0
230
1.0
 70
     8
 71
     3
 72
    12
 73
     8
 74
     0
 42
0.0000000001
 43
0.0000000001
 40
0.0
 40
0.0
 40
0.0
 40
0.0
 40
0.1317882550434686
 40
0.37353042805791
 40
0.6152806894997298
 40
0.8570296643537078
 40
1.0
 40
1.0
 40
1.0
 40
1.0
 10
359.6281589046536
 20
181.1854188812469
 30
0.0
 10
359.6914482808593
 20
181.2799283224205
 30
0.0
 10
359.8708307893978
 20
181.5477985662857
 30
0.0
 10
360.084586621528
 20
182.0372928613745
 30
0.0
 10
360.2642697928491
 20
182.6364984776066
 30
0.0
 10
360.3554768459194
 20
183.1725647619986
 30
0.0
 10
360.3524012144187
 20
183.5046185714322
 30
0.0
 10
360.3512582406817
 20
183.6280172241424
 30
0.0
  0
SPLINE
  5
185
330
1F
100
AcDbEntity
  8
0
  6
Continuous
 62
     7
370
    15
100
AcDbSpline
210
0.0
220
0.0
230
1.0
 70
     8
 71
     3
 72
    12
 73
     8
 74
     0
 42
0.0000000001
 43
0.0000000001
 40
0.0
 40
0.0
 40
0.0
 40
0.0
 40
0.0986380853842236
 40
0.3404506198269244
 40
0.5822650365575742
 40
0.8240820672941884
 40
1.0
 40
1.0
 40
1.0
 40
1.0
 10
360.3512638286172
 20
173.3817254675125
 30
0.0
 10
360.3538368196877
 20
173.4667844943215
 30
0.0
 10
360.3627175314469
 20
173.7603668188992
 30
0.0
 10
360.2871252951127
 20
174.2603051305939
 30
0.0
 10
360.1247878145955
 20
174.8644137545417
 30
0.0
 10
359.9061423010746
 20
175.3931339997126
 30
0.0
 10
359.7121239460918
 20
175.6969891647275
 30
0.0
 10
359.6304182932196
 20
175.8249496591781
 30
0.0
  0
SPLINE
  5
186
330
1F
100
AcDbEntity
  8
0
  6
Continuous
 62
     7
370
    15
100
AcDbSpline
210
0.0
220
0.0
230
1.0
 70
     8
 71
     3
 72
    12
 73
     8
 74
     0
 42
0.0000000001
 43
0.0000000001
 40
0.0
 40
0.0
 40
0.0
 40
0.0
 40
0.1229613705092289
 40
0.3671591168490237
 40
0.6113624935424961
 40
0.8555644112572844
 40
0.9999999999999998
 40
0.9999999999999998
 40
0.9999999999999998
 40
0.9999999999999998
 10
343.0813591033636
 20
175.8025383127426
 30
0.0
 10
343.0229927774191
 20
175.7151909962609
 30
0.0
 10
342.8487126063478
 20
175.4543744207322
 30
0.0
 10
342.6391264040753
 20
174.9724850947018
 30
0.0
 10
342.4592228553821
 20
174.3734059706573
 30
0.0
 10
342.3680694803422
 20
173.8372958905696
 30
0.0
 10
342.3711404473162
 20
173.5052324036844
 30
0.0
 10
342.3722817600189
 20
173.3818223250603
 30
0.0
  0
LINE
  5
187
330
1F
100
AcDbEntity
  8
0
  6
Continuous
 62
     7
370
    15
100
AcDbLine
 10
342.3617699221192
 20
173.3815764559006
 30
0.0
 11
342.3617699221192
 21
173.3360012543892
 31
0.0
  0
LINE
  5
188
330
1F
100
AcDbEntity
  8
0
  6
Continuous
 62
     7
370
    15
100
AcDbLine
 10
360.3617700785814
 20
173.3360012543892
 30
0.0
 11
360.3617700785814
 21
173.3815764559006
 31
0.0
  0
SPLINE
  5
189
330
1F
100
AcDbEntity
  8
0
  6
Continuous
 62
     7
370
    15
100
AcDbSpline
210
0.0
220
0.0
230
1.0
 70
     8
 71
     3
 72
    13
 73
     9
 74
     0
 42
0.0000000001
 43
0.0000000001
 40
0.0
 40
0.0
 40
0.0
 40
0.0
 40
0.0859477434440848
 40
0.296152431275176
 40
0.5063586338366
 40
0.7165650117587831
 40
0.9267771815239404
 40
1.0
 40
1.0
 40
1.0
 40
1.0
 10
342.3722845539866
 20
173.3364557398056
 30
0.0
 10
342.3696899605976
 20
173.2511865764089
 30
0.0
 10
342.3607497009752
 20
172.9573723464965
 30
0.0
 10
342.4370600200898
 20
172.4577189388986
 30
0.0
 10
342.5963870391093
 20
171.8515393064856
 30
0.0
 10
342.84805660569
 20
171.2776773328089
 30
0.0
 10
343.0910894902071
 20
170.8488300885242
 30
0.0
 10
343.2719414510877
 20
170.6333929206733
 30
0.0
 10
343.3186628893433
 20
170.5777367127632
 30
0.0
  0
SPLINE
  5
18A
330
1F
100
AcDbEntity
  8
0
  6
Continuous
 62
     7
370
    15
100
AcDbSpline
210
0.0
220
0.0
230
1.0
 70
     8
 71
     3
 72
    13
 73
     9
 74
     0
 42
0.0000000001
 43
0.0000000001
 40
0.0
 40
0.0
 40
0.0
 40
0.0
 40
0.0426494032330391
 40
0.2511480030334315
 40
0.45965601972925
 40
0.6681710128741085
 40
0.8766848963082537
 40
1.0
 40
1.0
 40
1.0
 40
1.0
 10
359.3917291649102
 20
170.556390799353
 30
0.0
 10
359.4198101328329
 20
170.5884990847641
 30
0.0
 10
359.5851695161399
 20
170.7775739873546
 30
0.0
 10
359.820808408961
 20
171.1763442092103
 30
0.0
 10
360.0877586590204
 20
171.7427646373203
 30
0.0
 10
360.2634091780146
 20
172.3448041782235
 30
0.0
 10
360.3555931975429
 20
172.8801839047067
 30
0.0
 10
360.3524327383092
 20
173.2122973263721
 30
0.0
 10
360.3512582406817
 20
173.3357181323265
 30
0.0
  0
SPLINE
  5
18B
330
1F
100
AcDbEntity
  8
0
  6
Continuous
 62
     7
370
    15
100
AcDbSpline
210
0.0
220
0.0
230
1.0
 70
     8
 71
     3
 72
    13
 73
     9
 74
     0
 42
0.0000000001
 43
0.0000000001
 40
0.0
 40
0.0
 40
0.0
 40
0.0
 40
0.0850720127694922
 40
0.2936241005293974
 40
0.5021778072582146
 40
0.7107326356655829
 40
0.9192911167655777
 40
1.0
 40
1.0
 40
1.0
 40
1.0
 10
360.3512638286172
 20
161.6745015156959
 30
0.0
 10
360.3538493597104
 20
161.759570370076
 30
0.0
 10
360.3627732609671
 20
162.0531835694967
 30
0.0
 10
360.2864904366136
 20
162.5526490667444
 30
0.0
 10
360.127102268231
 20
163.158780993122
 30
0.0
 10
359.8756743485161
 20
163.7328228156703
 30
0.0
 10
359.6279306308451
 20
164.1681998889295
 30
0.0
 10
359.4416143299463
 20
164.3896034867865
 30
0.0
 10
359.389629963827
 20
164.451377607653
 30
0.0
  0
SPLINE
  5
18C
330
1F
100
AcDbEntity
  8
0
  6
Continuous
 62
     7
370
    15
100
AcDbSpline
210
0.0
220
0.0
230
1.0
 70
     8
 71
     3
 72
    13
 73
     9
 74
     0
 42
0.0000000001
 43
0.0000000001
 40
0.0
 40
0.0
 40
0.0
 40
0.0
 40
0.0329644434053723
 40
0.2435682168279666
 40
0.4541848399697966
 40
0.6648039153927972
 40
0.8754253764722765
 40
0.9999999999999998
 40
0.9999999999999998
 40
0.9999999999999998
 40
0.9999999999999998
 10
343.3122786730943
 20
164.4311530066227
 30
0.0
 10
343.2908449303906
 20
164.4065421230291
 30
0.0
 10
343.1324749428831
 20
164.2246968251205
 30
0.0
 10
342.9030467013175
 20
163.8337649729662
 30
0.0
 10
342.6357011746271
 20
163.2676595041201
 30
0.0
 10
342.4601508373545
 20
162.6655360392736
 30
0.0
 10
342.3679438575284
 20
162.130163515356
 30
0.0
 10
342.3711064076964
 20
161.7980335009429
 30
0.0
 10
342.3722817600189
 20
161.6745983732437
 30
0.0
  0
LINE
  5
18D
330
1F
100
AcDbEntity
  8
0
  6
Continuous
 62
     7
370
    15
100
AcDbLine
 10
342.3617699221192
 20
161.6743562293743
 30
0.0
 11
342.3617699221192
 21
161.353262282679
 31
0.0
  0
LINE
  5
18E
330
1F
100
AcDbEntity
  8
0
  6
Continuous
 62
     7
370
    15
100
AcDbLine
 10
360.3617700785814
 20
161.353262282679
 30
0.0
 11
360.3617700785814
 21
161.6743562293743
 31
0.0
  0
SPLINE
  5
18F
330
1F
100
AcDbEntity
  8
0
  6
Continuous
 62
     7
370
    15
100
AcDbSpline
210
0.0
220
0.0
230
1.0
 70
     8
 71
     3
 72
    12
 73
     8
 74
     0
 42
0.0000000001
 43
0.0000000001
 40
0.0
 40
0.0
 40
0.0
 40
0.0
 40
0.1084927620949028
 40
0.3738402686087092
 40
0.6391896872107803
 40
0.9045407802625854
 40
1.0
 40
1.0
 40
1.0
 40
1.0
 10
342.3722845539866
 20
161.3537130428051
 30
0.0
 10
342.3697109537076
 20
161.2684584853049
 30
0.0
 10
342.3608429389105
 20
160.9746915458284
 30
0.0
 10
342.4360002757185
 20
160.4743042642372
 30
0.0
 10
342.6002504066325
 20
159.8712622657705
 30
0.0
 10
342.78384859741
 20
159.41071997891
 30
0.0
 10
342.934371038566
 20
159.170323655252
 30
0.0
 10
342.9741946086703
 20
159.1067222429012
 30
0.0
  0
SPLINE
  5
190
330
1F
100
AcDbEntity
  8
0
  6
Continuous
 62
     7
370
    15
100
AcDbSpline
210
0.0
220
0.0
230
1.0
 70
     8
 71
     3
 72
    12
 73
     8
 74
     0
 42
0.0000000001
 43
0.0000000001
 40
0.0
 40
0.0
 40
0.0
 40
0.0
 40
0.0554813736764837
 40
0.3184726748344276
 40
0.5814684265272902
 40
0.8444658279390765
 40
1.0
 40
1.0
 40
1.0
 40
1.0
 10
359.7407641858278
 20
159.0864194107746
 30
0.0
 10
359.7648638761455
 20
159.1232238667171
 30
0.0
 10
359.9032002641899
 20
159.3344878054618
 30
0.0
 10
360.082852988878
 20
159.7632743368459
 30
0.0
 10
360.2647408696197
 20
160.3611814257333
 30
0.0
 10
360.3554129669693
 20
160.8975617831227
 30
0.0
 10
360.352383899055
 20
161.2295881998189
 30
0.0
 10
360.3512582406817
 20
161.352975435326
 30
0.0
  0
SPLINE
  5
191
330
1F
100
AcDbEntity
  8
0
  6
Continuous
 62
     7
370
    15
100
AcDbSpline
210
0.0
220
0.0
230
1.0
 70
     8
 71
     3
 72
    15
 73
    11
 74
     0
 42
0.0000000001
 43
0.0000000001
 40
0.0
 40
0.0
 40
0.0
 40
0.0
 40
0.0045670217474995
 40
0.1518925285319553
 40
0.2992299815189164
 40
0.4465726587375373
 40
0.5939166027439305
 40
0.7412608322023933
 40
0.8886060893597607
 40
1.0
 40
1.0
 40
1.0
 40
1.0
 10
359.8549415395079
 20
187.342556334803
 30
0.0
 10
359.8516113997015
 20
187.348496337791
 30
0.0
 10
359.7408557730555
 20
187.5460522337841
 30
0.0
 10
359.5939624299733
 20
187.9715889435335
 30
0.0
 10
359.4262197900519
 20
188.6090178624695
 30
0.0
 10
359.3534208888389
 20
189.2667438256616
 30
0.0
 10
359.3645635899219
 20
189.9276618878576
 30
0.0
 10
359.4657916744426
 20
190.5803611591913
 30
0.0
 10
359.627928801502
 20
191.1668517198691
 30
0.0
 10
359.7919258932106
 20
191.5165709154522
 30
0.0
 10
359.8625308871685
 20
191.6671340835785
 30
0.0
  0
SPLINE
  5
192
330
1F
100
AcDbEntity
  8
0
  6
Continuous
 62
     7
370
    15
100
AcDbSpline
210
0.0
220
0.0
230
1.0
 70
     8
 71
     3
 72
    15
 73
    11
 74
     0
 42
0.0000000001
 43
0.0000000001
 40
0.0
 40
0.0
 40
0.0
 40
0.0
 40
0.0082710390929515
 40
0.1545339300094085
 40
0.3008086809638999
 40
0.4470886067706957
 40
0.5933698000198479
 40
0.7396513095281618
 40
0.8859337430853903
 40
1.0
 40
1.0
 40
1.0
 40
1.0
 10
342.8603907153426
 20
191.6815435064529
 30
0.0
 10
342.8664814781098
 20
191.6707159442779
 30
0.0
 10
342.9802796957947
 20
191.468416606006
 30
0.0
 10
343.1298273841077
 20
191.0379372956335
 30
0.0
 10
343.2972533164802
 20
190.400348677563
 30
0.0
 10
343.3701424246231
 20
189.7426629465061
 30
0.0
 10
343.3589528513773
 20
189.0817434237916
 30
0.0
 10
343.257824831743
 20
188.4290096803652
 30
0.0
 10
343.0939573882887
 20
187.8375927970182
 30
0.0
 10
342.9275930611608
 20
187.4832003703971
 30
0.0
 10
342.854704059702
 20
187.3279308450912
 30
0.0
  0
SPLINE
  5
193
330
1F
100
AcDbEntity
  8
0
  6
Continuous
 62
     7
370
    15
100
AcDbSpline
210
0.0
220
0.0
230
1.0
 70
     8
 71
     3
 72
    17
 73
    13
 74
     0
 42
0.0000000001
 43
0.0000000001
 40
0.0
 40
0.0
 40
0.0
 40
0.0
 40
0.0410134870694756
 40
0.1578944261376246
 40
0.2747913618409176
 40
0.3916937347254934
 40
0.5085977064760053
 40
0.6255034041335287
 40
0.7424098267365539
 40
0.8593154229783516
 40
0.9762216241633776
 40
0.9999999999999998
 40
0.9999999999999998
 40
0.9999999999999998
 40
0.9999999999999998
 10
359.6452952400265
 20
175.8363117945885
 30
0.0
 10
359.6018137356168
 20
175.9000067850113
 30
0.0
 10
359.4344178939819
 20
176.1452208518773
 30
0.0
 10
359.2195475973479
 20
176.6184880158755
 30
0.0
 10
359.0075979368543
 20
177.2433274093656
 30
0.0
 10
358.8849445231349
 20
177.8933264734589
 30
0.0
 10
358.8473424742673
 20
178.5532018313576
 30
0.0
 10
358.8976961242738
 20
179.2121740870919
 30
0.0
 10
359.0325486645986
 20
179.859911594459
 30
0.0
 10
359.2576335867885
 20
180.4799059628979
 30
0.0
 10
359.4645009220205
 20
180.9215287113019
 30
0.0
 10
359.6167026960921
 20
181.137813429174
 30
0.0
 10
359.6424276978193
 20
181.1743696702217
 30
0.0
  0
SPLINE
  5
194
330
1F
100
AcDbEntity
  8
0
  6
Continuous
 62
     7
370
    15
100
AcDbSpline
210
0.0
220
0.0
230
1.0
 70
     8
 71
     3
 72
    17
 73
    13
 74
     0
 42
0.0000000001
 43
0.0000000001
 40
0.0
 40
0.0
 40
0.0
 40
0.0
 40
0.0449093165259827
 40
0.160728407819091
 40
0.2765633604142596
 40
0.3924037418623393
 40
0.5082456977716836
 40
0.6240893530272706
 40
0.7399337320902744
 40
0.8557772650560984
 40
0.9716214990187307
 40
1.0
 40
1.0
 40
1.0
 40
1.0
 10
343.0648560673414
 20
181.1938231361603
 30
0.0
 10
343.1129837982035
 20
181.1234867725979
 30
0.0
 10
343.2852307650201
 20
180.8717561162067
 30
0.0
 10
343.5041824805331
 20
180.3915039176224
 30
0.0
 10
343.7158906590451
 20
179.7665186174103
 30
0.0
 10
343.8386111403393
 20
179.1165577594229
 30
0.0
 10
343.8761890730894
 20
178.456676098231
 30
0.0
 10
343.8258648205779
 20
177.7976909268848
 30
0.0
 10
343.6909188087002
 20
177.1500112325202
 30
0.0
 10
343.4661784025677
 20
176.5297986853942
 30
0.0
 10
343.2544482610413
 20
176.0804521287694
 30
0.0
 10
343.0966203715712
 20
175.8569290833302
 30
0.0
 10
343.0655648038207
 20
175.8129467738365
 30
0.0
  0
LINE
  5
195
330
1F
100
AcDbEntity
  8
0
  6
Continuous
 62
     7
370
    15
100
AcDbLine
 10
342.9647165388284
 20
159.1030975354408
 30
0.0
 11
345.0314438008188
 21
155.5235294175838
 31
0.0
  0
LINE
  5
196
330
1F
100
AcDbEntity
  8
0
  6
Continuous
 62
     7
370
    15
100
AcDbLine
 10
357.6920966655432
 20
155.5235294175838
 30
0.0
 11
359.7588234618722
 21
159.1030975354408
 31
0.0
  0
SPLINE
  5
197
330
1F
100
AcDbEntity
  8
0
  6
Continuous
 62
     7
370
    15
100
AcDbSpline
210
0.0
220
0.0
230
1.0
 70
     8
 71
     3
 72
    18
 73
    14
 74
     0
 42
0.0000000001
 43
0.0000000001
 40
0.0
 40
0.0
 40
0.0
 40
0.0
 40
0.0492928622466444
 40
0.1498764697152957
 40
0.2504823196095188
 40
0.3510963204382211
 40
0.4517130154848166
 40
0.5523307261595754
 40
0.6529488978266447
 40
0.7535683287888985
 40
0.8541867856172849
 40
0.9548047448095001
 40
1.0
 40
1.0
 40
1.0
 40
1.0
 10
359.4068999439893
 20
164.4638908577656
 30
0.0
 10
359.3395356767739
 20
164.5479356544447
 30
0.0
 10
359.1347125422462
 20
164.8034764538647
 30
0.0
 10
358.868742994054
 20
165.2850115950391
 30
0.0
 10
358.6126440421391
 20
165.8932576809174
 30
0.0
 10
358.4426966653927
 20
166.5324341267831
 30
0.0
 10
358.357267296079
 20
167.1877781358674
 30
0.0
 10
358.3590022404587
 20
167.8489129646714
 30
0.0
 10
358.4478991746979
 20
168.5038023509564
 30
0.0
 10
358.6211618894038
 20
169.1421584562285
 30
0.0
 10
358.8807357979675
 20
169.7489885265982
 30
0.0
 10
359.1442419977012
 20
170.2218276312221
 30
0.0
 10
359.3445868411337
 20
170.4695501556319
 30
0.0
 10
359.4066843428133
 20
170.5463325155472
 30
0.0
  0
SPLINE
  5
198
330
1F
100
AcDbEntity
  8
0
  6
Continuous
 62
     7
370
    15
100
AcDbSpline
210
0.0
220
0.0
230
1.0
 70
     8
 71
     3
 72
    18
 73
    14
 74
     0
 42
0.0000000001
 43
0.0000000001
 40
0.0
 40
0.0
 40
0.0
 40
0.0
 40
0.0524582621435027
 40
0.1522508844266216
 40
0.2520660977053115
 40
0.3518894026647312
 40
0.4517153713095749
 40
0.5515429206972426
 40
0.6513703589149984
 40
0.7511984975779548
 40
0.8510267438453027
 40
0.9508534787083565
 40
1.0
 40
1.0
 40
1.0
 40
1.0
 10
343.3023209721266
 20
170.565040923426
 30
0.0
 10
343.3746579081621
 20
170.4749468879777
 30
0.0
 10
343.5846031491611
 20
170.2134647873881
 30
0.0
 10
343.8549398984046
 20
169.7254498132876
 30
0.0
 10
344.1108584418856
 20
169.1170763205777
 30
0.0
 10
344.2808537448118
 20
168.4779345818022
 30
0.0
 10
344.3662715178823
 20
167.8225791615104
 30
0.0
 10
344.3645354525185
 20
167.161448849501
 30
0.0
 10
344.2756547994396
 20
166.506546677051
 30
0.0
 10
344.1023285480726
 20
165.8682357710707
 30
0.0
 10
343.8429870414918
 20
165.2612403932127
 30
0.0
 10
343.5741280932666
 20
164.7805854904063
 30
0.0
 10
343.3675316905714
 20
164.5256977723122
 30
0.0
 10
343.299375198823
 20
164.4416098964905
 30
0.0
  0
SPLINE
  5
199
330
1F
100
AcDbEntity
  8
0
  6
Continuous
 62
     7
370
    15
100
AcDbSpline
210
0.0
220
0.0
230
1.0
 70
     8
 71
     3
 72
    11
 73
     7
 74
     0
 42
0.0000000001
 43
0.0000000001
 40
0.0
 40
0.0
 40
0.0
 40
0.0
 40
0.0686567150122711
 40
0.2481644084193944
 40
0.9900019904346361
 40
1.0
 40
1.0
 40
1.0
 40
1.0
 10
345.0736583248196
 20
155.5183922422622
 30
0.0
 10
345.0945871288234
 20
155.5162512529675
 30
0.0
 10
345.1702357272687
 20
155.5085125002226
 30
0.0
 10
345.3313049541187
 20
155.5007754421851
 30
0.0
 10
345.4195099456489
 20
155.4971946952824
 30
0.0
 10
345.5468472880448
 20
155.4947689073176
 30
0.0
 10
345.5485406369386
 20
155.494736648867
 30
0.0
  0
SPLINE
  5
19A
330
1F
100
AcDbEntity
  8
0
  6
Continuous
 62
     7
370
    15
100
AcDbSpline
210
0.0
220
0.0
230
1.0
 70
     8
 71
     3
 72
    11
 73
     7
 74
     0
 42
0.0000000001
 43
0.0000000001
 40
0.0
 40
0.0
 40
0.0
 40
0.0
 40
0.06520661547436
 40
0.6452464529677478
 40
0.9566784194543297
 40
1.0
 40
1.0
 40
1.0
 40
1.0
 10
357.3510021008967
 20
155.4995348227714
 30
0.0
 10
357.3558932787878
 20
155.4996743112927
 30
0.0
 10
357.4042935087665
 20
155.5010546079532
 30
0.0
 10
357.4743525310712
 20
155.5050854560009
 30
0.0
 10
357.5627565440508
 20
155.5090445076573
 30
0.0
 10
357.6255602081254
 20
155.5157648105552
 30
0.0
 10
357.6332296282469
 20
155.5165854764675
 30
0.0
  0
LINE
  5
19B
330
1F
100
AcDbEntity
  8
0
  6
Continuous
 62
     7
370
    15
100
AcDbLine
 10
336.6251758337436
 20
137.3911892545913
 30
0.0
 11
336.598850138527
 21
137.2661387098526
 31
0.0
  0
LINE
  5
19C
330
1F
100
AcDbEntity
  8
0
  6
Continuous
 62
     7
370
    15
100
AcDbLine
 10
336.598850138527
 20
129.516139767835
 30
0.0
 11
336.6251758337436
 21
129.3910892230963
 31
0.0
  0
LINE
  5
19D
330
1F
100
AcDbEntity
  8
0
  6
Continuous
 62
     7
370
    15
100
AcDbLine
 10
339.5621015727936
 20
129.3907651228403
 30
0.0
 11
339.5988496989427
 21
129.5214259547685
 31
0.0
  0
LINE
  5
19E
330
1F
100
AcDbEntity
  8
0
  6
Continuous
 62
     7
370
    15
100
AcDbLine
 10
339.5988496989427
 20
137.2608525229191
 30
0.0
 11
339.5621015727936
 21
137.3915133548473
 31
0.0
  0
LINE
  5
19F
330
1F
100
AcDbEntity
  8
0
  6
Continuous
 62
     7
370
    15
100
AcDbLine
 10
366.5724734813391
 20
129.3908526671623
 30
0.0
 11
366.5988494679747
 21
129.516139767835
 31
0.0
  0
LINE
  5
1A0
330
1F
100
AcDbEntity
  8
0
  6
Continuous
 62
     7
370
    15
100
AcDbLine
 10
366.5988494679747
 20
137.2661387098526
 30
0.0
 11
366.5724734813391
 21
137.3914276731704
 31
0.0
  0
LINE
  5
1A1
330
1F
100
AcDbEntity
  8
0
  6
Continuous
 62
     7
370
    15
100
AcDbLine
 10
363.6355384290634
 20
137.3913010133003
 30
0.0
 11
363.598849907559
 21
137.2608525229191
 31
0.0
  0
LINE
  5
1A2
330
1F
100
AcDbEntity
  8
0
  6
Continuous
 62
     7
370
    15
100
AcDbLine
 10
363.598849907559
 20
129.5214259547685
 30
0.0
 11
363.6355384290634
 21
129.3909793270324
 31
0.0
  0
LINE
  5
1A3
330
1F
100
AcDbEntity
  8
0
  6
Continuous
 62
     7
370
    15
100
AcDbLine
 10
342.5432567522345
 20
128.3374690932726
 30
0.0
 11
344.5432561487375
 21
128.3374690932726
 31
0.0
  0
SPLINE
  5
1A4
330
1F
100
AcDbEntity
  8
0
  6
Continuous
 62
     7
370
    15
100
AcDbSpline
210
0.0
220
0.0
230
1.0
 70
     8
 71
     3
 72
     9
 73
     5
 74
     0
 42
0.0000000001
 43
0.0000000001
 40
0.0
 40
0.0
 40
0.0
 40
0.0
 40
0.479609923952215
 40
1.0
 40
1.0
 40
1.0
 40
1.0
 10
345.0840644576071
 20
128.1547324282621
 30
0.0
 10
345.1369185399911
 20
128.1593147736552
 30
0.0
 10
345.2471207683945
 20
128.1688690909542
 30
0.0
 10
345.3350206493741
 20
128.1620065598842
 30
0.0
 10
345.3807628751217
 20
128.1584353668188
 30
0.0
  0
LINE
  5
1A5
330
1F
100
AcDbEntity
  8
0
  6
Continuous
 62
     7
370
    15
100
AcDbLine
 10
359.1802840158759
 20
128.3374690932726
 30
0.0
 11
361.0988494977771
 21
128.3374690932726
 31
0.0
  0
SPLINE
  5
1A6
330
1F
100
AcDbEntity
  8
0
  6
Continuous
 62
     7
370
    15
100
AcDbSpline
210
0.0
220
0.0
230
1.0
 70
     8
 71
     3
 72
     9
 73
     5
 74
     0
 42
0.0000000001
 43
0.0000000001
 40
0.0
 40
0.0
 40
0.0
 40
0.0
 40
0.5203912220144553
 40
1.0
 40
1.0
 40
1.0
 40
1.0
 10
358.3427772894917
 20
128.1584353668188
 30
0.0
 10
358.3885196839394
 20
128.1620065674558
 30
0.0
 10
358.4764196955317
 20
128.1688690979637
 30
0.0
 10
358.5866218069956
 20
128.1593147685274
 30
0.0
 10
358.6394757070063
 20
128.1547324282621
 30
0.0
  0
LINE
  5
1A7
330
1F
100
AcDbEntity
  8
0
  6
Continuous
 62
     7
370
    15
100
AcDbLine
 10
361.0988494977771
 20
120.4081793797706
 30
0.0
 11
363.598849907559
 21
120.4081793797706
 31
0.0
  0
LINE
  5
1A8
330
1F
100
AcDbEntity
  8
0
  6
Continuous
 62
     7
370
    15
100
AcDbLine
 10
339.5988496989427
 20
120.4081793797706
 30
0.0
 11
342.0988501087247
 21
120.4081793797706
 31
0.0
  0
LINE
  5
1A9
330
1F
100
AcDbEntity
  8
0
  6
Continuous
 62
     7
370
    15
100
AcDbLine
 10
338.59884953503
 20
130.4912438166832
 30
0.0
 11
338.59884953503
 21
136.3374685419296
 31
0.0
  0
LINE
  5
1AA
330
1F
100
AcDbEntity
  8
0
  6
Continuous
 62
     7
370
    15
100
AcDbLine
 10
338.59884953503
 20
130.3374694210981
 30
0.0
 11
338.59884953503
 21
130.4912438166832
 31
0.0
  0
LINE
  5
1AB
330
1F
100
AcDbEntity
  8
0
  6
Continuous
 62
     7
370
    15
100
AcDbLine
 10
345.5988497510968
 20
131.9143568647598
 30
0.0
 11
345.5988497510968
 21
134.837469227383
 31
0.0
  0
LINE
  5
1AC
330
1F
100
AcDbEntity
  8
0
  6
Continuous
 62
     7
370
    15
100
AcDbLine
 10
345.5988497510968
 20
131.8374687356447
 30
0.0
 11
345.5988497510968
 21
131.9143568647598
 31
0.0
  0
LINE
  5
1AD
330
1F
100
AcDbEntity
  8
0
  6
Continuous
 62
     7
370
    15
100
AcDbLine
 10
364.5988500714718
 20
136.3374685419296
 30
0.0
 11
364.5988500714718
 21
130.3374694210981
 31
0.0
  0
LINE
  5
1AE
330
1F
100
AcDbEntity
  8
0
  6
Continuous
 62
     7
370
    15
100
AcDbLine
 10
357.5988498554049
 20
134.837469227383
 30
0.0
 11
357.5988498554049
 21
131.8374687356447
 31
0.0
  0
LINE
  5
1AF
330
1F
100
AcDbEntity
  8
0
  6
Continuous
 62
     7
370
    15
100
AcDbLine
 10
365.1488500684915
 20
123.9081790221427
 30
0.0
 11
365.1488500684915
 21
126.9081795138811
 31
0.0
  0
LINE
  5
1B0
330
1F
100
AcDbEntity
  8
0
  6
Continuous
 62
     7
370
    15
100
AcDbLine
 10
338.0488495380102
 20
126.9081795138811
 30
0.0
 11
338.0488495380102
 21
123.9081790221427
 31
0.0
  0
ARC
  5
1B1
330
1F
100
AcDbEntity
  8
0
  6
Continuous
 62
     7
370
    15
100
AcDbCircle
 10
351.361770233181
 20
520.6857696024923
 30
0.0
 40
365.2171062390164
100
AcDbArc
 50
269.0068396438821
 51
270.9931603561195
  0
SPLINE
  5
1B2
330
1F
100
AcDbEntity
  8
0
  6
Continuous
 62
     7
370
    15
100
AcDbSpline
210
0.0
220
0.0
230
1.0
 70
     8
 71
     3
 72
    23
 73
    19
 74
     0
 42
0.0000000001
 43
0.0000000001
 40
0.0
 40
0.0
 40
0.0
 40
0.0
 40
0.032144994683599
 40
0.0700779798743858
 40
0.1079779762691654
 40
0.1853209710939929
 40
0.2626639880968414
 40
0.3383997598359653
 40
0.4111125956535974
 40
0.4797160887124038
 40
0.5483195835847269
 40
0.621032405400562
 40
0.6589653911144252
 40
0.6968654297112567
 40
0.7742084467141052
 40
0.8515514415389326
 40
0.9272871697052041
 40
1.0
 40
1.0
 40
1.0
 40
1.0
 10
345.6410870925008
 20
155.4941145253872
 30
0.0
 10
345.6833726386942
 20
155.4930167946071
 30
0.0
 10
345.7755576175466
 20
155.4906236769143
 30
0.0
 10
346.0281504097063
 20
155.4871820836827
 30
0.0
 10
346.4355091596601
 20
155.4825162761713
 30
0.0
 10
347.0895660562709
 20
155.4772180964568
 30
0.0
 10
348.048272828968
 20
155.4720687920591
 30
0.0
 10
349.1237976296602
 20
155.4683897467864
 30
0.0
 10
350.2419821040568
 20
155.4662690923359
 30
0.0
 10
351.3617999872403
 20
155.4655867516855
 30
0.0
 10
352.4814356770022
 20
155.466269236583
 30
0.0
 10
353.4053571345121
 20
155.4680199096532
 30
0.0
 10
354.1266052343144
 20
155.4701949298314
 30
0.0
 10
354.8320989682643
 20
155.4729110342709
 30
0.0
 10
355.6355944969028
 20
155.4772188485345
 30
0.0
 10
356.4111398384238
 20
155.4835582645218
 30
0.0
 10
356.9815466410274
 20
155.4906486081623
 30
0.0
 10
357.1695265651147
 20
155.4957380628094
 30
0.0
 10
357.2616025843142
 20
155.498230971167
 30
0.0
  0
LINE
  5
1B3
330
1F
100
AcDbEntity
  8
0
  6
Continuous
 62
     7
370
    15
100
AcDbLine
 10
336.7554399222551
 20
133.3790478778576
 30
0.0
 11
338.59884953503
 21
133.3790478778576
 31
0.0
  0
SPLINE
  5
1B4
330
1F
100
AcDbEntity
  8
0
  6
Continuous
 62
     7
370
    15
100
AcDbSpline
210
0.0
220
0.0
230
1.0
 70
     8
 71
     3
 72
     9
 73
     5
 74
     0
 42
0.0000000001
 43
0.0000000001
 40
0.0
 40
0.0
 40
0.0
 40
0.0
 40
0.9927876207896783
 40
1.0
 40
1.0
 40
1.0
 40
1.0
 10
339.3881687000809
 20
129.3851064068769
 30
0.0
 10
339.4433277432891
 20
129.7127409235512
 30
0.0
 10
339.4988875045644
 20
130.0427556314437
 30
0.0
 10
339.5148041119105
 20
130.3753965560895
 30
0.0
 10
339.5149189085184
 20
130.377795688579
 30
0.0
  0
LINE
  5
1B5
330
1F
100
AcDbEntity
  8
0
  6
Continuous
 62
     7
370
    15
100
AcDbLine
 10
339.3881687000809
 20
129.3851064068769
 30
0.0
 11
336.7554399222551
 21
129.3851064068769
 31
0.0
  0
SPLINE
  5
1B6
330
1F
100
AcDbEntity
  8
0
  6
Continuous
 62
     7
370
    15
100
AcDbSpline
210
0.0
220
0.0
230
1.0
 70
     8
 71
     3
 72
     9
 73
     5
 74
     0
 42
0.0000000001
 43
0.0000000001
 40
0.0
 40
0.0
 40
0.0
 40
0.0
 40
0.4970407027433236
 40
1.0
 40
1.0
 40
1.0
 40
1.0
 10
336.7554399222551
 20
133.3790478778576
 30
0.0
 10
336.6905605763403
 20
132.7173493498371
 30
0.0
 10
336.5600293229508
 20
131.3860730089491
 30
0.0
 10
336.6900465494059
 20
130.0547218501223
 30
0.0
 10
336.7554399222551
 20
129.3851064068769
 30
0.0
  0
SPLINE
  5
1B7
330
1F
100
AcDbEntity
  8
0
  6
Continuous
 62
     7
370
    15
100
AcDbSpline
210
0.0
220
0.0
230
1.0
 70
     8
 71
     3
 72
     9
 73
     5
 74
     0
 42
0.0000000001
 43
0.0000000001
 40
0.0
 40
0.0
 40
0.0
 40
0.0
 40
0.9985948437137247
 40
1.0
 40
1.0
 40
1.0
 40
1.0
 10
336.7554399222551
 20
129.3851064068769
 30
0.0
 10
336.668855432889
 20
129.3870088305171
 30
0.0
 10
336.5821491075847
 20
129.3889139311213
 30
0.0
 10
336.6252912322825
 20
129.3911233713904
 30
0.0
 10
336.6253518537102
 20
129.3911264759992
 30
0.0
  0
SPLINE
  5
1B8
330
1F
100
AcDbEntity
  8
0
  6
Continuous
 62
     7
370
    15
100
AcDbSpline
210
0.0
220
0.0
230
1.0
 70
     8
 71
     3
 72
     9
 73
     5
 74
     0
 42
0.0000000001
 43
0.0000000001
 40
0.0
 40
0.0
 40
0.0
 40
0.0
 40
0.4970405384333168
 40
1.0
 40
1.0
 40
1.0
 40
1.0
 10
336.7554399222551
 20
137.3971720708107
 30
0.0
 10
336.6905605904427
 20
137.3951693478892
 30
0.0
 10
336.560029322275
 20
137.3911400529592
 30
0.0
 10
336.6900465349658
 20
137.3871078254692
 30
0.0
 10
336.7554399222551
 20
137.3850797785019
 30
0.0
  0
SPLINE
  5
1B9
330
1F
100
AcDbEntity
  8
0
  6
Continuous
 62
     7
370
    15
100
AcDbSpline
210
0.0
220
0.0
230
1.0
 70
     8
 71
     3
 72
     9
 73
     5
 74
     0
 42
0.0000000001
 43
0.0000000001
 40
0.0
 40
0.0
 40
0.0
 40
0.0
 40
0.5
 40
1.0
 40
1.0
 40
1.0
 40
1.0
 10
336.7554399222551
 20
137.3850797785019
 30
0.0
 10
336.6903027557252
 20
136.7174077950611
 30
0.0
 10
336.5600284226654
 20
135.3820638281797
 30
0.0
 10
336.6903027557252
 20
134.0467198612983
 30
0.0
 10
336.7554399222551
 20
133.3790478778576
 30
0.0
  0
LINE
  5
1BA
330
1F
100
AcDbEntity
  8
0
  6
Continuous
 62
     7
370
    15
100
AcDbLine
 10
336.598850138527
 20
135.3198477549051
 30
0.0
 11
336.598850138527
 21
129.516139767835
 31
0.0
  0
LINE
  5
1BB
330
1F
100
AcDbEntity
  8
0
  6
Continuous
 62
     7
370
    15
100
AcDbLine
 10
336.598850138527
 20
137.2661387098526
 30
0.0
 11
336.598850138527
 21
135.3198477549051
 31
0.0
  0
SPLINE
  5
1BC
330
1F
100
AcDbEntity
  8
0
  6
Continuous
 62
     7
370
    15
100
AcDbSpline
210
0.0
220
0.0
230
1.0
 70
     8
 71
     3
 72
    11
 73
     7
 74
     0
 42
0.0000000001
 43
0.0000000001
 40
0.0
 40
0.0
 40
0.0
 40
0.0
 40
0.2474072610045091
 40
0.4947242871057965
 40
0.7473137604799564
 40
1.0
 40
1.0
 40
1.0
 40
1.0
 10
339.3881687000809
 20
137.3850797785019
 30
0.0
 10
339.4356298799067
 20
137.3860730824313
 30
0.0
 10
339.5305349294155
 20
137.3880593280102
 30
0.0
 10
339.577376419427
 20
137.3910841198639
 30
0.0
 10
339.5331425842126
 20
137.3941291429887
 30
0.0
 10
339.436499497548
 20
137.3961576320436
 30
0.0
 10
339.3881687000809
 20
137.3971720708107
 30
0.0
  0
SPLINE
  5
1BD
330
1F
100
AcDbEntity
  8
0
  6
Continuous
 62
     7
370
    15
100
AcDbSpline
210
0.0
220
0.0
230
1.0
 70
     8
 71
     3
 72
     9
 73
     5
 74
     0
 42
0.0000000001
 43
0.0000000001
 40
0.0
 40
0.0
 40
0.0
 40
0.0
 40
0.4923339634516268
 40
1.0
 40
1.0
 40
1.0
 40
1.0
 10
339.5608200729309
 20
129.3911264759992
 30
0.0
 10
339.5525818650527
 20
129.3901341107027
 30
0.0
 10
339.5358488982257
 20
129.388118476255
 30
0.0
 10
339.4378960395921
 20
129.3861206403251
 30
0.0
 10
339.3881687000809
 20
129.3851064068769
 30
0.0
  0
SPLINE
  5
1BE
330
1F
100
AcDbEntity
  8
0
  6
Continuous
 62
     7
370
    15
100
AcDbSpline
210
0.0
220
0.0
230
1.0
 70
     8
 71
     3
 72
     9
 73
     5
 74
     0
 42
0.0000000001
 43
0.0000000001
 40
0.0
 40
0.0
 40
0.0
 40
0.0
 40
0.0437835441595458
 40
1.0
 40
1.0
 40
1.0
 40
1.0
 10
339.5183843598185
 20
136.3374685419296
 30
0.0
 10
339.5177067168384
 20
136.3528377725422
 30
0.0
 10
339.5022296011057
 20
136.703865331129
 30
0.0
 10
339.4439227094097
 20
137.0520959399346
 30
0.0
 10
339.3881687000809
 20
137.3850797785019
 30
0.0
  0
LINE
  5
1BF
330
1F
100
AcDbEntity
  8
0
  6
Continuous
 62
     7
370
    15
100
AcDbLine
 10
339.3881687000809
 20
137.3850797785019
 30
0.0
 11
336.7554399222551
 21
137.3850797785019
 31
0.0
  0
LINE
  5
1C0
330
1F
100
AcDbEntity
  8
0
  6
Continuous
 62
     7
370
    15
100
AcDbLine
 10
339.3881687000809
 20
137.3971720708107
 30
0.0
 11
336.7554399222551
 21
137.3971720708107
 31
0.0
  0
LINE
  5
1C1
330
1F
100
AcDbEntity
  8
0
  6
Continuous
 62
     7
370
    15
100
AcDbLine
 10
364.5988500714718
 20
133.3790478778576
 30
0.0
 11
366.4422596842466
 21
133.3790478778576
 31
0.0
  0
SPLINE
  5
1C2
330
1F
100
AcDbEntity
  8
0
  6
Continuous
 62
     7
370
    15
100
AcDbSpline
210
0.0
220
0.0
230
1.0
 70
     8
 71
     3
 72
     9
 73
     5
 74
     0
 42
0.0000000001
 43
0.0000000001
 40
0.0
 40
0.0
 40
0.0
 40
0.0
 40
0.9438313618914175
 40
1.0
 40
1.0
 40
1.0
 40
1.0
 10
363.8095309064208
 20
137.3850797785019
 30
0.0
 10
363.7550059137101
 20
137.0564065706497
 30
0.0
 10
363.6972360674089
 20
136.7081735905616
 30
0.0
 10
363.6811933042236
 20
136.3571831944674
 30
0.0
 10
363.680292204064
 20
136.3374685419296
 30
0.0
  0
LINE
  5
1C3
330
1F
100
AcDbEntity
  8
0
  6
Continuous
 62
     7
370
    15
100
AcDbLine
 10
363.8095309064208
 20
137.3850797785019
 30
0.0
 11
366.4422596842466
 21
137.3850797785019
 31
0.0
  0
SPLINE
  5
1C4
330
1F
100
AcDbEntity
  8
0
  6
Continuous
 62
     7
370
    15
100
AcDbSpline
210
0.0
220
0.0
230
1.0
 70
     8
 71
     3
 72
     9
 73
     5
 74
     0
 42
0.0000000001
 43
0.0000000001
 40
0.0
 40
0.0
 40
0.0
 40
0.0
 40
0.4970402729790721
 40
1.0
 40
1.0
 40
1.0
 40
1.0
 10
366.4422596842466
 20
133.3790478778576
 30
0.0
 10
366.5071389932758
 20
134.0427486368644
 30
0.0
 10
366.6376702853185
 20
135.3780544361891
 30
0.0
 10
366.507653094865
 20
136.7134364203032
 30
0.0
 10
366.4422596842466
 20
137.3850797785019
 30
0.0
  0
LINE
  5
1C5
330
1F
100
AcDbEntity
  8
0
  6
Continuous
 62
     7
370
    15
100
AcDbLine
 10
366.5711770803152
 20
129.3911264759992
 30
0.0
 11
366.4422596842466
 21
129.3851064068769
 31
0.0
  0
SPLINE
  5
1C6
330
1F
100
AcDbEntity
  8
0
  6
Continuous
 62
     7
370
    15
100
AcDbSpline
210
0.0
220
0.0
230
1.0
 70
     8
 71
     3
 72
     9
 73
     5
 74
     0
 42
0.0000000001
 43
0.0000000001
 40
0.0
 40
0.0
 40
0.0
 40
0.0
 40
0.4999998261946656
 40
0.9999999999999998
 40
0.9999999999999998
 40
0.9999999999999998
 40
0.9999999999999998
 10
366.4422596842466
 20
129.3851064068769
 30
0.0
 10
366.5073968356816
 20
130.0507629687405
 30
0.0
 10
366.6376711838363
 20
131.3820765552464
 30
0.0
 10
366.5073968658715
 20
132.7133906160608
 30
0.0
 10
366.4422596842466
 20
133.3790478778576
 30
0.0
  0
SPLINE
  5
1C7
330
1F
100
AcDbEntity
  8
0
  6
Continuous
 62
     7
370
    15
100
AcDbSpline
210
0.0
220
0.0
230
1.0
 70
     8
 71
     3
 72
     9
 73
     5
 74
     0
 42
0.0000000001
 43
0.0000000001
 40
0.0
 40
0.0
 40
0.0
 40
0.0
 40
0.497040555853706
 40
1.0
 40
1.0
 40
1.0
 40
1.0
 10
366.4422596842466
 20
137.3850797785019
 30
0.0
 10
366.5071390175542
 20
137.3870825013887
 30
0.0
 10
366.637670284155
 20
137.3911117961076
 30
0.0
 10
366.507653070005
 20
137.3951440238078
 30
0.0
 10
366.4422596842466
 20
137.3971720708107
 30
0.0
  0
LINE
  5
1C8
330
1F
100
AcDbEntity
  8
0
  6
Continuous
 62
     7
370
    15
100
AcDbLine
 10
366.5988494679747
 20
129.516139767835
 30
0.0
 11
366.5988494679747
 21
137.2661387098526
 31
0.0
  0
SPLINE
  5
1C9
330
1F
100
AcDbEntity
  8
0
  6
Continuous
 62
     7
370
    15
100
AcDbSpline
210
0.0
220
0.0
230
1.0
 70
     8
 71
     3
 72
    11
 73
     7
 74
     0
 42
0.0000000001
 43
0.0000000001
 40
0.0
 40
0.0
 40
0.0
 40
0.0
 40
0.2474072360392653
 40
0.4947242697867801
 40
0.7473137355133263
 40
1.0
 40
1.0
 40
1.0
 40
1.0
 10
363.8095309064208
 20
137.3971720708107
 30
0.0
 10
363.7620697263307
 20
137.3961787668393
 30
0.0
 10
363.667164670039
 20
137.3941925210456
 30
0.0
 10
363.6203231872182
 20
137.3911677296196
 30
0.0
 10
363.6645570291717
 20
137.3881227060659
 30
0.0
 10
363.7612001091692
 20
137.3860942172266
 30
0.0
 10
363.8095309064208
 20
137.3850797785019
 30
0.0
  0
LINE
  5
1CA
330
1F
100
AcDbEntity
  8
0
  6
Continuous
 62
     7
370
    15
100
AcDbLine
 10
363.6882848143993
 20
130.3301641268228
 30
0.0
 11
363.8095309064208
 21
129.3851064068769
 31
0.0
  0
SPLINE
  5
1CB
330
1F
100
AcDbEntity
  8
0
  6
Continuous
 62
     7
370
    15
100
AcDbSpline
210
0.0
220
0.0
230
1.0
 70
     8
 71
     3
 72
    10
 73
     6
 74
     0
 42
0.0000000001
 43
0.0000000001
 40
0.0
 40
0.0
 40
0.0
 40
0.0
 40
0.497058671054191
 40
0.9939361197054907
 40
1.0
 40
1.0
 40
1.0
 40
1.0
 10
363.8095309064208
 20
129.3851064068769
 30
0.0
 10
363.7642479604316
 20
129.3860948883242
 30
0.0
 10
363.6736985781427
 20
129.3880714908286
 30
0.0
 10
363.6205937274503
 20
129.3901346297132
 30
0.0
 10
363.6358766375126
 20
129.3911128194821
 30
0.0
 10
363.6360609010278
 20
129.3911246133541
 30
0.0
  0
LINE
  5
1CC
330
1F
100
AcDbEntity
  8
0
  6
Continuous
 62
     7
370
    15
100
AcDbLine
 10
363.8095309064208
 20
129.3851064068769
 30
0.0
 11
366.4422596842466
 21
129.3851064068769
 31
0.0
  0
LINE
  5
1CD
330
1F
100
AcDbEntity
  8
0
  6
Continuous
 62
     7
370
    15
100
AcDbLine
 10
363.8095309064208
 20
137.3971720708107
 30
0.0
 11
366.4422596842466
 21
137.3971720708107
 31
0.0
  0
LINE
  5
1CE
330
1F
100
AcDbEntity
  8
0
  6
Continuous
 62
     7
370
    15
100
AcDbLine
 10
349.7153235869898
 20
151.1189585102295
 30
0.0
 11
343.2754895687519
 21
144.6792615128254
 31
0.0
  0
ARC
  5
1CF
330
1F
100
AcDbEntity
  8
0
  6
Continuous
 62
     7
370
    15
100
AcDbCircle
 10
349.3617942894902
 20
151.4725019545801
 30
0.0
 40
0.499975930654495
100
AcDbArc
 50
314.9988536471433
 51
0.0001725986232526
  0
ARC
  5
1D0
330
1F
100
AcDbEntity
  8
0
  6
Continuous
 62
     7
370
    15
100
AcDbCircle
 10
349.3618545919527
 20
151.4725069931715
 30
0.0
 40
2.499915635875646
100
AcDbArc
 50
314.9991990284692
 51
359.9999190393219
  0
LINE
  5
1D1
330
1F
100
AcDbEntity
  8
0
  6
Continuous
 62
     7
370
    15
100
AcDbLine
 10
344.6897028983055
 20
143.2650817108845
 30
0.0
 11
351.1295371784779
 21
149.7047749829983
 31
0.0
  0
ARC
  5
1D2
330
1F
100
AcDbEntity
  8
0
  6
Continuous
 62
     7
370
    15
100
AcDbCircle
 10
345.0432489232031
 20
142.9115311730537
 30
0.0
 40
0.499992774469092
100
AcDbArc
 50
134.9996343186614
 51
179.9997866211113
  0
LINE
  5
1D3
330
1F
100
AcDbEntity
  8
0
  6
Continuous
 62
     7
370
    15
100
AcDbLine
 10
344.5432561487375
 20
133.3044433516954
 30
0.0
 11
344.5432561487375
 21
142.9115330351089
 31
0.0
  0
LINE
  5
1D4
330
1F
100
AcDbEntity
  8
0
  6
Continuous
 62
     7
370
    15
100
AcDbLine
 10
342.5432567522345
 20
142.9115330351089
 30
0.0
 11
342.5432567522345
 21
133.3044433516954
 31
0.0
  0
ARC
  5
1D5
330
1F
100
AcDbEntity
  8
0
  6
Continuous
 62
     7
370
    15
100
AcDbCircle
 10
345.043166521882
 20
142.911532165399
 30
0.0
 40
2.499909769647654
100
AcDbArc
 50
134.9991508834385
 51
179.9999800669983
  0
LINE
  5
1D6
330
1F
100
AcDbEntity
  8
0
  6
Continuous
 62
     7
370
    15
100
AcDbLine
 10
349.8617702201424
 20
155.4672477317547
 30
0.0
 11
349.8617702201424
 21
151.4725034607147
 31
0.0
  0
LINE
  5
1D7
330
1F
100
AcDbEntity
  8
0
  6
Continuous
 62
     7
370
    15
100
AcDbLine
 10
351.8617702278258
 20
151.4725034607147
 30
0.0
 11
351.8617702278258
 21
155.4661115182136
 31
0.0
  0
ARC
  5
1D8
330
1F
100
AcDbEntity
  8
0
  6
Continuous
 62
     7
370
    15
100
AcDbCircle
 10
349.3617773215706
 20
151.5385583800832
 30
0.0
 40
0.4999928986023735
100
AcDbArc
 50
314.9996590725125
 51
359.9993671732495
  0
LINE
  5
1D9
330
1F
100
AcDbEntity
  8
0
  6
Continuous
 62
     7
370
    15
100
AcDbLine
 10
343.2754895687519
 20
144.7453146351074
 30
0.0
 11
349.7153235869898
 21
151.1850079072212
 31
0.0
  0
LINE
  5
1DA
330
1F
100
AcDbEntity
  8
0
  6
Continuous
 62
     7
370
    15
100
AcDbLine
 10
342.5432567522345
 20
142.977686740229
 30
0.0
 11
342.5432567522345
 21
142.9115330351089
 31
0.0
  0
LINE
  5
1DB
330
1F
100
AcDbEntity
  8
0
  6
Continuous
 62
     7
370
    15
100
AcDbLine
 10
342.5432567522345
 20
142.977686740229
 30
0.0
 11
342.5742912143884
 21
143.3702764583324
 31
0.0
  0
ARC
  5
1DC
330
1F
100
AcDbEntity
  8
0
  6
Continuous
 62
     7
370
    15
100
AcDbCircle
 10
345.043177787543
 20
142.9775785307759
 30
0.0
 40
2.499922513481131
100
AcDbArc
 50
134.9992239575474
 51
170.9623162177112
  0
LINE
  5
1DD
330
1F
100
AcDbEntity
  8
0
  6
Continuous
 62
     7
370
    15
100
AcDbLine
 10
342.5432567522345
 20
133.3044433516954
 30
0.0
 11
342.5432567522345
 21
128.3375789893364
 31
0.0
  0
LINE
  5
1DE
330
1F
100
AcDbEntity
  8
0
  6
Continuous
 62
     7
370
    15
100
AcDbLine
 10
344.5432561487375
 20
133.3044433516954
 30
0.0
 11
344.5432561487375
 21
128.3375789893364
 31
0.0
  0
SPLINE
  5
1DF
330
1F
100
AcDbEntity
  8
0
  6
Continuous
 62
     7
370
    15
100
AcDbSpline
210
0.0
220
0.0
230
1.0
 70
     8
 71
     3
 72
    10
 73
     6
 74
     0
 42
0.0000000001
 43
0.0000000001
 40
0.0
 40
0.0
 40
0.0
 40
0.0
 40
0.2724355349697915
 40
0.7247683909365291
 40
1.0
 40
1.0
 40
1.0
 40
1.0
 10
342.5432567522345
 20
128.3477527571415
 30
0.0
 10
342.5537493858511
 20
128.3026346105516
 30
0.0
 10
342.5816632524608
 20
128.1826054575648
 30
0.0
 10
342.8146407567725
 20
128.0250319895721
 30
0.0
 10
343.1002014239829
 20
127.9383689303711
 30
0.0
 10
343.2082266584454
 20
127.905585013101
 30
0.0
  0
LINE
  5
1E0
330
1F
100
AcDbEntity
  8
0
  6
Continuous
 62
     7
370
    15
100
AcDbLine
 10
343.208227589768
 20
127.905585013101
 30
0.0
 11
343.2754895687519
 21
127.8887578768228
 31
0.0
  0
LINE
  5
1E1
330
1F
100
AcDbEntity
  8
0
  6
Continuous
 62
     7
370
    15
100
AcDbLine
 10
344.6762504093765
 20
128.3617021066641
 30
0.0
 11
344.6897028983055
 21
128.3636578840708
 31
0.0
  0
SPLINE
  5
1E2
330
1F
100
AcDbEntity
  8
0
  6
Continuous
 62
     7
370
    15
100
AcDbSpline
210
0.0
220
0.0
230
1.0
 70
     8
 71
     3
 72
    12
 73
     8
 74
     0
 42
0.0000000001
 43
0.0000000001
 40
0.0
 40
0.0
 40
0.0
 40
0.0
 40
0.1767904868339769
 40
0.4230124648720515
 40
0.545979607621394
 40
0.7718111693332551
 40
1.0
 40
1.0
 40
1.0
 40
1.0
 10
344.5618565231977
 20
128.3493006152605
 30
0.0
 10
344.5656570022471
 20
128.3495739306908
 30
0.0
 10
344.5747505345925
 20
128.3502279015911
 30
0.0
 10
344.5927452650586
 20
128.3517848754257
 30
0.0
 10
344.6154241915799
 20
128.3540659852841
 30
0.0
 10
344.640600142393
 20
128.3568562175959
 30
0.0
 10
344.6643259257121
 20
128.3600812289001
 30
0.0
 10
344.6762504093765
 20
128.3617021066641
 30
0.0
  0
SPLINE
  5
1E3
330
1F
100
AcDbEntity
  8
0
  6
Continuous
 62
     7
370
    15
100
AcDbSpline
210
0.0
220
0.0
230
1.0
 70
     8
 71
     3
 72
    11
 73
     7
 74
     0
 42
0.0000000001
 43
0.0000000001
 40
0.0
 40
0.0
 40
0.0
 40
0.0
 40
0.2724516798028239
 40
0.5217453871070977
 40
0.9517562348027224
 40
1.0
 40
1.0
 40
1.0
 40
1.0
 10
344.5432561487375
 20
140.4602584911083
 30
0.0
 10
344.5453318064693
 20
140.4265711942888
 30
0.0
 10
344.5493066942278
 20
140.3620599689133
 30
0.0
 10
344.5879072085995
 20
140.2490052427992
 30
0.0
 10
344.6403863155115
 20
140.1673077278818
 30
0.0
 10
344.6851839524936
 20
140.1182486691017
 30
0.0
 10
344.6897028983055
 20
140.1132998538708
 30
0.0
  0
LINE
  5
1E4
330
1F
100
AcDbEntity
  8
0
  6
Continuous
 62
     7
370
    15
100
AcDbLine
 10
343.2754895687519
 20
127.8887578768228
 30
0.0
 11
344.6897028983055
 21
128.3636578840708
 31
0.0
  0
ARC
  5
1E5
330
1F
100
AcDbEntity
  8
0
  6
Continuous
 62
     7
370
    15
100
AcDbCircle
 10
347.8721426060129
 20
142.943076770189
 30
0.0
 40
4.258586607000087
100
AcDbArc
 50
221.6430080636718
 51
249.6680151389772
  0
LINE
  5
1E6
330
1F
100
AcDbEntity
  8
0
  6
Continuous
 62
     7
370
    15
100
AcDbLine
 10
344.6897028983055
 20
128.3636578840708
 30
0.0
 11
346.3924576566039
 21
128.6174302471374
 31
0.0
  0
LINE
  5
1E7
330
1F
100
AcDbEntity
  8
0
  6
Continuous
 62
     7
370
    15
100
AcDbLine
 10
344.978243861389
 20
128.1425283772444
 30
0.0
 11
346.3924576566039
 21
128.6174302471374
 31
0.0
  0
LINE
  5
1E8
330
1F
100
AcDbEntity
  8
0
  6
Continuous
 62
     7
370
    15
100
AcDbLine
 10
343.2754895687519
 20
127.8887578768228
 30
0.0
 11
344.978243861389
 21
128.1425283772444
 31
0.0
  0
SPLINE
  5
1E9
330
1F
100
AcDbEntity
  8
0
  6
Continuous
 62
     7
370
    15
100
AcDbSpline
210
0.0
220
0.0
230
1.0
 70
     8
 71
     3
 72
    10
 73
     6
 74
     0
 42
0.0000000001
 43
0.0000000001
 40
0.0
 40
0.0
 40
0.0
 40
0.0
 40
0.2572330099923235
 40
0.6860603556248962
 40
1.0
 40
1.0
 40
1.0
 40
1.0
 10
346.3924576566039
 20
138.9498209131454
 30
0.0
 10
346.5036938026384
 20
138.9076159707508
 30
0.0
 10
346.8003692173103
 20
138.7950521213863
 30
0.0
 10
347.0734143561975
 20
138.5921189934642
 30
0.0
 10
347.1094567219663
 20
138.4355565026413
 30
0.0
 10
347.1246904731212
 20
138.3693834317421
 30
0.0
  0
LINE
  5
1EA
330
1F
100
AcDbEntity
  8
0
  6
Continuous
 62
     7
370
    15
100
AcDbLine
 10
347.1246904731212
 20
128.1584353668188
 30
0.0
 11
347.1246904731212
 21
131.1591231746172
 31
0.0
  0
LINE
  5
1EB
330
1F
100
AcDbEntity
  8
0
  6
Continuous
 62
     7
370
    15
100
AcDbLine
 10
347.1246904731212
 20
135.6231571657156
 30
0.0
 11
347.1246904731212
 21
138.3693834317421
 31
0.0
  0
SPLINE
  5
1EC
330
1F
100
AcDbEntity
  8
0
  6
Continuous
 62
     7
370
    15
100
AcDbSpline
210
0.0
220
0.0
230
1.0
 70
     8
 71
     3
 72
    10
 73
     6
 74
     0
 42
0.0000000001
 43
0.0000000001
 40
0.0
 40
0.0
 40
0.0
 40
0.0
 40
0.2569478488021176
 40
0.686997551996506
 40
1.0
 40
1.0
 40
1.0
 40
1.0
 10
346.3924576566039
 20
128.6174302471374
 30
0.0
 10
346.503574089757
 20
128.5866974605891
 30
0.0
 10
346.8006644056271
 20
128.5045276770195
 30
0.0
 10
347.0735789495367
 20
128.3425056649673
 30
0.0
 10
347.109541604857
 20
128.2129916880249
 30
0.0
 10
347.1246904731212
 20
128.1584353668188
 30
0.0
  0
LINE
  5
1ED
330
1F
100
AcDbEntity
  8
0
  6
Continuous
 62
     7
370
    15
100
AcDbLine
 10
345.3807628751217
 20
128.1584353668188
 30
0.0
 11
347.1246904731212
 21
128.1584353668188
 31
0.0
  0
SPLINE
  5
1EE
330
1F
100
AcDbEntity
  8
0
  6
Continuous
 62
     7
370
    15
100
AcDbSpline
210
0.0
220
0.0
230
1.0
 70
     8
 71
     3
 72
    10
 73
     6
 74
     0
 42
0.0000000001
 43
0.0000000001
 40
0.0
 40
0.0
 40
0.0
 40
0.0
 40
0.5139566838081318
 40
0.7697327412219334
 40
1.0
 40
1.0
 40
1.0
 40
1.0
 10
344.978243861389
 20
128.1425283772444
 30
0.0
 10
345.0042595472924
 20
128.1460656706317
 30
0.0
 10
345.0432222183814
 20
128.1513633360212
 30
0.0
 10
345.079410019577
 20
128.1547926442974
 30
0.0
 10
345.0921913642813
 20
128.1558184950363
 30
0.0
 10
345.0982466377733
 20
128.1563045007681
 30
0.0
  0
LINE
  5
1EF
330
1F
100
AcDbEntity
  8
0
  6
Continuous
 62
     7
370
    15
100
AcDbLine
 10
361.1802843437014
 20
142.9115330351089
 30
0.0
 11
361.1802843437014
 21
133.3044433516954
 31
0.0
  0
LINE
  5
1F0
330
1F
100
AcDbEntity
  8
0
  6
Continuous
 62
     7
370
    15
100
AcDbLine
 10
359.1802840158759
 20
133.3044433516954
 30
0.0
 11
359.1802840158759
 21
142.9115330351089
 31
0.0
  0
ARC
  5
1F1
330
1F
100
AcDbEntity
  8
0
  6
Continuous
 62
     7
370
    15
100
AcDbCircle
 10
358.6802911001881
 20
142.9115315802151
 30
0.0
 40
0.499992915689886
100
AcDbArc
 50
0.0001667209181012
 51
45.0002835135799
  0
LINE
  5
1F2
330
1F
100
AcDbEntity
  8
0
  6
Continuous
 62
     7
370
    15
100
AcDbLine
 10
359.0338377319692
 20
143.2650817108845
 30
0.0
 11
352.59400324807
 21
149.7047749829983
 31
0.0
  0
ARC
  5
1F3
330
1F
100
AcDbEntity
  8
0
  6
Continuous
 62
     7
370
    15
100
AcDbCircle
 10
354.3616855172613
 20
151.4725068205661
 30
0.0
 40
2.499915289437735
100
AcDbArc
 50
180.0000770047334
 51
225.0008033171484
  0
ARC
  5
1F4
330
1F
100
AcDbEntity
  8
0
  6
Continuous
 62
     7
370
    15
100
AcDbCircle
 10
354.3617447482893
 20
151.4725015077848
 30
0.0
 40
0.4999745709915404
100
AcDbArc
 50
179.9997761993336
 51
225.0012297615669
  0
LINE
  5
1F5
330
1F
100
AcDbEntity
  8
0
  6
Continuous
 62
     7
370
    15
100
AcDbLine
 10
354.0082169268696
 20
151.1189585102295
 30
0.0
 11
360.4480515271841
 21
144.6792615128254
 31
0.0
  0
ARC
  5
1F6
330
1F
100
AcDbEntity
  8
0
  6
Continuous
 62
     7
370
    15
100
AcDbCircle
 10
358.6803669026189
 20
142.9115289877184
 30
0.0
 40
2.49991744108585
100
AcDbArc
 50
0.0000927624206005
 51
45.00077628714246
  0
LINE
  5
1F7
330
1F
100
AcDbEntity
  8
0
  6
Continuous
 62
     7
370
    15
100
AcDbLine
 10
353.8617701773016
 20
155.4694680047725
 30
0.0
 11
353.8617701773016
 21
151.4725034607147
 31
0.0
  0
ARC
  5
1F8
330
1F
100
AcDbEntity
  8
0
  6
Continuous
 62
     7
370
    15
100
AcDbCircle
 10
354.3617617161148
 20
151.5385579332544
 30
0.0
 40
0.4999915388389953
100
AcDbArc
 50
180.0005816248067
 51
225.0004243360961
  0
LINE
  5
1F9
330
1F
100
AcDbEntity
  8
0
  6
Continuous
 62
     7
370
    15
100
AcDbLine
 10
360.4480515271841
 20
144.7453146351074
 30
0.0
 11
354.0082169268696
 21
151.1850079072212
 31
0.0
  0
ARC
  5
1FA
330
1F
100
AcDbEntity
  8
0
  6
Continuous
 62
     7
370
    15
100
AcDbCircle
 10
358.6803545414986
 20
142.9775757323122
 30
0.0
 40
2.499930691370713
100
AcDbArc
 50
9.037718914243569
 51
45.0006793146729
  0
LINE
  5
1FB
330
1F
100
AcDbEntity
  8
0
  6
Continuous
 62
     7
370
    15
100
AcDbLine
 10
361.1802843437014
 20
142.977686740229
 30
0.0
 11
361.1492489502249
 21
143.3702764583324
 31
0.0
  0
LINE
  5
1FC
330
1F
100
AcDbEntity
  8
0
  6
Continuous
 62
     7
370
    15
100
AcDbLine
 10
361.1802843437014
 20
142.977686740229
 30
0.0
 11
361.1802843437014
 21
142.9115330351089
 31
0.0
  0
LINE
  5
1FD
330
1F
100
AcDbEntity
  8
0
  6
Continuous
 62
     7
370
    15
100
AcDbLine
 10
361.1802843437014
 20
133.3044433516954
 30
0.0
 11
361.1802843437014
 21
129.8038327617143
 31
0.0
  0
LINE
  5
1FE
330
1F
100
AcDbEntity
  8
0
  6
Continuous
 62
     7
370
    15
100
AcDbLine
 10
359.1802840158759
 20
133.3044433516954
 30
0.0
 11
359.1802840158759
 21
128.3375789893364
 31
0.0
  0
LINE
  5
1FF
330
1F
100
AcDbEntity
  8
0
  6
Continuous
 62
     7
370
    15
100
AcDbLine
 10
360.515313506168
 20
127.905585013101
 30
0.0
 11
360.4480515271841
 21
127.8887578768228
 31
0.0
  0
SPLINE
  5
200
330
1F
100
AcDbEntity
  8
0
  6
Continuous
 62
     7
370
    15
100
AcDbSpline
210
0.0
220
0.0
230
1.0
 70
     8
 71
     3
 72
     9
 73
     5
 74
     0
 42
0.0000000001
 43
0.0000000001
 40
0.0
 40
0.0
 40
0.0
 40
0.0
 40
0.5971268051845829
 40
1.0
 40
1.0
 40
1.0
 40
1.0
 10
361.0988494977771
 20
128.193074978659
 30
0.0
 10
361.0247064133168
 20
128.1280372159457
 30
0.0
 10
360.9005400154654
 20
128.0191193744612
 30
0.0
 10
360.625941776137
 20
127.9381894930009
 30
0.0
 10
360.515313506168
 20
127.905585013101
 30
0.0
  0
SPLINE
  5
201
330
1F
100
AcDbEntity
  8
0
  6
Continuous
 62
     7
370
    15
100
AcDbSpline
210
0.0
220
0.0
230
1.0
 70
     8
 71
     3
 72
    12
 73
     8
 74
     0
 42
0.0000000001
 43
0.0000000001
 40
0.0
 40
0.0
 40
0.0
 40
0.0
 40
0.1767903432924894
 40
0.4230128105240223
 40
0.5459790279595476
 40
0.7718113546065962
 40
1.0
 40
1.0
 40
1.0
 40
1.0
 10
359.161684107077
 20
128.3493006152605
 30
0.0
 10
359.157883675928
 20
128.3495739317198
 30
0.0
 10
359.1487902433818
 20
128.3502279061476
 30
0.0
 10
359.1307945932726
 20
128.351784861121
 30
0.0
 10
359.1081166936009
 20
128.3540660017671
 30
0.0
 10
359.0829398606834
 20
128.3568562042777
 30
0.0
 10
359.0592141682943
 20
128.3600812266984
 30
0.0
 10
359.0472897552369
 20
128.3617021066641
 30
0.0
  0
LINE
  5
202
330
1F
100
AcDbEntity
  8
0
  6
Continuous
 62
     7
370
    15
100
AcDbLine
 10
359.0472897552369
 20
128.3617021066641
 30
0.0
 11
359.0338377319692
 21
128.3636578840708
 31
0.0
  0
SPLINE
  5
203
330
1F
100
AcDbEntity
  8
0
  6
Continuous
 62
     7
370
    15
100
AcDbSpline
210
0.0
220
0.0
230
1.0
 70
     8
 71
     3
 72
    11
 73
     7
 74
     0
 42
0.0000000001
 43
0.0000000001
 40
0.0
 40
0.0
 40
0.0
 40
0.0
 40
0.2724516535448787
 40
0.5217454172787073
 40
0.951756835980781
 40
1.0
 40
1.0
 40
1.0
 40
1.0
 10
359.1802840158759
 20
140.4602584911083
 30
0.0
 10
359.1782085341019
 20
140.4265712035731
 30
0.0
 10
359.1742339826901
 20
140.3620599860291
 30
0.0
 10
359.1356336338759
 20
140.2490050244272
 30
0.0
 10
359.0831530927626
 20
140.1673083861189
 30
0.0
 10
359.0383565149159
 20
140.118248673682
 30
0.0
 10
359.0338377319692
 20
140.1132998538708
 30
0.0
  0
LINE
  5
204
330
1F
100
AcDbEntity
  8
0
  6
Continuous
 62
     7
370
    15
100
AcDbLine
 10
360.4480515271841
 20
127.8887578768228
 30
0.0
 11
359.0338377319692
 21
128.3636578840708
 31
0.0
  0
LINE
  5
205
330
1F
100
AcDbEntity
  8
0
  6
Continuous
 62
     7
370
    15
100
AcDbLine
 10
359.0338377319692
 20
128.3636578840708
 30
0.0
 11
357.3310829736708
 21
128.6174302471374
 31
0.0
  0
ARC
  5
206
330
1F
100
AcDbEntity
  8
0
  6
Continuous
 62
     7
370
    15
100
AcDbCircle
 10
355.8513980242618
 20
142.943076770189
 30
0.0
 40
4.258586607000087
100
AcDbArc
 50
290.3319848610244
 51
318.3569919363297
  0
LINE
  5
207
330
1F
100
AcDbEntity
  8
0
  6
Continuous
 62
     7
370
    15
100
AcDbLine
 10
360.4480515271841
 20
127.8887578768228
 30
0.0
 11
358.7452963032244
 21
128.1425283772444
 31
0.0
  0
LINE
  5
208
330
1F
100
AcDbEntity
  8
0
  6
Continuous
 62
     7
370
    15
100
AcDbLine
 10
358.7452963032244
 20
128.1425283772444
 30
0.0
 11
357.3310829736708
 21
128.6174302471374
 31
0.0
  0
SPLINE
  5
209
330
1F
100
AcDbEntity
  8
0
  6
Continuous
 62
     7
370
    15
100
AcDbSpline
210
0.0
220
0.0
230
1.0
 70
     8
 71
     3
 72
    10
 73
     6
 74
     0
 42
0.0000000001
 43
0.0000000001
 40
0.0
 40
0.0
 40
0.0
 40
0.0
 40
0.2569478242954339
 40
0.6869975818494587
 40
1.0
 40
1.0
 40
1.0
 40
1.0
 10
357.3310829736708
 20
128.6174302471374
 30
0.0
 10
357.2199665620162
 20
128.5866974580499
 30
0.0
 10
356.9228762623811
 20
128.5045276562837
 30
0.0
 10
356.6499611271476
 20
128.3425056922726
 30
0.0
 10
356.6139985323271
 20
128.2129916911907
 30
0.0
 10
356.5988496914922
 20
128.1584353668188
 30
0.0
  0
LINE
  5
20A
330
1F
100
AcDbEntity
  8
0
  6
Continuous
 62
     7
370
    15
100
AcDbLine
 10
356.5988496914922
 20
128.1584353668188
 30
0.0
 11
356.5988496914922
 21
138.3693834317421
 31
0.0
  0
SPLINE
  5
20B
330
1F
100
AcDbEntity
  8
0
  6
Continuous
 62
     7
370
    15
100
AcDbSpline
210
0.0
220
0.0
230
1.0
 70
     8
 71
     3
 72
    10
 73
     6
 74
     0
 42
0.0000000001
 43
0.0000000001
 40
0.0
 40
0.0
 40
0.0
 40
0.0
 40
0.2572331217375037
 40
0.6860604028553772
 40
1.0
 40
1.0
 40
1.0
 40
1.0
 10
357.3310829736708
 20
138.9498209131454
 30
0.0
 10
357.2198466484604
 20
138.907615977148
 30
0.0
 10
356.923170864368
 20
138.7950521859951
 30
0.0
 10
356.650125834411
 20
138.5921189863208
 30
0.0
 10
356.6140834503701
 20
138.4355565005191
 30
0.0
 10
356.5988496914922
 20
138.3693834317421
 30
0.0
  0
SPLINE
  5
20C
330
1F
100
AcDbEntity
  8
0
  6
Continuous
 62
     7
370
    15
100
AcDbSpline
210
0.0
220
0.0
230
1.0
 70
     8
 71
     3
 72
    10
 73
     6
 74
     0
 42
0.0000000001
 43
0.0000000001
 40
0.0
 40
0.0
 40
0.0
 40
0.0
 40
0.5139560481284735
 40
0.7697331804152392
 40
1.0
 40
1.0
 40
1.0
 40
1.0
 10
358.7452963032244
 20
128.1425283772444
 30
0.0
 10
358.7192809543823
 20
128.1460656743504
 30
0.0
 10
358.6803187176761
 20
128.1513633548845
 30
0.0
 10
358.6441299639733
 20
128.1547926358871
 30
0.0
 10
358.6313490448856
 20
128.155818493393
 30
0.0
 10
358.6252939925013
 20
128.1563045007681
 30
0.0
  0
LINE
  5
20D
330
1F
100
AcDbEntity
  8
0
  6
Continuous
 62
     7
370
    15
100
AcDbLine
 10
358.3427772894917
 20
128.1584353668188
 30
0.0
 11
356.5988496914922
 21
128.1584353668188
 31
0.0
  0
LINE
  5
20E
330
1F
100
AcDbEntity
  8
0
  6
Continuous
 62
     7
370
    15
100
AcDbLine
 10
361.0988494977771
 20
133.2958695960735
 30
0.0
 11
361.0988494977771
 21
129.8038327617143
 31
0.0
  0
LINE
  5
20F
330
1F
100
AcDbEntity
  8
0
  6
Continuous
 62
     7
370
    15
100
AcDbLine
 10
363.598849907559
 20
129.8038327617143
 30
0.0
 11
363.598849907559
 21
138.3374502433037
 31
0.0
  0
LINE
  5
210
330
1F
100
AcDbEntity
  8
0
  6
Continuous
 62
     7
370
    15
100
AcDbLine
 10
361.0988494977771
 20
129.8038327617143
 30
0.0
 11
361.0988494977771
 21
121.8745430482124
 31
0.0
  0
LINE
  5
211
330
1F
100
AcDbEntity
  8
0
  6
Continuous
 62
     7
370
    15
100
AcDbLine
 10
363.598849907559
 20
121.8745430482124
 30
0.0
 11
363.598849907559
 21
129.8038327617143
 31
0.0
  0
LINE
  5
212
330
1F
100
AcDbEntity
  8
0
  6
Continuous
 62
     7
370
    15
100
AcDbLine
 10
363.598849907559
 20
138.3911205006336
 30
0.0
 11
361.1802843437014
 21
138.3911205006336
 31
0.0
  0
LINE
  5
213
330
1F
100
AcDbEntity
  8
0
  6
Continuous
 62
     7
370
    15
100
AcDbLine
 10
363.598849907559
 20
138.3374502433037
 30
0.0
 11
363.598849907559
 21
138.3911205006336
 31
0.0
  0
LINE
  5
214
330
1F
100
AcDbEntity
  8
0
  6
Continuous
 62
     7
370
    15
100
AcDbLine
 10
361.0988494977771
 20
121.8745430482124
 30
0.0
 11
361.0988494977771
 21
120.4081793797706
 31
0.0
  0
LINE
  5
215
330
1F
100
AcDbEntity
  8
0
  6
Continuous
 62
     7
370
    15
100
AcDbLine
 10
363.598849907559
 20
120.4081793797706
 30
0.0
 11
363.598849907559
 21
121.8745430482124
 31
0.0
  0
LINE
  5
216
330
1F
100
AcDbEntity
  8
0
  6
Continuous
 62
     7
370
    15
100
AcDbLine
 10
342.0988501087247
 20
129.8038327617143
 30
0.0
 11
342.0988501087247
 21
138.3374502433037
 31
0.0
  0
LINE
  5
217
330
1F
100
AcDbEntity
  8
0
  6
Continuous
 62
     7
370
    15
100
AcDbLine
 10
339.5988496989427
 20
138.3374502433037
 30
0.0
 11
339.5988496989427
 21
129.8038327617143
 31
0.0
  0
LINE
  5
218
330
1F
100
AcDbEntity
  8
0
  6
Continuous
 62
     7
370
    15
100
AcDbLine
 10
339.5988496989427
 20
129.8038327617143
 30
0.0
 11
339.5988496989427
 21
121.8745430482124
 31
0.0
  0
LINE
  5
219
330
1F
100
AcDbEntity
  8
0
  6
Continuous
 62
     7
370
    15
100
AcDbLine
 10
342.0988501087247
 20
121.8745430482124
 30
0.0
 11
342.0988501087247
 21
129.8038327617143
 31
0.0
  0
LINE
  5
21A
330
1F
100
AcDbEntity
  8
0
  6
Continuous
 62
     7
370
    15
100
AcDbLine
 10
342.0988501087247
 20
138.3911205006336
 30
0.0
 11
339.5988496989427
 21
138.3911205006336
 31
0.0
  0
LINE
  5
21B
330
1F
100
AcDbEntity
  8
0
  6
Continuous
 62
     7
370
    15
100
AcDbLine
 10
339.5988496989427
 20
138.3911205006336
 30
0.0
 11
339.5988496989427
 21
138.3374502433037
 31
0.0
  0
LINE
  5
21C
330
1F
100
AcDbEntity
  8
0
  6
Continuous
 62
     7
370
    15
100
AcDbLine
 10
342.0988501087247
 20
138.3374502433037
 30
0.0
 11
342.0988501087247
 21
138.3802389276718
 31
0.0
  0
LINE
  5
21D
330
1F
100
AcDbEntity
  8
0
  6
Continuous
 62
     7
370
    15
100
AcDbLine
 10
339.5988496989427
 20
121.8745430482124
 30
0.0
 11
339.5988496989427
 21
120.4081793797706
 31
0.0
  0
LINE
  5
21E
330
1F
100
AcDbEntity
  8
0
  6
Continuous
 62
     7
370
    15
100
AcDbLine
 10
342.0988501087247
 20
120.4081793797706
 30
0.0
 11
342.0988501087247
 21
121.8745430482124
 31
0.0
  0
CIRCLE
  5
21F
330
1F
100
AcDbEntity
  8
0
  6
Continuous
 62
     7
370
    15
100
AcDbCircle
 10
351.5988498032509
 20
133.391139305899
 30
0.0
 40
4.500000000007275
  0
CIRCLE
  5
220
330
1F
100
AcDbEntity
  8
0
  6
Continuous
 62
     7
370
    15
100
AcDbCircle
 10
351.5988498032509
 20
133.391139305899
 30
0.0
 40
5.0
  0
LINE
  5
221
330
1F
100
AcDbEntity
  8
0
  6
Continuous
 62
     7
370
    15
100
AcDbLine
 10
359.4469943121491
 20
128.0379501653408
 30
0.0
 11
359.3568874560712
 21
127.9081796777938
 31
0.0
  0
ARC
  5
222
330
1F
100
AcDbEntity
  8
0
  6
Continuous
 62
     7
370
    15
100
AcDbCircle
 10
351.5988498032509
 20
133.391139305899
 30
0.0
 40
9.500000000000014
100
AcDbArc
 50
41.9974609297818
 51
59.99999999999997
  0
SPLINE
  5
223
330
1F
100
AcDbEntity
  8
0
  6
Continuous
 62
     7
370
    15
100
AcDbSpline
210
0.0
220
0.0
230
1.0
 70
     8
 71
     3
 72
     9
 73
     5
 74
     0
 42
0.0000000001
 43
0.0000000001
 40
0.0
 40
0.0
 40
0.0
 40
0.0
 40
0.8946319734756292
 40
0.9999999999999998
 40
0.9999999999999998
 40
0.9999999999999998
 40
0.9999999999999998
 10
356.348849650514
 20
141.6183804643844
 30
0.0
 10
357.142226228785
 20
141.1603276727391
 30
0.0
 10
358.0290451686321
 20
140.6483263076797
 30
0.0
 10
358.9094550706234
 20
140.1400151549984
 30
0.0
 10
359.0022221245287
 20
140.08645541198
 30
0.0
  0
LINE
  5
224
330
1F
100
AcDbEntity
  8
0
  6
Continuous
 62
     7
370
    15
100
AcDbLine
 10
343.8408121504305
 20
127.9081796777938
 30
0.0
 11
343.7996584028421
 21
127.9668772143816
 31
0.0
  0
LWPOLYLINE
  5
225
330
1F
100
AcDbEntity
  8
0
  6
Continuous
 62
     7
370
    15
100
AcDbPolyline
 90
        3
 70
   128
 43
0.0
 10
342.5432567522345
 20
130.5195150447582
 10
342.3064474985419
 20
131.4159782154058
 10
342.2267579511224
 20
131.8374687356447
  0
LWPOLYLINE
  5
226
330
1F
100
AcDbEntity
  8
0
  6
Continuous
 62
     7
370
    15
100
AcDbPolyline
 90
        3
 70
   128
 43
0.0
 10
342.2095936760722
 20
134.837469227383
 10
342.3064474985419
 20
135.3663002622818
 10
342.5432567522345
 20
136.2627634329294
  0
ARC
  5
227
330
1F
100
AcDbEntity
  8
0
  6
Continuous
 62
     7
370
    15
100
AcDbCircle
 10
351.5988498032509
 20
133.391139305899
 30
0.0
 40
9.499999999999991
100
AcDbArc
 50
120.0
 51
135.8173717367717
  0
ARC
  5
228
330
1F
100
AcDbEntity
  8
0
  6
Continuous
 62
     7
370
    15
100
AcDbCircle
 10
351.5988498032509
 20
133.391139305899
 30
0.0
 40
9.499999999999991
100
AcDbArc
 50
59.99999999999997
 51
120.0
  0
ARC
  5
229
330
1F
100
AcDbEntity
  8
0
  6
Continuous
 62
     7
370
    15
100
AcDbCircle
 10
351.5988498032509
 20
133.391139305899
 30
0.0
 40
5.009999999969776
100
AcDbArc
 50
206.7414953471432
 51
342.5783587765378
  0
ARC
  5
22A
330
1F
100
AcDbEntity
  8
0
  6
Continuous
 62
     7
370
    15
100
AcDbCircle
 10
351.5988498032509
 20
133.391139305899
 30
0.0
 40
5.009999999969775
100
AcDbArc
 50
17.42164122346293
 51
153.2585046913404
  0
SPLINE
  5
22B
330
1F
100
AcDbEntity
  8
0
  6
Continuous
 62
     7
370
    15
100
AcDbSpline
210
0.0
220
0.0
230
1.0
 70
     8
 71
     3
 72
     9
 73
     5
 74
     0
 42
0.0000000001
 43
0.0000000001
 40
0.0
 40
0.0
 40
0.0
 40
0.0
 40
0.4987909905302198
 40
1.0
 40
1.0
 40
1.0
 40
1.0
 10
346.8488499559878
 20
141.6183804643844
 30
0.0
 10
347.6414691121009
 20
142.0760002341272
 30
0.0
 10
349.2305498516519
 20
142.9934582043609
 30
0.0
 10
350.8081449344548
 20
143.9042812028936
 30
0.0
 10
351.5988498032509
 20
144.3607938957905
 30
0.0
  0
SPLINE
  5
22C
330
1F
100
AcDbEntity
  8
0
  6
Continuous
 62
     7
370
    15
100
AcDbSpline
210
0.0
220
0.0
230
1.0
 70
     8
 71
     3
 72
     9
 73
     5
 74
     0
 42
0.0000000001
 43
0.0000000001
 40
0.0
 40
0.0
 40
0.0
 40
0.0
 40
0.4989630096392034
 40
1.0
 40
1.0
 40
1.0
 40
1.0
 10
351.5988498032509
 20
144.3607938957905
 30
0.0
 10
352.3860020916791
 20
143.9063323307774
 30
0.0
 10
353.9635785316591
 20
142.9955201939387
 30
0.0
 10
355.5526607023
 20
142.0780613049187
 30
0.0
 10
356.348849650514
 20
141.6183804643844
 30
0.0
  0
LINE
  5
22D
330
1F
100
AcDbEntity
  8
0
  6
Continuous
 62
     7
370
    15
100
AcDbLine
 10
351.5988498032509
 20
122.4214845818971
 30
0.0
 11
350.7558695194727
 21
122.90817885823
 31
0.0
  0
LINE
  5
22E
330
1F
100
AcDbEntity
  8
0
  6
Continuous
 62
     7
370
    15
100
AcDbLine
 10
352.441830087029
 20
122.90817885823
 30
0.0
 11
351.5988498032509
 21
122.4214845818971
 31
0.0
  0
LINE
  5
22F
330
1F
100
AcDbEntity
  8
0
  6
Continuous
 62
     7
370
    15
100
AcDbLine
 10
342.0988501087247
 20
138.4392773283218
 30
0.0
 11
342.0988501087247
 21
138.8759670329784
 31
0.0
  0
LINE
  5
230
330
1F
100
AcDbEntity
  8
0
  6
Continuous
 62
     7
370
    15
100
AcDbLine
 10
342.0988501087247
 20
138.8759670329784
 30
0.0
 11
342.5432567522345
 21
139.132546402285
 31
0.0
  0
LINE
  5
231
330
1F
100
AcDbEntity
  8
0
  6
Continuous
 62
     7
370
    15
100
AcDbLine
 10
344.572550900322
 20
140.3041576517319
 30
0.0
 11
346.8488499559878
 21
141.6183804643844
 31
0.0
  0
LINE
  5
232
330
1F
100
AcDbEntity
  8
0
  6
Continuous
 62
     7
370
    15
100
AcDbLine
 10
368.5988507271229
 20
109.3911394958888
 30
0.0
 11
373.5988496840416
 21
109.3911394958888
 31
0.0
  0
LINE
  5
233
330
1F
100
AcDbEntity
  8
0
  6
Continuous
 62
     7
370
    15
100
AcDbLine
 10
373.5988496840416
 20
109.3911394958888
 30
0.0
 11
373.5988496840416
 21
105.391139305899
 31
0.0
  0
LINE
  5
234
330
1F
100
AcDbEntity
  8
0
  6
Continuous
 62
     7
370
    15
100
AcDbLine
 10
373.5988496840416
 20
105.391139305899
 30
0.0
 11
368.5988507271229
 21
105.391139305899
 31
0.0
  0
LINE
  5
235
330
1F
100
AcDbEntity
  8
0
  6
Continuous
 62
     7
370
    15
100
AcDbLine
 10
334.5988488793789
 20
109.3911394958888
 30
0.0
 11
368.5988507271229
 21
109.3911394958888
 31
0.0
  0
LINE
  5
236
330
1F
100
AcDbEntity
  8
0
  6
Continuous
 62
     7
370
    15
100
AcDbLine
 10
334.5988488793789
 20
105.391139305899
 30
0.0
 11
368.5988507271229
 21
105.391139305899
 31
0.0
  0
LINE
  5
237
330
1F
100
AcDbEntity
  8
0
  6
Continuous
 62
     7
370
    15
100
AcDbLine
 10
329.5988499224602
 20
105.391139305899
 30
0.0
 11
329.5988499224602
 21
109.3911394958888
 31
0.0
  0
LINE
  5
238
330
1F
100
AcDbEntity
  8
0
  6
Continuous
 62
     7
370
    15
100
AcDbLine
 10
329.5988499224602
 20
109.3911394958888
 30
0.0
 11
334.5988488793789
 21
109.3911394958888
 31
0.0
  0
LINE
  5
239
330
1F
100
AcDbEntity
  8
0
  6
Continuous
 62
     7
370
    15
100
AcDbLine
 10
334.5988488793789
 20
105.391139305899
 30
0.0
 11
329.5988499224602
 21
105.391139305899
 31
0.0
  0
LINE
  5
23A
330
1F
100
AcDbEntity
  8
0
  6
Continuous
 62
     7
370
    15
100
AcDbLine
 10
329.5988499224602
 20
109.3911394958888
 30
0.0
 11
329.5988499224602
 21
112.3911395219658
 31
0.0
  0
LINE
  5
23B
330
1F
100
AcDbEntity
  8
0
  6
Continuous
 62
     7
370
    15
100
AcDbLine
 10
373.5988496840416
 20
112.3911395219658
 30
0.0
 11
373.5988496840416
 21
109.3911394958888
 31
0.0
  0
ARC
  5
23C
330
1F
100
AcDbEntity
  8
0
  6
Continuous
 62
     7
370
    15
100
AcDbCircle
 10
334.5988498032509
 20
130.3675415726687
 30
0.0
 40
5.000000000000006
100
AcDbArc
 50
131.5000000000001
 51
180.0
  0
LINE
  5
23D
330
1F
100
AcDbEntity
  8
0
  6
Continuous
 62
     7
370
    15
100
AcDbLine
 10
331.2857489139257
 20
134.1123209816908
 30
0.0
 11
342.322169154924
 21
143.8765210581516
 31
0.0
  0
LINE
  5
23E
330
1F
100
AcDbEntity
  8
0
  6
Continuous
 62
     7
370
    15
100
AcDbLine
 10
342.322169154924
 20
143.8765210581516
 30
0.0
 11
343.0347855240522
 21
144.4661935342048
 31
0.0
  0
ARC
  5
23F
330
1F
100
AcDbEntity
  8
0
  6
Continuous
 62
     7
370
    15
100
AcDbCircle
 10
351.5988498032509
 20
133.391139305899
 30
0.0
 40
13.99999999999999
100
AcDbArc
 50
74.04614342850651
 51
102.9591219851997
  0
LINE
  5
240
330
1F
100
AcDbEntity
  8
0
  6
Continuous
 62
     7
370
    15
100
AcDbLine
 10
361.0731096044598
 20
143.7017155361866
 30
0.0
 11
371.911950692576
 21
134.1123209816908
 31
0.0
  0
ARC
  5
241
330
1F
100
AcDbEntity
  8
0
  6
Continuous
 62
     7
370
    15
100
AcDbCircle
 10
368.5988498032509
 20
130.3675415726687
 30
0.0
 40
5.000000000000006
100
AcDbArc
 50
0.0000000000000102
 51
48.49999999999987
  0
LINE
  5
242
330
1F
100
AcDbEntity
  8
0
  6
Continuous
 62
     7
370
    15
100
AcDbLine
 10
329.5988499224602
 20
112.3911395219658
 30
0.0
 11
329.5988499224602
 21
130.3675418270324
 31
0.0
  0
LINE
  5
243
330
1F
100
AcDbEntity
  8
0
  6
Continuous
 62
     7
370
    15
100
AcDbLine
 10
373.5988496840416
 20
112.3911395219658
 30
0.0
 11
373.5988496840416
 21
130.3675418270324
 31
0.0
  0
LINE
  5
244
330
1F
100
AcDbEntity
  8
0
  6
Continuous
 62
     7
370
    15
100
AcDbLine
 10
229.4322204043778
 20
245.6838337758843
 30
0.0
 11
229.4322204043778
 21
244.6838336119715
 31
0.0
  0
LINE
  5
245
330
1F
100
AcDbEntity
  8
0
  6
Continuous
 62
     7
370
    15
100
AcDbLine
 10
230.4322205682906
 20
261.3838336484793
 30
0.0
 11
230.4322205682906
 21
259.157993184245
 31
0.0
  0
LINE
  5
246
330
1F
100
AcDbEntity
  8
0
  6
Continuous
 62
     7
370
    15
100
AcDbLine
 10
233.4322201287063
 20
259.2140900025431
 30
0.0
 11
233.4322201287063
 21
261.3838336484793
 31
0.0
  0
LINE
  5
247
330
1F
100
AcDbEntity
  8
0
  6
Continuous
 62
     7
370
    15
100
AcDbLine
 10
239.4320944523128
 20
240.15799286387
 30
0.0
 11
239.4320944523128
 21
239.1579926999573
 31
0.0
  0
LINE
  5
248
330
1F
100
AcDbEntity
  8
0
  6
Continuous
 62
     7
370
    15
100
AcDbLine
 10
245.4320954357894
 20
239.1579926999573
 30
0.0
 11
245.4320954357894
 21
240.15799286387
 31
0.0
  0
LINE
  5
249
330
1F
100
AcDbEntity
  8
0
  6
Continuous
 62
     7
370
    15
100
AcDbLine
 10
240.9320956295045
 20
243.080072389758
 30
0.0
 11
240.9320956295045
 21
242.657993273652
 31
0.0
  0
LINE
  5
24A
330
1F
100
AcDbEntity
  8
0
  6
Continuous
 62
     7
370
    15
100
AcDbLine
 10
243.9320942585977
 20
242.657993273652
 30
0.0
 11
243.9320942585977
 21
242.9878966005806
 31
0.0
  0
LINE
  5
24B
330
1F
100
AcDbEntity
  8
0
  6
Continuous
 62
     7
370
    15
100
AcDbLine
 10
245.4320954357894
 20
264.1579930724863
 30
0.0
 11
245.4320954357894
 21
265.157993236399
 31
0.0
  0
LINE
  5
24C
330
1F
100
AcDbEntity
  8
0
  6
Continuous
 62
     7
370
    15
100
AcDbLine
 10
239.4320944523128
 20
265.157993236399
 30
0.0
 11
239.4320944523128
 21
264.1579930724863
 31
0.0
  0
LINE
  5
24D
330
1F
100
AcDbEntity
  8
0
  6
Continuous
 62
     7
370
    15
100
AcDbLine
 10
232.0113087271961
 20
261.6579926627043
 30
0.0
 11
232.0113087271961
 21
261.3838336484793
 31
0.0
  0
LINE
  5
24E
330
1F
100
AcDbEntity
  8
0
  6
Continuous
 62
     7
370
    15
100
AcDbLine
 10
232.0113087271961
 20
244.6838336119715
 30
0.0
 11
232.0113087271961
 21
242.657993273652
 31
0.0
  0
LINE
  5
24F
330
1F
100
AcDbEntity
  8
0
  6
Continuous
 62
     7
370
    15
100
AcDbLine
 10
237.0113086154374
 20
242.657993273652
 30
0.0
 11
237.0113086154374
 21
243.1023999171618
 31
0.0
  0
LINE
  5
250
330
1F
100
AcDbEntity
  8
0
  6
Continuous
 62
     7
370
    15
100
AcDbLine
 10
233.0113088911089
 20
265.7079932334188
 30
0.0
 11
233.0113088911089
 21
264.1579930724863
 31
0.0
  0
LINE
  5
251
330
1F
100
AcDbEntity
  8
0
  6
Continuous
 62
     7
370
    15
100
AcDbLine
 10
236.0113084515246
 20
264.1579930724863
 30
0.0
 11
236.0113084515246
 21
265.7079932334188
 31
0.0
  0
LINE
  5
252
330
1F
100
AcDbEntity
  8
0
  6
Continuous
 62
     7
370
    15
100
AcDbLine
 10
233.0113088911089
 20
240.15799286387
 30
0.0
 11
233.0113088911089
 21
238.6079927029375
 31
0.0
  0
LINE
  5
253
330
1F
100
AcDbEntity
  8
0
  6
Continuous
 62
     7
370
    15
100
AcDbLine
 10
236.0113084515246
 20
238.6079927029375
 30
0.0
 11
236.0113084515246
 21
240.15799286387
 31
0.0
  0
LINE
  5
254
330
1F
100
AcDbEntity
  8
0
  6
Continuous
 62
     7
370
    15
100
AcDbLine
 10
242.8361213033708
 20
260.9209132435087
 30
0.0
 11
242.8318856483015
 21
260.9209132435087
 31
0.0
  0
LINE
  5
255
330
1F
100
AcDbEntity
  8
0
  6
Continuous
 62
     7
370
    15
100
AcDbLine
 10
242.8318856483015
 20
242.9209130870465
 30
0.0
 11
242.8361213033708
 21
242.9209130870465
 31
0.0
  0
LINE
  5
256
330
1F
100
AcDbEntity
  8
0
  6
Continuous
 62
     7
370
    15
100
AcDbLine
 10
242.7743038361581
 20
260.9209132435087
 30
0.0
 11
242.764279079965
 21
260.9209132435087
 31
0.0
  0
LINE
  5
257
330
1F
100
AcDbEntity
  8
0
  6
Continuous
 62
     7
370
    15
100
AcDbLine
 10
242.764279079965
 20
242.9209130870465
 30
0.0
 11
242.7743038361581
 21
242.9209130870465
 31
0.0
  0
LINE
  5
258
330
1F
100
AcDbEntity
  8
0
  6
Continuous
 62
     7
370
    15
100
AcDbLine
 10
242.6965980058225
 20
260.9209132435087
 30
0.0
 11
242.6962962573083
 21
260.9209132435087
 31
0.0
  0
LINE
  5
259
330
1F
100
AcDbEntity
  8
0
  6
Continuous
 62
     7
370
    15
100
AcDbLine
 10
242.6962962573083
 20
242.9209130870465
 30
0.0
 11
242.6965980058225
 21
242.9209130870465
 31
0.0
  0
LINE
  5
25A
330
1F
100
AcDbEntity
  8
0
  6
Continuous
 62
     7
370
    15
100
AcDbLine
 10
242.6192684298071
 20
260.9209132435087
 30
0.0
 11
242.6171468769821
 21
260.9209132435087
 31
0.0
  0
LINE
  5
25B
330
1F
100
AcDbEntity
  8
0
  6
Continuous
 62
     7
370
    15
100
AcDbLine
 10
242.6171468769821
 20
242.9209130870465
 30
0.0
 11
242.6192684298071
 21
242.9209130870465
 31
0.0
  0
LINE
  5
25C
330
1F
100
AcDbEntity
  8
0
  6
Continuous
 62
     7
370
    15
100
AcDbLine
 10
175.4322199349912
 20
255.1579929942552
 30
0.0
 11
169.4322189515146
 21
255.1579929942552
 31
0.0
  0
LINE
  5
25D
330
1F
100
AcDbEntity
  8
0
  6
Continuous
 62
     7
370
    15
100
AcDbLine
 10
169.4322189515146
 20
249.1579929421011
 30
0.0
 11
175.4322199349912
 21
249.1579929421011
 31
0.0
  0
LINE
  5
25E
330
1F
100
AcDbEntity
  8
0
  6
Continuous
 62
     7
370
    15
100
AcDbLine
 10
217.3203181674393
 20
237.3131190480951
 30
0.0
 11
218.0571652216526
 21
237.1579933034543
 31
0.0
  0
LINE
  5
25F
330
1F
100
AcDbEntity
  8
0
  6
Continuous
 62
     7
370
    15
100
AcDbLine
 10
225.8071650949927
 20
237.1579933034543
 30
0.0
 11
226.544012149206
 21
237.3131190480951
 31
0.0
  0
LINE
  5
260
330
1F
100
AcDbEntity
  8
0
  6
Continuous
 62
     7
370
    15
100
AcDbLine
 10
226.544012149206
 20
239.9492676424149
 30
0.0
 11
225.8018779767366
 21
240.15799286387
 31
0.0
  0
LINE
  5
261
330
1F
100
AcDbEntity
  8
0
  6
Continuous
 62
     7
370
    15
100
AcDbLine
 10
218.0624523399087
 20
240.15799286387
 30
0.0
 11
217.3203181674393
 21
239.9492676424149
 31
0.0
  0
LINE
  5
262
330
1F
100
AcDbEntity
  8
0
  6
Continuous
 62
     7
370
    15
100
AcDbLine
 10
226.5579754685672
 20
266.9999276342157
 30
0.0
 11
225.8071650949927
 21
267.157992632902
 31
0.0
  0
LINE
  5
263
330
1F
100
AcDbEntity
  8
0
  6
Continuous
 62
     7
370
    15
100
AcDbLine
 10
218.0571652216526
 20
267.157992632902
 30
0.0
 11
217.3063548480781
 21
266.9999276342157
 31
0.0
  0
LINE
  5
264
330
1F
100
AcDbEntity
  8
0
  6
Continuous
 62
     7
370
    15
100
AcDbLine
 10
217.3063553137394
 20
264.3706456812385
 30
0.0
 11
218.0624523399087
 21
264.1579930724863
 31
0.0
  0
LINE
  5
265
330
1F
100
AcDbEntity
  8
0
  6
Continuous
 62
     7
370
    15
100
AcDbLine
 10
225.8018779767366
 20
264.1579930724863
 30
0.0
 11
226.5579750029059
 21
264.3706456812385
 31
0.0
  0
LINE
  5
266
330
1F
100
AcDbEntity
  8
0
  6
Continuous
 62
     7
370
    15
100
AcDbLine
 10
226.9308993791851
 20
247.1579930799369
 30
0.0
 11
226.9308993791851
 21
245.6838337758843
 31
0.0
  0
LINE
  5
267
330
1F
100
AcDbEntity
  8
0
  6
Continuous
 62
     7
370
    15
100
AcDbLine
 10
226.9308993791851
 20
259.157993184245
 30
0.0
 11
226.9308993791851
 21
257.1579928564194
 31
0.0
  0
LINE
  5
268
330
1F
100
AcDbEntity
  8
0
  6
Continuous
 62
     7
370
    15
100
AcDbLine
 10
216.9321652700814
 20
264.1579930724863
 30
0.0
 11
216.9321652700814
 21
261.6579926627043
 31
0.0
  0
LINE
  5
269
330
1F
100
AcDbEntity
  8
0
  6
Continuous
 62
     7
370
    15
100
AcDbLine
 10
247.432095763615
 20
261.7394275086287
 30
0.0
 11
247.432095763615
 21
264.1579930724863
 31
0.0
  0
LINE
  5
26A
330
1F
100
AcDbEntity
  8
0
  6
Continuous
 62
     7
370
    15
100
AcDbLine
 10
216.9321652700814
 20
242.657993273652
 30
0.0
 11
216.9321652700814
 21
240.15799286387
 31
0.0
  0
LINE
  5
26B
330
1F
100
AcDbEntity
  8
0
  6
Continuous
 62
     7
370
    15
100
AcDbLine
 10
247.432095763615
 20
240.15799286387
 30
0.0
 11
247.432095763615
 21
242.657993273652
 31
0.0
  0
LINE
  5
26C
330
1F
100
AcDbEntity
  8
0
  6
Continuous
 62
     7
370
    15
100
AcDbLine
 10
179.9322216039213
 20
257.1579928564194
 30
0.0
 11
179.4322205906423
 21
256.657992774463
 31
0.0
  0
LINE
  5
26D
330
1F
100
AcDbEntity
  8
0
  6
Continuous
 62
     7
370
    15
100
AcDbLine
 10
179.4322205906423
 20
247.6579931618933
 30
0.0
 11
179.9322216039213
 21
247.1579930799369
 31
0.0
  0
LINE
  5
26E
330
1F
100
AcDbEntity
  8
0
  6
Continuous
 62
     7
370
    15
100
AcDbLine
 10
230.4322205682906
 20
257.1579928564194
 30
0.0
 11
226.4321649646076
 21
257.1579928564194
 31
0.0
  0
LINE
  5
26F
330
1F
100
AcDbEntity
  8
0
  6
Continuous
 62
     7
370
    15
100
AcDbLine
 10
202.4321647559913
 20
257.1579928564194
 30
0.0
 11
179.9322216039213
 21
257.1579928564194
 31
0.0
  0
LINE
  5
270
330
1F
100
AcDbEntity
  8
0
  6
Continuous
 62
     7
370
    15
100
AcDbLine
 10
235.2979488869818
 20
257.1579928564194
 30
0.0
 11
233.4322201287063
 21
257.1579928564194
 31
0.0
  0
LINE
  5
271
330
1F
100
AcDbEntity
  8
0
  6
Continuous
 62
     7
370
    15
100
AcDbLine
 10
179.9322216039213
 20
247.1579930799369
 30
0.0
 11
202.4321647559913
 21
247.1579930799369
 31
0.0
  0
LINE
  5
272
330
1F
100
AcDbEntity
  8
0
  6
Continuous
 62
     7
370
    15
100
AcDbLine
 10
226.4321649646076
 20
247.1579930799369
 30
0.0
 11
226.9349008066269
 21
247.1579930799369
 31
0.0
  0
LINE
  5
273
330
1F
100
AcDbEntity
  8
0
  6
Continuous
 62
     7
370
    15
100
AcDbLine
 10
203.9321659331831
 20
260.1079934330944
 30
0.0
 11
202.4321647559913
 21
258.6079931872252
 31
0.0
  0
LINE
  5
274
330
1F
100
AcDbEntity
  8
0
  6
Continuous
 62
     7
370
    15
100
AcDbLine
 10
202.4321647559913
 20
245.7079927491311
 30
0.0
 11
203.9321659331831
 21
244.2079925032619
 31
0.0
  0
LINE
  5
275
330
1F
100
AcDbEntity
  8
0
  6
Continuous
 62
     7
370
    15
100
AcDbLine
 10
211.4321652998837
 20
260.1079934330944
 30
0.0
 11
203.9321659331831
 21
260.1079934330944
 31
0.0
  0
LINE
  5
276
330
1F
100
AcDbEntity
  8
0
  6
Continuous
 62
     7
370
    15
100
AcDbLine
 10
203.9321659331831
 20
244.2079925032619
 30
0.0
 11
211.4321652998837
 21
244.2079925032619
 31
0.0
  0
LINE
  5
277
330
1F
100
AcDbEntity
  8
0
  6
Continuous
 62
     7
370
    15
100
AcDbLine
 10
229.4324960758599
 20
244.6838336119715
 30
0.0
 11
234.3165593420776
 21
244.6838336119715
 31
0.0
  0
LINE
  5
278
330
1F
100
AcDbEntity
  8
0
  6
Continuous
 62
     7
370
    15
100
AcDbLine
 10
233.4322201287063
 20
261.3838336484793
 30
0.0
 11
230.4323863437089
 21
261.3838336484793
 31
0.0
  0
LINE
  5
279
330
1F
100
AcDbEntity
  8
0
  6
Continuous
 62
     7
370
    15
100
AcDbLine
 10
245.4320954357894
 20
239.1579926999573
 30
0.0
 11
239.4320944523128
 21
239.1579926999573
 31
0.0
  0
LINE
  5
27A
330
1F
100
AcDbEntity
  8
0
  6
Continuous
 62
     7
370
    15
100
AcDbLine
 10
242.2648554866823
 20
265.157993236399
 30
0.0
 11
245.4320954357894
 21
265.157993236399
 31
0.0
  0
LINE
  5
27B
330
1F
100
AcDbEntity
  8
0
  6
Continuous
 62
     7
370
    15
100
AcDbLine
 10
239.4320944523128
 20
265.157993236399
 30
0.0
 11
242.2648554866823
 21
265.157993236399
 31
0.0
  0
LINE
  5
27C
330
1F
100
AcDbEntity
  8
0
  6
Continuous
 62
     7
370
    15
100
AcDbLine
 10
233.2167158102306
 20
265.7079932334188
 30
0.0
 11
233.0113088911089
 21
265.7079932334188
 31
0.0
  0
LINE
  5
27D
330
1F
100
AcDbEntity
  8
0
  6
Continuous
 62
     7
370
    15
100
AcDbLine
 10
236.0113084515246
 20
265.7079932334188
 30
0.0
 11
233.2167158102306
 21
265.7079932334188
 31
0.0
  0
LINE
  5
27E
330
1F
100
AcDbEntity
  8
0
  6
Continuous
 62
     7
370
    15
100
AcDbLine
 10
233.2167158102306
 20
238.6079927029375
 30
0.0
 11
236.0113084515246
 21
238.6079927029375
 31
0.0
  0
LINE
  5
27F
330
1F
100
AcDbEntity
  8
0
  6
Continuous
 62
     7
370
    15
100
AcDbLine
 10
233.0113088911089
 20
238.6079927029375
 30
0.0
 11
233.2167158102306
 21
238.6079927029375
 31
0.0
  0
CIRCLE
  5
280
330
1F
100
AcDbEntity
  8
0
  6
Continuous
 62
     7
370
    15
100
AcDbCircle
 10
242.8362511756004
 20
251.92093131425
 30
0.0
 40
8.999933907076622
  0
ARC
  5
281
330
1F
100
AcDbEntity
  8
0
  6
Continuous
 62
     7
370
    15
100
AcDbCircle
 10
242.8319775532984
 20
251.9208080956967
 30
0.0
 40
8.999895009119414
100
AcDbArc
 50
179.999329708848
 51
269.9994149077928
  0
ARC
  5
282
330
1F
100
AcDbEntity
  8
0
  6
Continuous
 62
     7
370
    15
100
AcDbCircle
 10
242.8319900240487
 20
251.9210057643859
 30
0.0
 40
8.999907479727998
100
AcDbArc
 50
90.0006644834756
 51
180.0005881206737
  0
ARC
  5
283
330
1F
100
AcDbEntity
  8
0
  6
Continuous
 62
     7
370
    15
100
AcDbCircle
 10
242.7744565095858
 20
251.9209131652776
 30
0.0
 40
9.000000079526049
100
AcDbArc
 50
90.00097194921893
 51
269.9990280507818
  0
ARC
  5
284
330
1F
100
AcDbEntity
  8
0
  6
Continuous
 62
     7
370
    15
100
AcDbCircle
 10
242.7643709849619
 20
251.9208080956967
 30
0.0
 40
8.999895009119414
100
AcDbArc
 50
179.999329708848
 51
269.9994149077928
  0
ARC
  5
285
330
1F
100
AcDbEntity
  8
0
  6
Continuous
 62
     7
370
    15
100
AcDbCircle
 10
242.7643853794658
 20
251.9210038406745
 30
0.0
 40
8.99990940346198
100
AcDbArc
 50
90.00067673045238
 51
180.0005758736972
  0
ARC
  5
286
330
1F
100
AcDbEntity
  8
0
  6
Continuous
 62
     7
370
    15
100
AcDbCircle
 10
242.6967491655936
 20
251.9209131652776
 30
0.0
 40
8.999998900721266
100
AcDbArc
 50
89.57032429231494
 51
270.4296757076858
  0
ARC
  5
287
330
1F
100
AcDbEntity
  8
0
  6
Continuous
 62
     7
370
    15
100
AcDbCircle
 10
242.6963877475896
 20
251.9208086123018
 30
0.0
 40
8.999895525720287
100
AcDbArc
 50
179.9993329977349
 51
269.9994175480191
  0
ARC
  5
288
330
1F
100
AcDbEntity
  8
0
  6
Continuous
 62
     7
370
    15
100
AcDbCircle
 10
242.6964012312248
 20
251.9210042349167
 30
0.0
 40
8.999909009204229
100
AcDbArc
 50
90.00066829146481
 51
180.0005783835715
  0
ARC
  5
289
330
1F
100
AcDbEntity
  8
0
  6
Continuous
 62
     7
370
    15
100
AcDbCircle
 10
242.6194196629453
 20
251.9209136309389
 30
0.0
 40
8.999998953038401
100
AcDbArc
 50
89.53937452912889
 51
270.4606254708719
  0
ARC
  5
28A
330
1F
100
AcDbEntity
  8
0
  6
Continuous
 62
     7
370
    15
100
AcDbCircle
 10
242.6172383672633
 20
251.9208086123018
 30
0.0
 40
8.999895525720287
100
AcDbArc
 50
179.9993329977349
 51
269.9994175480191
  0
ARC
  5
28B
330
1F
100
AcDbEntity
  8
0
  6
Continuous
 62
     7
370
    15
100
AcDbCircle
 10
242.6172524104908
 20
251.9210036753366
 30
0.0
 40
8.99990956879086
100
AcDbArc
 50
90.00067185393398
 51
180.0005748211022
  0
LINE
  5
28C
330
1F
100
AcDbEntity
  8
0
  6
Continuous
 62
     7
370
    15
100
AcDbLine
 10
179.2249603395971
 20
252.1579929681788
 30
0.0
 11
175.6394801860364
 21
252.1579930100245
 31
0.0
  0
SPLINE
  5
28D
330
1F
100
AcDbEntity
  8
0
  6
Continuous
 62
     7
370
    15
100
AcDbSpline
210
0.0
220
0.0
230
1.0
 70
     8
 71
     3
 72
     9
 73
     5
 74
     0
 42
0.0000000001
 43
0.0000000001
 40
0.0
 40
0.0
 40
0.0
 40
0.0
 40
0.4989655536767005
 40
1.0
 40
1.0
 40
1.0
 40
1.0
 10
175.6394801860364
 20
252.1579930518696
 30
0.0
 10
175.5807778297527
 20
252.5717965268901
 30
0.0
 10
175.4631297158676
 20
253.4011192566282
 30
0.0
 10
175.4425373963828
 20
254.2364874766827
 30
0.0
 10
175.4322199349912
 20
254.6550357302938
 30
0.0
  0
LINE
  5
28E
330
1F
100
AcDbEntity
  8
0
  6
Continuous
 62
     7
370
    15
100
AcDbLine
 10
175.4322199349912
 20
254.6609491629813
 30
0.0
 11
175.4322199349912
 21
254.6550357302938
 31
0.0
  0
SPLINE
  5
28F
330
1F
100
AcDbEntity
  8
0
  6
Continuous
 62
     7
370
    15
100
AcDbSpline
210
0.0
220
0.0
230
1.0
 70
     8
 71
     3
 72
     9
 73
     5
 74
     0
 42
0.0000000001
 43
0.0000000001
 40
0.0
 40
0.0
 40
0.0
 40
0.0
 40
0.4987943840932683
 40
1.0
 40
1.0
 40
1.0
 40
1.0
 10
175.4322199349912
 20
254.6609491629813
 30
0.0
 10
175.4424450934591
 20
255.0776263376485
 30
0.0
 10
175.4629448400361
 20
255.9129949543675
 30
0.0
 10
175.5805405538609
 20
256.7423269851433
 30
0.0
 10
175.6394801860364
 20
257.1579928564194
 30
0.0
  0
LINE
  5
290
330
1F
100
AcDbEntity
  8
0
  6
Continuous
 62
     7
370
    15
100
AcDbLine
 10
179.2249603395971
 20
257.1579928564194
 30
0.0
 11
175.6394801860364
 21
257.1579928564194
 31
0.0
  0
SPLINE
  5
291
330
1F
100
AcDbEntity
  8
0
  6
Continuous
 62
     7
370
    15
100
AcDbSpline
210
0.0
220
0.0
230
1.0
 70
     8
 71
     3
 72
     9
 73
     5
 74
     0
 42
0.0000000001
 43
0.0000000001
 40
0.0
 40
0.0
 40
0.0
 40
0.0
 40
0.4987943840932683
 40
1.0
 40
1.0
 40
1.0
 40
1.0
 10
179.4322205906423
 20
254.6609491629813
 30
0.0
 10
179.4219954321744
 20
255.0776263376485
 30
0.0
 10
179.4014956855974
 20
255.9129949543675
 30
0.0
 10
179.2838999717726
 20
256.7423269851433
 30
0.0
 10
179.2249603395971
 20
257.1579928564194
 30
0.0
  0
LINE
  5
292
330
1F
100
AcDbEntity
  8
0
  6
Continuous
 62
     7
370
    15
100
AcDbLine
 10
179.4322205906423
 20
254.6609491629813
 30
0.0
 11
179.4322205906423
 21
254.6550357302938
 31
0.0
  0
SPLINE
  5
293
330
1F
100
AcDbEntity
  8
0
  6
Continuous
 62
     7
370
    15
100
AcDbSpline
210
0.0
220
0.0
230
1.0
 70
     8
 71
     3
 72
     9
 73
     5
 74
     0
 42
0.0000000001
 43
0.0000000001
 40
0.0
 40
0.0
 40
0.0
 40
0.0
 40
0.498965566161808
 40
1.0
 40
1.0
 40
1.0
 40
1.0
 10
179.2249603395971
 20
252.1579929681795
 30
0.0
 10
179.2836626958536
 20
252.5717964728568
 30
0.0
 10
179.4013108067403
 20
253.4011192412804
 30
0.0
 10
179.4219031284121
 20
254.236487478508
 30
0.0
 10
179.4322205906423
 20
254.6550357302938
 30
0.0
  0
LINE
  5
294
330
1F
100
AcDbEntity
  8
0
  6
Continuous
 62
     7
370
    15
100
AcDbLine
 10
179.4322205906423
 20
254.6550357302938
 30
0.0
 11
179.4322205906423
 21
249.6609502060626
 31
0.0
  0
SPLINE
  5
295
330
1F
100
AcDbEntity
  8
0
  6
Continuous
 62
     7
370
    15
100
AcDbSpline
210
0.0
220
0.0
230
1.0
 70
     8
 71
     3
 72
     9
 73
     5
 74
     0
 42
0.0000000001
 43
0.0000000001
 40
0.0
 40
0.0
 40
0.0
 40
0.0
 40
0.4987943834223247
 40
1.0
 40
1.0
 40
1.0
 40
1.0
 10
179.4322205906423
 20
249.6609502060626
 30
0.0
 10
179.4219954321297
 20
250.0776272255998
 30
0.0
 10
179.4014956854356
 20
250.9129955324325
 30
0.0
 10
179.2838999717711
 20
251.7423272522156
 30
0.0
 10
179.2249603395971
 20
252.1579929681769
 30
0.0
  0
LINE
  5
296
330
1F
100
AcDbEntity
  8
0
  6
Continuous
 62
     7
370
    15
100
AcDbLine
 10
175.6394801860364
 20
247.1579930799369
 30
0.0
 11
179.2249603395971
 21
247.1579930799369
 31
0.0
  0
SPLINE
  5
297
330
1F
100
AcDbEntity
  8
0
  6
Continuous
 62
     7
370
    15
100
AcDbSpline
210
0.0
220
0.0
230
1.0
 70
     8
 71
     3
 72
     9
 73
     5
 74
     0
 42
0.0000000001
 43
0.0000000001
 40
0.0
 40
0.0
 40
0.0
 40
0.0
 40
0.4989662080615726
 40
1.0
 40
1.0
 40
1.0
 40
1.0
 10
175.6394801860364
 20
247.1579930799369
 30
0.0
 10
175.5807778311809
 20
247.5717964726674
 30
0.0
 10
175.4631298744513
 20
248.4011179498433
 30
0.0
 10
175.4425374403395
 20
249.2364880995802
 30
0.0
 10
175.4322199349912
 20
249.6550367733751
 30
0.0
  0
LINE
  5
298
330
1F
100
AcDbEntity
  8
0
  6
Continuous
 62
     7
370
    15
100
AcDbLine
 10
175.4322199349912
 20
249.6609502060626
 30
0.0
 11
175.4322199349912
 21
249.6550367733751
 31
0.0
  0
SPLINE
  5
299
330
1F
100
AcDbEntity
  8
0
  6
Continuous
 62
     7
370
    15
100
AcDbSpline
210
0.0
220
0.0
230
1.0
 70
     8
 71
     3
 72
     9
 73
     5
 74
     0
 42
0.0000000001
 43
0.0000000001
 40
0.0
 40
0.0
 40
0.0
 40
0.0
 40
0.4987943781067903
 40
1.0
 40
1.0
 40
1.0
 40
1.0
 10
175.4322199349912
 20
249.6609502060626
 30
0.0
 10
175.4424450938578
 20
250.0776272248296
 30
0.0
 10
175.4629448414799
 20
250.9129955390207
 30
0.0
 10
175.580540553874
 20
251.7423272753199
 30
0.0
 10
175.6394801860364
 20
252.1579930039675
 30
0.0
  0
LINE
  5
29A
330
1F
100
AcDbEntity
  8
0
  6
Continuous
 62
     7
370
    15
100
AcDbLine
 10
179.4322205906423
 20
249.6609502060626
 30
0.0
 11
179.4322205906423
 21
249.6550367733751
 31
0.0
  0
SPLINE
  5
29B
330
1F
100
AcDbEntity
  8
0
  6
Continuous
 62
     7
370
    15
100
AcDbSpline
210
0.0
220
0.0
230
1.0
 70
     8
 71
     3
 72
     9
 73
     5
 74
     0
 42
0.0000000001
 43
0.0000000001
 40
0.0
 40
0.0
 40
0.0
 40
0.0
 40
0.4989662080615726
 40
1.0
 40
1.0
 40
1.0
 40
1.0
 10
179.2249603395971
 20
247.1579930799369
 30
0.0
 10
179.2836626944526
 20
247.5717964726674
 30
0.0
 10
179.4013106511823
 20
248.4011179498433
 30
0.0
 10
179.4219030852941
 20
249.2364880995802
 30
0.0
 10
179.4322205906423
 20
249.6550367733751
 30
0.0
  0
LINE
  5
29C
330
1F
100
AcDbEntity
  8
0
  6
Continuous
 62
     7
370
    15
100
AcDbLine
 10
175.4322199349912
 20
249.6609502060626
 30
0.0
 11
175.4322199349912
 21
254.6550357302938
 31
0.0
  0
SPLINE
  5
29D
330
1F
100
AcDbEntity
  8
0
  6
Continuous
 62
     7
370
    15
100
AcDbSpline
210
0.0
220
0.0
230
1.0
 70
    24
 71
     3
 72
     9
 73
     5
 74
     0
 42
0.0000000001
 43
0.0000000001
 40
0.0
 40
0.0
 40
0.0
 40
0.0
 40
0.4987908080495158
 40
1.0
 40
1.0
 40
1.0
 40
1.0
 10
179.4322205906423
 20
247.1579930799369
 30
0.0
 10
179.422058422137
 20
247.1579930799369
 30
0.0
 10
179.4016848139202
 20
247.1579930799369
 30
0.0
 10
179.2839633962319
 20
247.1579930799369
 30
0.0
 10
179.2249603395971
 20
247.1579930799369
 30
0.0
  0
LINE
  5
29E
330
1F
100
AcDbEntity
  8
0
  6
Continuous
 62
     7
370
    15
100
AcDbLine
 10
179.4322205906423
 20
249.6550367733751
 30
0.0
 11
179.4322205906423
 21
247.1579930799369
 31
0.0
  0
SPLINE
  5
29F
330
1F
100
AcDbEntity
  8
0
  6
Continuous
 62
     7
370
    15
100
AcDbSpline
210
0.0
220
0.0
230
1.0
 70
    24
 71
     3
 72
     9
 73
     5
 74
     0
 42
0.0000000001
 43
0.0000000001
 40
0.0
 40
0.0
 40
0.0
 40
0.0
 40
0.4989632760750421
 40
1.0
 40
1.0
 40
1.0
 40
1.0
 10
179.2249603395971
 20
257.1579928564194
 30
0.0
 10
179.2837259434264
 20
257.1579928564194
 30
0.0
 10
179.4015013522532
 20
257.1579928564194
 30
0.0
 10
179.4219666999023
 20
257.1579928564194
 30
0.0
 10
179.4322205906423
 20
257.1579928564194
 30
0.0
  0
LINE
  5
2A0
330
1F
100
AcDbEntity
  8
0
  6
Continuous
 62
     7
370
    15
100
AcDbLine
 10
179.4322205906423
 20
257.1579928564194
 30
0.0
 11
179.4322205906423
 21
254.6609491629813
 31
0.0
  0
SPLINE
  5
2A1
330
1F
100
AcDbEntity
  8
0
  6
Continuous
 62
     7
370
    15
100
AcDbSpline
210
0.0
220
0.0
230
1.0
 70
    24
 71
     3
 72
     9
 73
     5
 74
     0
 42
0.0000000001
 43
0.0000000001
 40
0.0
 40
0.0
 40
0.0
 40
0.0
 40
0.4987908080495158
 40
1.0
 40
1.0
 40
1.0
 40
1.0
 10
175.4322199349912
 20
247.1579930799369
 30
0.0
 10
175.4423821034966
 20
247.1579930799369
 30
0.0
 10
175.4627557117134
 20
247.1579930799369
 30
0.0
 10
175.5804771294016
 20
247.1579930799369
 30
0.0
 10
175.6394801860364
 20
247.1579930799369
 30
0.0
  0
LINE
  5
2A2
330
1F
100
AcDbEntity
  8
0
  6
Continuous
 62
     7
370
    15
100
AcDbLine
 10
175.4322199349912
 20
247.1579930799369
 30
0.0
 11
175.4322199349912
 21
249.6550367733751
 31
0.0
  0
SPLINE
  5
2A3
330
1F
100
AcDbEntity
  8
0
  6
Continuous
 62
     7
370
    15
100
AcDbSpline
210
0.0
220
0.0
230
1.0
 70
    24
 71
     3
 72
     9
 73
     5
 74
     0
 42
0.0000000001
 43
0.0000000001
 40
0.0
 40
0.0
 40
0.0
 40
0.0
 40
0.4989632760750421
 40
1.0
 40
1.0
 40
1.0
 40
1.0
 10
175.6394801860364
 20
257.1579928564194
 30
0.0
 10
175.5807145822072
 20
257.1579928564194
 30
0.0
 10
175.4629391733804
 20
257.1579928564194
 30
0.0
 10
175.4424738257313
 20
257.1579928564194
 30
0.0
 10
175.4322199349912
 20
257.1579928564194
 30
0.0
  0
LINE
  5
2A4
330
1F
100
AcDbEntity
  8
0
  6
Continuous
 62
     7
370
    15
100
AcDbLine
 10
175.4322199349912
 20
254.6609491629813
 30
0.0
 11
175.4322199349912
 21
257.1579928564194
 31
0.0
  0
LINE
  5
2A5
330
1F
100
AcDbEntity
  8
0
  6
Continuous
 62
     7
370
    15
100
AcDbLine
 10
165.4322220211538
 20
257.1579928564194
 30
0.0
 11
169.4322189515146
 21
257.1579928564194
 31
0.0
  0
LINE
  5
2A6
330
1F
100
AcDbEntity
  8
0
  6
Continuous
 62
     7
370
    15
100
AcDbLine
 10
169.4322189515146
 20
252.1579929681782
 30
0.0
 11
165.4322220211538
 21
252.1579929681782
 31
0.0
  0
LINE
  5
2A7
330
1F
100
AcDbEntity
  8
0
  6
Continuous
 62
     7
370
    15
100
AcDbLine
 10
169.4322189515146
 20
257.1579928564194
 30
0.0
 11
169.4322189515146
 21
252.1579929681782
 31
0.0
  0
LINE
  5
2A8
330
1F
100
AcDbEntity
  8
0
  6
Continuous
 62
     7
370
    15
100
AcDbLine
 10
165.4322220211538
 20
257.1579928564194
 30
0.0
 11
165.4322220211538
 21
252.1579929681782
 31
0.0
  0
LINE
  5
2A9
330
1F
100
AcDbEntity
  8
0
  6
Continuous
 62
     7
370
    15
100
AcDbLine
 10
169.4322189515146
 20
247.1579930799369
 30
0.0
 11
165.4322220211538
 21
247.1579930799369
 31
0.0
  0
LINE
  5
2AA
330
1F
100
AcDbEntity
  8
0
  6
Continuous
 62
     7
370
    15
100
AcDbLine
 10
169.4322189515146
 20
252.1579929681782
 30
0.0
 11
169.4322189515146
 21
247.1579930799369
 31
0.0
  0
LINE
  5
2AB
330
1F
100
AcDbEntity
  8
0
  6
Continuous
 62
     7
370
    15
100
AcDbLine
 10
165.4322220211538
 20
252.1579929681782
 30
0.0
 11
165.4322220211538
 21
247.1579930799369
 31
0.0
  0
SPLINE
  5
2AC
330
1F
100
AcDbEntity
  8
0
  6
Continuous
 62
     7
370
    15
100
AcDbSpline
210
0.0
220
0.0
230
1.0
 70
     8
 71
     3
 72
     9
 73
     5
 74
     0
 42
0.0000000001
 43
0.0000000001
 40
0.0
 40
0.0
 40
0.0
 40
0.0
 40
0.4970405279125404
 40
1.0
 40
1.0
 40
1.0
 40
1.0
 10
217.3133788829359
 20
237.3145830871824
 30
0.0
 10
217.6977237392429
 20
237.2497037562729
 30
0.0
 10
218.4709903739
 20
237.1191724871591
 30
0.0
 10
219.2443005828608
 20
237.2491896989685
 30
0.0
 10
219.6332442773195
 20
237.3145830871824
 30
0.0
  0
SPLINE
  5
2AD
330
1F
100
AcDbEntity
  8
0
  6
Continuous
 62
     7
370
    15
100
AcDbSpline
210
0.0
220
0.0
230
1.0
 70
     8
 71
     3
 72
     9
 73
     5
 74
     0
 42
0.0000000001
 43
0.0000000001
 40
0.0
 40
0.0
 40
0.0
 40
0.0
 40
0.4970405384333168
 40
1.0
 40
1.0
 40
1.0
 40
1.0
 10
219.6332442773195
 20
237.3145830871824
 30
0.0
 10
220.398463955746
 20
237.24970375537
 30
0.0
 10
221.9380158016347
 20
237.1191724872023
 30
0.0
 10
223.4776546343811
 20
237.2491896998931
 30
0.0
 10
224.2520305527063
 20
237.3145830871824
 30
0.0
  0
SPLINE
  5
2AE
330
1F
100
AcDbEntity
  8
0
  6
Continuous
 62
     7
370
    15
100
AcDbSpline
210
0.0
220
0.0
230
1.0
 70
     8
 71
     3
 72
     9
 73
     5
 74
     0
 42
0.0000000001
 43
0.0000000001
 40
0.0
 40
0.0
 40
0.0
 40
0.0
 40
0.5
 40
1.0
 40
1.0
 40
1.0
 40
1.0
 10
224.2520305527063
 20
237.3145830871824
 30
0.0
 10
224.6351840328735
 20
237.2494459206525
 30
0.0
 10
225.4014909932079
 20
237.1191715875927
 30
0.0
 10
226.1677979535423
 20
237.2494459206525
 30
0.0
 10
226.5509514337095
 20
237.3145830871824
 30
0.0
  0
LINE
  5
2AF
330
1F
100
AcDbEntity
  8
0
  6
Continuous
 62
     7
370
    15
100
AcDbLine
 10
225.2930745681437
 20
237.1579933034543
 30
0.0
 11
225.8071650949927
 21
237.1579933034543
 31
0.0
  0
LINE
  5
2B0
330
1F
100
AcDbEntity
  8
0
  6
Continuous
 62
     7
370
    15
100
AcDbLine
 10
218.0571652216526
 20
237.1579933034543
 30
0.0
 11
225.2930745681437
 21
237.1579933034543
 31
0.0
  0
LINE
  5
2B1
330
1F
100
AcDbEntity
  8
0
  6
Continuous
 62
     7
370
    15
100
AcDbLine
 10
219.6332442773195
 20
239.9473118650083
 30
0.0
 11
219.6332442773195
 21
237.3145830871824
 31
0.0
  0
SPLINE
  5
2B2
330
1F
100
AcDbEntity
  8
0
  6
Continuous
 62
     7
370
    15
100
AcDbSpline
210
0.0
220
0.0
230
1.0
 70
     8
 71
     3
 72
    11
 73
     7
 74
     0
 42
0.0000000001
 43
0.0000000001
 40
0.0
 40
0.0
 40
0.0
 40
0.0
 40
0.2474072610045091
 40
0.4947242871057965
 40
0.7473137604799564
 40
1.0
 40
1.0
 40
1.0
 40
1.0
 10
224.2520305527063
 20
239.9473118650083
 30
0.0
 10
223.8726375485444
 20
239.994773044834
 30
0.0
 10
223.1139899132453
 20
240.0896780943428
 30
0.0
 10
221.9589931348093
 20
240.1365195843543
 30
0.0
 10
220.7956319207024
 20
240.0922857491399
 30
0.0
 10
220.020756290997
 20
239.9956426624753
 30
0.0
 10
219.6332442773195
 20
239.9473118650083
 30
0.0
  0
LINE
  5
2B3
330
1F
100
AcDbEntity
  8
0
  6
Continuous
 62
     7
370
    15
100
AcDbLine
 10
224.2520305527063
 20
239.9473118650083
 30
0.0
 11
224.2520305527063
 21
237.3145830871824
 31
0.0
  0
SPLINE
  5
2B4
330
1F
100
AcDbEntity
  8
0
  6
Continuous
 62
     7
370
    15
100
AcDbSpline
210
0.0
220
0.0
230
1.0
 70
     8
 71
     3
 72
    11
 73
     7
 74
     0
 42
0.0000000001
 43
0.0000000001
 40
0.0
 40
0.0
 40
0.0
 40
0.0
 40
0.2474073137541596
 40
0.4947244540852946
 40
0.7473139611060156
 40
1.0
 40
1.0
 40
1.0
 40
1.0
 10
219.6332442773195
 20
239.9473118650083
 30
0.0
 10
219.4426875994507
 20
239.9947730461671
 30
0.0
 10
219.0616436965825
 20
240.0896781101395
 30
0.0
 10
218.4815263437883
 20
240.1365195706108
 30
0.0
 10
217.8972088839843
 20
240.0922858051215
 30
0.0
 10
217.5080136682721
 20
239.9956426662049
 30
0.0
 10
217.3133788829359
 20
239.9473118650083
 30
0.0
  0
SPLINE
  5
2B5
330
1F
100
AcDbEntity
  8
0
  6
Continuous
 62
     7
370
    15
100
AcDbSpline
210
0.0
220
0.0
230
1.0
 70
     8
 71
     3
 72
    11
 73
     7
 74
     0
 42
0.0000000001
 43
0.0000000001
 40
0.0
 40
0.0
 40
0.0
 40
0.0
 40
0.2494294811877249
 40
0.4999998760735362
 40
0.7493340800339873
 40
1.0
 40
1.0
 40
1.0
 40
1.0
 10
226.5509514337095
 20
239.9473118650083
 30
0.0
 10
226.3605770197293
 20
239.9954138808739
 30
0.0
 10
225.9789574014531
 20
240.0918379357097
 30
0.0
 10
225.4024421967816
 20
240.1360624478829
 30
0.0
 10
224.8249750241511
 20
240.0920004749962
 30
0.0
 10
224.4433508531151
 20
239.9956269630819
 30
0.0
 10
224.2520305527063
 20
239.9473118650083
 30
0.0
  0
LINE
  5
2B6
330
1F
100
AcDbEntity
  8
0
  6
Continuous
 62
     7
370
    15
100
AcDbLine
 10
217.3133788829359
 20
239.9473118650083
 30
0.0
 11
217.3133788829359
 21
237.3145830871824
 31
0.0
  0
LINE
  5
2B7
330
1F
100
AcDbEntity
  8
0
  6
Continuous
 62
     7
370
    15
100
AcDbLine
 10
226.5509514337095
 20
237.3145830871824
 30
0.0
 11
226.5509514337095
 21
239.9473118650083
 31
0.0
  0
SPLINE
  5
2B8
330
1F
100
AcDbEntity
  8
0
  6
Continuous
 62
     7
370
    15
100
AcDbSpline
210
0.0
220
0.0
230
1.0
 70
     8
 71
     3
 72
     9
 73
     5
 74
     0
 42
0.0000000001
 43
0.0000000001
 40
0.0
 40
0.0
 40
0.0
 40
0.0
 40
0.4970402729790721
 40
1.0
 40
1.0
 40
1.0
 40
1.0
 10
226.5509514337095
 20
267.0014028491739
 30
0.0
 10
226.1700764813479
 20
267.0662821582031
 30
0.0
 10
225.4037905824632
 20
267.1968134502458
 30
0.0
 10
224.6374626436303
 20
267.0667962597923
 30
0.0
 10
224.2520305527063
 20
267.0014028491739
 30
0.0
  0
SPLINE
  5
2B9
330
1F
100
AcDbEntity
  8
0
  6
Continuous
 62
     7
370
    15
100
AcDbSpline
210
0.0
220
0.0
230
1.0
 70
     8
 71
     3
 72
     9
 73
     5
 74
     0
 42
0.0000000001
 43
0.0000000001
 40
0.0
 40
0.0
 40
0.0
 40
0.0
 40
0.497040555853706
 40
1.0
 40
1.0
 40
1.0
 40
1.0
 10
224.2520305527063
 20
267.0014028491739
 30
0.0
 10
223.4868108473321
 20
267.0662821824815
 30
0.0
 10
221.9472590011858
 20
267.1968134490824
 30
0.0
 10
220.4076201686951
 20
267.0667962349323
 30
0.0
 10
219.6332442773195
 20
267.0014028491739
 30
0.0
  0
SPLINE
  5
2BA
330
1F
100
AcDbEntity
  8
0
  6
Continuous
 62
     7
370
    15
100
AcDbSpline
210
0.0
220
0.0
230
1.0
 70
     8
 71
     3
 72
     9
 73
     5
 74
     0
 42
0.0000000001
 43
0.0000000001
 40
0.0
 40
0.0
 40
0.0
 40
0.0
 40
0.5
 40
1.0
 40
1.0
 40
1.0
 40
1.0
 10
219.6332442773195
 20
267.0014028491739
 30
0.0
 10
219.2466000449222
 20
267.0665400157038
 30
0.0
 10
218.4733115801277
 20
267.1968143487636
 30
0.0
 10
217.7000231153332
 20
267.0665400157038
 30
0.0
 10
217.3133788829359
 20
267.0014028491739
 30
0.0
  0
LINE
  5
2BB
330
1F
100
AcDbEntity
  8
0
  6
Continuous
 62
     7
370
    15
100
AcDbLine
 10
218.5814006453069
 20
267.157992632902
 30
0.0
 11
218.0571652216526
 21
267.157992632902
 31
0.0
  0
LINE
  5
2BC
330
1F
100
AcDbEntity
  8
0
  6
Continuous
 62
     7
370
    15
100
AcDbLine
 10
225.8071650949927
 20
267.157992632902
 30
0.0
 11
218.5814006453069
 21
267.157992632902
 31
0.0
  0
LINE
  5
2BD
330
1F
100
AcDbEntity
  8
0
  6
Continuous
 62
     7
370
    15
100
AcDbLine
 10
224.2520305527063
 20
264.368674071348
 30
0.0
 11
224.2520305527063
 21
267.0014028491739
 31
0.0
  0
SPLINE
  5
2BE
330
1F
100
AcDbEntity
  8
0
  6
Continuous
 62
     7
370
    15
100
AcDbSpline
210
0.0
220
0.0
230
1.0
 70
     8
 71
     3
 72
    11
 73
     7
 74
     0
 42
0.0000000001
 43
0.0000000001
 40
0.0
 40
0.0
 40
0.0
 40
0.0
 40
0.2474072360392653
 40
0.4947242697867801
 40
0.7473137355133263
 40
1.0
 40
1.0
 40
1.0
 40
1.0
 10
219.6332442773195
 20
264.368674071348
 30
0.0
 10
220.0126372426118
 20
264.321212891258
 30
0.0
 10
220.771284850181
 20
264.2263078349663
 30
0.0
 10
221.9262815909312
 20
264.1794663521455
 30
0.0
 10
223.0896428427376
 20
264.223700194099
 30
0.0
 10
223.8645185001614
 20
264.3203432740966
 30
0.0
 10
224.2520305527063
 20
264.368674071348
 30
0.0
  0
LINE
  5
2BF
330
1F
100
AcDbEntity
  8
0
  6
Continuous
 62
     7
370
    15
100
AcDbLine
 10
219.6332442773195
 20
264.368674071348
 30
0.0
 11
219.6332442773195
 21
267.0014028491739
 31
0.0
  0
SPLINE
  5
2C0
330
1F
100
AcDbEntity
  8
0
  6
Continuous
 62
     7
370
    15
100
AcDbSpline
210
0.0
220
0.0
230
1.0
 70
     8
 71
     3
 72
    11
 73
     7
 74
     0
 42
0.0000000001
 43
0.0000000001
 40
0.0
 40
0.0
 40
0.0
 40
0.0
 40
0.2474073642623437
 40
0.4947242286328128
 40
0.7473140336393081
 40
1.0
 40
1.0
 40
1.0
 40
1.0
 10
224.2520305527063
 20
264.368674071348
 30
0.0
 10
224.4408667837411
 20
264.321212890643
 30
0.0
 10
224.8184701708317
 20
264.2263078902024
 30
0.0
 10
225.3933510352474
 20
264.1794663642061
 30
0.0
 10
225.9723919642847
 20
264.2237000588735
 30
0.0
 10
226.358073810273
 20
264.320343269652
 30
0.0
 10
226.5509514337095
 20
264.368674071348
 30
0.0
  0
SPLINE
  5
2C1
330
1F
100
AcDbEntity
  8
0
  6
Continuous
 62
     7
370
    15
100
AcDbSpline
210
0.0
220
0.0
230
1.0
 70
     8
 71
     3
 72
    11
 73
     7
 74
     0
 42
0.0000000001
 43
0.0000000001
 40
0.0
 40
0.0
 40
0.0
 40
0.0
 40
0.2494294782542689
 40
0.4999998760802712
 40
0.7493340804554708
 40
1.0
 40
1.0
 40
1.0
 40
1.0
 10
217.3133788829359
 20
264.368674071348
 30
0.0
 10
217.5054877566771
 20
264.3205720554154
 30
0.0
 10
217.89058423259
 20
264.2241479993098
 30
0.0
 10
218.4723516767578
 20
264.1799234887824
 30
0.0
 10
219.0550799551914
 20
264.2239854610617
 30
0.0
 10
219.440180940146
 20
264.3203589732284
 30
0.0
 10
219.6332442773195
 20
264.368674071348
 30
0.0
  0
LINE
  5
2C2
330
1F
100
AcDbEntity
  8
0
  6
Continuous
 62
     7
370
    15
100
AcDbLine
 10
217.3133788829359
 20
267.0014028491739
 30
0.0
 11
217.3133788829359
 21
264.368674071348
 31
0.0
  0
LINE
  5
2C3
330
1F
100
AcDbEntity
  8
0
  6
Continuous
 62
     7
370
    15
100
AcDbLine
 10
226.5509514337095
 20
264.368674071348
 30
0.0
 11
226.5509514337095
 21
267.0014028491739
 31
0.0
  0
LINE
  5
2C4
330
1F
100
AcDbEntity
  8
0
  6
Continuous
 62
     7
370
    15
100
AcDbLine
 10
237.5073375379356
 20
243.8346327336792
 30
0.0
 11
237.5117929851326
 21
244.5091505589251
 31
0.0
  0
ARC
  5
2C5
330
1F
100
AcDbEntity
  8
0
  6
Continuous
 62
     7
370
    15
100
AcDbCircle
 10
205.802609405676
 20
243.8946295985758
 30
0.0
 40
31.70478490014222
100
AcDbArc
 50
358.6242624060034
 51
359.8915756973255
  0
LINE
  5
2C6
330
1F
100
AcDbEntity
  8
0
  6
Continuous
 62
     7
370
    15
100
AcDbLine
 10
247.5097289507898
 20
244.2295908050899
 30
0.0
 11
247.5071193849357
 21
243.8346327336792
 31
0.0
  0
LINE
  5
2C7
330
1F
100
AcDbEntity
  8
0
  6
Continuous
 62
     7
370
    15
100
AcDbLine
 10
237.4802164932402
 20
243.1023999171618
 30
0.0
 11
240.8189064090761
 21
243.1023999171618
 31
0.0
  0
LINE
  5
2C8
330
1F
100
AcDbEntity
  8
0
  6
Continuous
 62
     7
370
    15
100
AcDbLine
 10
244.6343617712768
 20
243.1023999171618
 30
0.0
 11
247.4954424624952
 21
243.1023999171618
 31
0.0
  0
LINE
  5
2C9
330
1F
100
AcDbEntity
  8
0
  6
Continuous
 62
     7
370
    15
100
AcDbLine
 10
237.4802164932402
 20
243.1023999171618
 30
0.0
 11
237.4982552801879
 21
243.1334343793158
 31
0.0
  0
ARC
  5
2CA
330
1F
100
AcDbEntity
  8
0
  6
Continuous
 62
     7
370
    15
100
AcDbCircle
 10
231.1465920324483
 20
243.7293246768279
 30
0.0
 40
16.36086626796778
100
AcDbArc
 50
357.8039708684485
 51
0.3687915279414826
  0
LINE
  5
2CB
330
1F
100
AcDbEntity
  8
0
  6
Continuous
 62
     7
370
    15
100
AcDbLine
 10
236.540453342131
 20
243.1023999171618
 30
0.0
 11
237.4802164932402
 21
243.1023999171618
 31
0.0
  0
LINE
  5
2CC
330
1F
100
AcDbEntity
  8
0
  6
Continuous
 62
     7
370
    15
100
AcDbLine
 10
236.540453342131
 20
245.1023993136648
 30
0.0
 11
236.540453342131
 21
243.1023999171618
 31
0.0
  0
LINE
  5
2CD
330
1F
100
AcDbEntity
  8
0
  6
Continuous
 62
     7
370
    15
100
AcDbLine
 10
236.7429349770459
 20
245.1023993136648
 30
0.0
 11
236.540453342131
 21
245.1023993136648
 31
0.0
  0
SPLINE
  5
2CE
330
1F
100
AcDbEntity
  8
0
  6
Continuous
 62
     7
370
    15
100
AcDbSpline
210
0.0
220
0.0
230
1.0
 70
     8
 71
     3
 72
    11
 73
     7
 74
     0
 42
0.0000000001
 43
0.0000000001
 40
0.0
 40
0.0
 40
0.0
 40
0.0
 40
0.0495461179051456
 40
0.4781998415109492
 40
0.9098692825488654
 40
1.0
 40
1.0
 40
1.0
 40
1.0
 10
234.9567048450621
 20
243.8346327336792
 30
0.0
 10
234.9773012705213
 20
243.8120500470257
 30
0.0
 10
235.1760899507791
 20
243.5940907469802
 30
0.0
 10
235.6321172171402
 20
243.2655347614112
 30
0.0
 10
236.1835081713919
 20
243.1112041528118
 30
0.0
 10
236.487879226991
 20
243.1036966846677
 30
0.0
 10
236.540453342131
 20
243.1023999171618
 30
0.0
  0
LINE
  5
2CF
330
1F
100
AcDbEntity
  8
0
  6
Continuous
 62
     7
370
    15
100
AcDbLine
 10
236.2887969439539
 20
245.2488460632328
 30
0.0
 11
234.9567048450621
 21
243.8346327336792
 31
0.0
  0
SPLINE
  5
2D0
330
1F
100
AcDbEntity
  8
0
  6
Continuous
 62
     7
370
    15
100
AcDbSpline
210
0.0
220
0.0
230
1.0
 70
     8
 71
     3
 72
    11
 73
     7
 74
     0
 42
0.0000000001
 43
0.0000000001
 40
0.0
 40
0.0
 40
0.0
 40
0.0
 40
0.2724516798028239
 40
0.5217453871070977
 40
0.9517562348027224
 40
1.0
 40
1.0
 40
1.0
 40
1.0
 10
236.540453342131
 20
245.1023993136648
 30
0.0
 10
236.5155387822143
 20
245.1044749713967
 30
0.0
 10
236.4678273615406
 20
245.1084498591551
 30
0.0
 10
236.3823160247072
 20
245.1470503735267
 30
0.0
 10
236.3232045749406
 20
245.1995294804387
 30
0.0
 10
236.2919497621569
 20
245.2443271174209
 30
0.0
 10
236.2887969439539
 20
245.2488460632328
 30
0.0
  0
ARC
  5
2D1
330
1F
100
AcDbEntity
  8
0
  6
Continuous
 62
     7
370
    15
100
AcDbCircle
 10
223.2604690021247
 20
235.6876560226829
 30
0.0
 40
14.25395251932358
100
AcDbArc
 50
34.85902039361306
 51
43.71070892135649
  0
ARC
  5
2D2
330
1F
100
AcDbEntity
  8
0
  6
Continuous
 62
     7
370
    15
100
AcDbCircle
 10
224.5925405207659
 20
237.1018552102356
 30
0.0
 40
14.25397748966177
100
AcDbArc
 50
34.85901975667224
 51
43.71069420008653
  0
SPLINE
  5
2D3
330
1F
100
AcDbEntity
  8
0
  6
Continuous
 62
     7
370
    15
100
AcDbSpline
210
0.0
220
0.0
230
1.0
 70
     8
 71
     3
 72
    10
 73
     6
 74
     0
 42
0.0000000001
 43
0.0000000001
 40
0.0
 40
0.0
 40
0.0
 40
0.0
 40
0.2572330099923235
 40
0.6860603556248962
 40
1.0
 40
1.0
 40
1.0
 40
1.0
 10
234.8958596786173
 20
246.9516008215312
 30
0.0
 10
234.7772172905636
 20
247.0628369675657
 30
0.0
 10
234.4607888549487
 20
247.3595123822376
 30
0.0
 10
233.8785887040408
 20
247.6325575211248
 30
0.0
 10
233.4199088016929
 20
247.6685998868936
 30
0.0
 10
233.2260420744928
 20
247.6838336380486
 30
0.0
  0
LINE
  5
2D4
330
1F
100
AcDbEntity
  8
0
  6
Continuous
 62
     7
370
    15
100
AcDbLine
 10
234.2050939997347
 20
247.6838336380486
 30
0.0
 11
233.2260420744928
 21
247.6838336380486
 31
0.0
  0
SPLINE
  5
2D5
330
1F
100
AcDbEntity
  8
0
  6
Continuous
 62
     7
370
    15
100
AcDbSpline
210
0.0
220
0.0
230
1.0
 70
     8
 71
     3
 72
    10
 73
     6
 74
     0
 42
0.0000000001
 43
0.0000000001
 40
0.0
 40
0.0
 40
0.0
 40
0.0
 40
0.3216423009928293
 40
0.7486600442318152
 40
1.0
 40
1.0
 40
1.0
 40
1.0
 10
233.2260420744928
 20
245.6838337758843
 30
0.0
 10
233.2664800805402
 20
245.680652960444
 30
0.0
 10
233.3606042653961
 20
245.6732492407812
 30
0.0
 10
233.4779643072103
 20
245.6179657503035
 30
0.0
 10
233.5405710161891
 20
245.559171154542
 30
0.0
 10
233.5637675797256
 20
245.5373870263163
 30
0.0
  0
LINE
  5
2D6
330
1F
100
AcDbEntity
  8
0
  6
Continuous
 62
     7
370
    15
100
AcDbLine
 10
233.2260420744928
 20
247.6838336380486
 30
0.0
 11
233.2260420744928
 21
245.6838337758843
 31
0.0
  0
LINE
  5
2D7
330
1F
100
AcDbEntity
  8
0
  6
Continuous
 62
     7
370
    15
100
AcDbLine
 10
226.9308993791851
 20
245.6838337758843
 30
0.0
 11
231.8713495706829
 21
245.6838337758843
 31
0.0
  0
LINE
  5
2D8
330
1F
100
AcDbEntity
  8
0
  6
Continuous
 62
     7
370
    15
100
AcDbLine
 10
227.562225257388
 20
247.6838336380486
 30
0.0
 11
231.8713495706829
 21
247.6838336380486
 31
0.0
  0
LINE
  5
2D9
330
1F
100
AcDbEntity
  8
0
  6
Continuous
 62
     7
370
    15
100
AcDbLine
 10
231.8713551586183
 20
245.6838337758843
 30
0.0
 11
233.2260420744928
 21
245.6838337758843
 31
0.0
  0
LINE
  5
2DA
330
1F
100
AcDbEntity
  8
0
  6
Continuous
 62
     7
370
    15
100
AcDbLine
 10
233.2260420744928
 20
247.6838336380486
 30
0.0
 11
231.9639146526965
 21
247.6838336380486
 31
0.0
  0
LINE
  5
2DB
330
1F
100
AcDbEntity
  8
0
  6
Continuous
 62
     7
370
    15
100
AcDbLine
 10
237.4997705420168
 20
259.3243800157968
 30
0.0
 11
237.4982552801879
 21
259.5538350807789
 31
0.0
  0
ARC
  5
2DC
330
1F
100
AcDbEntity
  8
0
  6
Continuous
 62
     7
370
    15
100
AcDbCircle
 10
205.8025782214077
 20
260.9471964122902
 30
0.0
 40
31.70481608703231
100
AcDbArc
 50
0.1084267530261744
 51
1.375737114673095
  0
LINE
  5
2DD
330
1F
100
AcDbEntity
  8
0
  6
Continuous
 62
     7
370
    15
100
AcDbLine
 10
237.5073375379356
 20
261.0071946921113
 30
0.0
 11
237.5183681225093
 21
259.3372010680202
 31
0.0
  0
LINE
  5
2DE
330
1F
100
AcDbEntity
  8
0
  6
Continuous
 62
     7
370
    15
100
AcDbLine
 10
247.5163599675211
 20
259.6082015017334
 30
0.0
 11
247.5071193849357
 21
261.0071946921113
 31
0.0
  0
LINE
  5
2DF
330
1F
100
AcDbEntity
  8
0
  6
Continuous
 62
     7
370
    15
100
AcDbLine
 10
237.4802164932402
 20
261.7394275086287
 30
0.0
 11
237.4982552801879
 21
261.7083921151522
 31
0.0
  0
LINE
  5
2E0
330
1F
100
AcDbEntity
  8
0
  6
Continuous
 62
     7
370
    15
100
AcDbLine
 10
237.4802164932402
 20
261.7394275086287
 30
0.0
 11
247.4954424624952
 21
261.7394275086287
 31
0.0
  0
ARC
  5
2E1
330
1F
100
AcDbEntity
  8
0
  6
Continuous
 62
     7
370
    15
100
AcDbCircle
 10
231.146504992276
 20
261.1125013609323
 30
0.0
 40
16.36095329740299
100
AcDbArc
 50
359.6312152947721
 51
2.196022308839257
  0
LINE
  5
2E2
330
1F
100
AcDbEntity
  8
0
  6
Continuous
 62
     7
370
    15
100
AcDbLine
 10
237.4802164932402
 20
259.7394271808032
 30
0.0
 11
236.540453342131
 21
259.7394271808032
 31
0.0
  0
LINE
  5
2E3
330
1F
100
AcDbEntity
  8
0
  6
Continuous
 62
     7
370
    15
100
AcDbLine
 10
236.540453342131
 20
259.7394271808032
 30
0.0
 11
236.540453342131
 21
261.7394275086287
 31
0.0
  0
LINE
  5
2E4
330
1F
100
AcDbEntity
  8
0
  6
Continuous
 62
     7
370
    15
100
AcDbLine
 10
236.540453342131
 20
261.7394275086287
 30
0.0
 11
237.4802164932402
 21
261.7394275086287
 31
0.0
  0
SPLINE
  5
2E5
330
1F
100
AcDbEntity
  8
0
  6
Continuous
 62
     7
370
    15
100
AcDbSpline
210
0.0
220
0.0
230
1.0
 70
     8
 71
     3
 72
    10
 73
     6
 74
     0
 42
0.0000000001
 43
0.0000000001
 40
0.0
 40
0.0
 40
0.0
 40
0.0
 40
0.4277863886867252
 40
0.8440510706321928
 40
1.0
 40
1.0
 40
1.0
 40
1.0
 10
237.4802164932402
 20
259.7394271808032
 30
0.0
 10
237.4844234371133
 20
259.7339224759855
 30
0.0
 10
237.4927240179033
 20
259.7230613263141
 30
0.0
 10
237.4966411030758
 20
259.6574634379078
 30
0.0
 10
237.4975860919288
 20
259.6067906113683
 30
0.0
 10
237.49784363561
 20
259.5929804312352
 30
0.0
  0
LINE
  5
2E6
330
1F
100
AcDbEntity
  8
0
  6
Continuous
 62
     7
370
    15
100
AcDbLine
 10
237.4982552801879
 20
259.5538350807789
 30
0.0
 11
237.49784363561
 21
259.5929804312352
 31
0.0
  0
SPLINE
  5
2E7
330
1F
100
AcDbEntity
  8
0
  6
Continuous
 62
     7
370
    15
100
AcDbSpline
210
0.0
220
0.0
230
1.0
 70
     8
 71
     3
 72
    11
 73
     7
 74
     0
 42
0.0000000001
 43
0.0000000001
 40
0.0
 40
0.0
 40
0.0
 40
0.0
 40
0.0495461226077846
 40
0.4781998868989901
 40
0.909869257507492
 40
1.0
 40
1.0
 40
1.0
 40
1.0
 10
234.9567048450621
 20
261.0071946921113
 30
0.0
 10
234.9773012707305
 20
261.0297773768089
 30
0.0
 10
235.1760899530079
 20
261.2477366579769
 30
0.0
 10
235.6321170561164
 20
261.5762936074032
 30
0.0
 10
236.1835082999106
 20
261.7306209130675
 30
0.0
 10
236.4878792295654
 20
261.7381303931302
 30
0.0
 10
236.540453342131
 20
261.7394275086287
 30
0.0
  0
SPLINE
  5
2E8
330
1F
100
AcDbEntity
  8
0
  6
Continuous
 62
     7
370
    15
100
AcDbSpline
210
0.0
220
0.0
230
1.0
 70
     8
 71
     3
 72
    11
 73
     7
 74
     0
 42
0.0000000001
 43
0.0000000001
 40
0.0
 40
0.0
 40
0.0
 40
0.0
 40
0.2724516535448787
 40
0.5217454172787073
 40
0.951756835980781
 40
1.0
 40
1.0
 40
1.0
 40
1.0
 10
236.540453342131
 20
259.7394271808032
 30
0.0
 10
236.5155387879204
 20
259.7373516990292
 30
0.0
 10
236.4678273708167
 20
259.7333771476174
 30
0.0
 10
236.38231587738
 20
259.6947767988032
 30
0.0
 10
236.3232049990478
 20
259.6422962576899
 30
0.0
 10
236.2919497655105
 20
259.5974996798431
 30
0.0
 10
236.2887969439539
 20
259.5929808968965
 30
0.0
  0
LINE
  5
2E9
330
1F
100
AcDbEntity
  8
0
  6
Continuous
 62
     7
370
    15
100
AcDbLine
 10
236.2887969439539
 20
259.5929808968965
 30
0.0
 11
234.9567048450621
 21
261.0071946921113
 31
0.0
  0
ARC
  5
2EA
330
1F
100
AcDbEntity
  8
0
  6
Continuous
 62
     7
370
    15
100
AcDbCircle
 10
224.5925405207659
 20
267.7399717498937
 30
0.0
 40
14.25397748966181
100
AcDbArc
 50
316.2893057999141
 51
325.1409802433284
  0
ARC
  5
2EB
330
1F
100
AcDbEntity
  8
0
  6
Continuous
 62
     7
370
    15
100
AcDbCircle
 10
223.2605540423572
 20
269.1540964487135
 30
0.0
 40
14.25383989777292
100
AcDbArc
 50
316.2892699448028
 51
325.1410314566454
  0
LINE
  5
2EC
330
1F
100
AcDbEntity
  8
0
  6
Continuous
 62
     7
370
    15
100
AcDbLine
 10
235.2979488869818
 20
257.1579928564194
 30
0.0
 11
233.2260420744928
 21
257.1579928564194
 31
0.0
  0
SPLINE
  5
2ED
330
1F
100
AcDbEntity
  8
0
  6
Continuous
 62
     7
370
    15
100
AcDbSpline
210
0.0
220
0.0
230
1.0
 70
     8
 71
     3
 72
    10
 73
     6
 74
     0
 42
0.0000000001
 43
0.0000000001
 40
0.0
 40
0.0
 40
0.0
 40
0.0
 40
0.2572331217375037
 40
0.6860604028553772
 40
1.0
 40
1.0
 40
1.0
 40
1.0
 10
234.8958596786173
 20
257.8902261385981
 30
0.0
 10
234.7772173089424
 20
257.7789898133877
 30
0.0
 10
234.4607890380221
 20
257.4823140292953
 30
0.0
 10
233.8785886840257
 20
257.2092689993383
 30
0.0
 10
233.4199087957466
 20
257.1732266152973
 30
0.0
 10
233.2260420744928
 20
257.1579928564194
 30
0.0
  0
LINE
  5
2EE
330
1F
100
AcDbEntity
  8
0
  6
Continuous
 62
     7
370
    15
100
AcDbLine
 10
233.2260420744928
 20
257.1579928564194
 30
0.0
 11
233.2260420744928
 21
259.157993184245
 31
0.0
  0
SPLINE
  5
2EF
330
1F
100
AcDbEntity
  8
0
  6
Continuous
 62
     7
370
    15
100
AcDbSpline
210
0.0
220
0.0
230
1.0
 70
     8
 71
     3
 72
    10
 73
     6
 74
     0
 42
0.0000000001
 43
0.0000000001
 40
0.0
 40
0.0
 40
0.0
 40
0.0
 40
0.3216425433958415
 40
0.7486606084531546
 40
1.0
 40
1.0
 40
1.0
 40
1.0
 10
233.2260420744928
 20
259.157993184245
 30
0.0
 10
233.2664800869299
 20
259.1611739914175
 30
0.0
 10
233.3606042866586
 20
259.168577691836
 30
0.0
 10
233.4779641211708
 20
259.2238612944385
 30
0.0
 10
233.5405709978413
 20
259.2826555186919
 30
0.0
 10
233.5637675797256
 20
259.3044394681517
 30
0.0
  0
LINE
  5
2F0
330
1F
100
AcDbEntity
  8
0
  6
Continuous
 62
     7
370
    15
100
AcDbLine
 10
226.9308993791851
 20
259.157993184245
 30
0.0
 11
231.8713495706829
 21
259.157993184245
 31
0.0
  0
LINE
  5
2F1
330
1F
100
AcDbEntity
  8
0
  6
Continuous
 62
     7
370
    15
100
AcDbLine
 10
226.9308993791851
 20
257.1579928564194
 30
0.0
 11
231.8713495706829
 21
257.1579928564194
 31
0.0
  0
LINE
  5
2F2
330
1F
100
AcDbEntity
  8
0
  6
Continuous
 62
     7
370
    15
100
AcDbLine
 10
231.8713551586183
 20
259.157993184245
 30
0.0
 11
233.2260420744928
 21
259.157993184245
 31
0.0
  0
LINE
  5
2F3
330
1F
100
AcDbEntity
  8
0
  6
Continuous
 62
     7
370
    15
100
AcDbLine
 10
233.2260420744928
 20
257.1579928564194
 30
0.0
 11
231.9639146526965
 21
257.1579928564194
 31
0.0
  0
LINE
  5
2F4
330
1F
100
AcDbEntity
  8
0
  6
Continuous
 62
     7
370
    15
100
AcDbLine
 10
221.9452554282538
 20
264.1579930724863
 30
0.0
 11
216.9321652700814
 21
264.1579930724863
 31
0.0
  0
LINE
  5
2F5
330
1F
100
AcDbEntity
  8
0
  6
Continuous
 62
     7
370
    15
100
AcDbLine
 10
226.0383724433991
 20
261.6579926627043
 30
0.0
 11
236.1068071996482
 21
261.6579926627043
 31
0.0
  0
LINE
  5
2F6
330
1F
100
AcDbEntity
  8
0
  6
Continuous
 62
     7
370
    15
100
AcDbLine
 10
242.4451856141599
 20
264.1579930724863
 30
0.0
 11
221.9452554282538
 21
264.1579930724863
 31
0.0
  0
LINE
  5
2F7
330
1F
100
AcDbEntity
  8
0
  6
Continuous
 62
     7
370
    15
100
AcDbLine
 10
247.432095763615
 20
264.1579930724863
 30
0.0
 11
242.4451856141599
 21
264.1579930724863
 31
0.0
  0
LINE
  5
2F8
330
1F
100
AcDbEntity
  8
0
  6
Continuous
 62
     7
370
    15
100
AcDbLine
 10
216.9321652700814
 20
240.15799286387
 30
0.0
 11
221.9452554282538
 21
240.15799286387
 31
0.0
  0
LINE
  5
2F9
330
1F
100
AcDbEntity
  8
0
  6
Continuous
 62
     7
370
    15
100
AcDbLine
 10
221.9452554282538
 20
240.15799286387
 30
0.0
 11
242.4451856141599
 21
240.15799286387
 31
0.0
  0
LINE
  5
2FA
330
1F
100
AcDbEntity
  8
0
  6
Continuous
 62
     7
370
    15
100
AcDbLine
 10
242.4451856141599
 20
242.657993273652
 30
0.0
 11
226.0383724433991
 21
242.657993273652
 31
0.0
  0
LINE
  5
2FB
330
1F
100
AcDbEntity
  8
0
  6
Continuous
 62
     7
370
    15
100
AcDbLine
 10
242.4451856141599
 20
240.15799286387
 30
0.0
 11
247.432095763615
 21
240.15799286387
 31
0.0
  0
LINE
  5
2FC
330
1F
100
AcDbEntity
  8
0
  6
Continuous
 62
     7
370
    15
100
AcDbLine
 10
247.432095763615
 20
242.657993273652
 30
0.0
 11
242.4451856141599
 21
242.657993273652
 31
0.0
  0
LINE
  5
2FD
330
1F
100
AcDbEntity
  8
0
  6
Continuous
 62
     7
370
    15
100
AcDbLine
 10
179.9322216039213
 20
257.1579928564194
 30
0.0
 11
179.9322216039213
 21
247.1579930799369
 31
0.0
  0
ARC
  5
2FE
330
1F
100
AcDbEntity
  8
0
  6
Continuous
 62
     7
370
    15
100
AcDbCircle
 10
231.9322203484984
 20
262.0393863581685
 30
0.0
 40
5.106662497124883
100
AcDbArc
 50
252.9183693046131
 51
287.0816306953884
  0
SPLINE
  5
2FF
330
1F
100
AcDbEntity
  8
0
  6
Continuous
 62
     7
370
    15
100
AcDbSpline
210
0.0
220
0.0
230
1.0
 70
     8
 71
     3
 72
     9
 73
     5
 74
     0
 42
0.0000000001
 43
0.0000000001
 40
0.0
 40
0.0
 40
0.0
 40
0.0
 40
0.4989630096392034
 40
1.0
 40
1.0
 40
1.0
 40
1.0
 10
226.0383724433991
 20
252.1579929681782
 30
0.0
 10
226.1500274397144
 20
252.9451452566064
 30
0.0
 10
226.3738015355059
 20
254.5227216965864
 30
0.0
 10
226.4126836080174
 20
256.1118038672273
 30
0.0
 10
226.4321649646076
 20
256.9079928154412
 30
0.0
  0
LINE
  5
300
330
1F
100
AcDbEntity
  8
0
  6
Continuous
 62
     7
370
    15
100
AcDbLine
 10
226.0383724433991
 20
252.1579929681782
 30
0.0
 11
215.825958011082
 21
252.15799301002
 31
0.0
  0
SPLINE
  5
301
330
1F
100
AcDbEntity
  8
0
  6
Continuous
 62
     7
370
    15
100
AcDbSpline
210
0.0
220
0.0
230
1.0
 70
     8
 71
     3
 72
     9
 73
     5
 74
     0
 42
0.0000000001
 43
0.0000000001
 40
0.0
 40
0.0
 40
0.0
 40
0.0
 40
0.4989630014699987
 40
1.0
 40
1.0
 40
1.0
 40
1.0
 10
215.825958011082
 20
252.1579930518619
 30
0.0
 10
215.7143030532984
 20
252.9451453119082
 30
0.0
 10
215.4905290310669
 20
254.5227217208347
 30
0.0
 10
215.4516465738644
 20
256.1118038666729
 30
0.0
 10
215.4321650242122
 20
256.9079928154412
 30
0.0
  0
SPLINE
  5
302
330
1F
100
AcDbEntity
  8
0
  6
Continuous
 62
     7
370
    15
100
AcDbSpline
210
0.0
220
0.0
230
1.0
 70
     8
 71
     3
 72
     9
 73
     5
 74
     0
 42
0.0000000001
 43
0.0000000001
 40
0.0
 40
0.0
 40
0.0
 40
0.0
 40
0.4987906911917152
 40
0.9999999999999998
 40
0.9999999999999998
 40
0.9999999999999998
 40
0.9999999999999998
 10
215.4321650242122
 20
256.9079928154412
 30
0.0
 10
215.4514732824532
 20
257.7006123224747
 30
0.0
 10
215.4901834239653
 20
259.2896947192206
 30
0.0
 10
215.7138528251251
 20
260.8672881497887
 30
0.0
 10
215.825958011082
 20
261.6579926627043
 30
0.0
  0
LINE
  5
303
330
1F
100
AcDbEntity
  8
0
  6
Continuous
 62
     7
370
    15
100
AcDbLine
 10
215.825958011082
 20
261.6579926627043
 30
0.0
 11
226.0383724433991
 21
261.6579926627043
 31
0.0
  0
SPLINE
  5
304
330
1F
100
AcDbEntity
  8
0
  6
Continuous
 62
     7
370
    15
100
AcDbSpline
210
0.0
220
0.0
230
1.0
 70
     8
 71
     3
 72
     9
 73
     5
 74
     0
 42
0.0000000001
 43
0.0000000001
 40
0.0
 40
0.0
 40
0.0
 40
0.0
 40
0.4987906895851248
 40
1.0
 40
1.0
 40
1.0
 40
1.0
 10
226.4321649646076
 20
256.9079928154412
 30
0.0
 10
226.4128569000948
 20
257.7006123237344
 30
0.0
 10
226.3741471468537
 20
259.289694728124
 30
0.0
 10
226.1504776684371
 20
260.867288151073
 30
0.0
 10
226.0383724433991
 20
261.6579926627043
 30
0.0
  0
LINE
  5
305
330
1F
100
AcDbEntity
  8
0
  6
Continuous
 62
     7
370
    15
100
AcDbLine
 10
226.4321649646076
 20
247.4079931209151
 30
0.0
 11
226.4321649646076
 21
256.9079928154412
 31
0.0
  0
SPLINE
  5
306
330
1F
100
AcDbEntity
  8
0
  6
Continuous
 62
     7
370
    15
100
AcDbSpline
210
0.0
220
0.0
230
1.0
 70
     8
 71
     3
 72
     9
 73
     5
 74
     0
 42
0.0000000001
 43
0.0000000001
 40
0.0
 40
0.0
 40
0.0
 40
0.0
 40
0.4987909905302198
 40
1.0
 40
1.0
 40
1.0
 40
1.0
 10
226.4321649646076
 20
247.4079931209151
 30
0.0
 10
226.4128569382159
 20
248.2006122770282
 30
0.0
 10
226.3741472847572
 20
249.7896930165792
 30
0.0
 10
226.1504776696403
 20
251.3672880993822
 30
0.0
 10
226.0383724433991
 20
252.1579929681782
 30
0.0
  0
SPLINE
  5
307
330
1F
100
AcDbEntity
  8
0
  6
Continuous
 62
     7
370
    15
100
AcDbSpline
210
0.0
220
0.0
230
1.0
 70
     8
 71
     3
 72
     9
 73
     5
 74
     0
 42
0.0000000001
 43
0.0000000001
 40
0.0
 40
0.0
 40
0.0
 40
0.0
 40
0.4989633105779981
 40
1.0
 40
1.0
 40
1.0
 40
1.0
 10
226.0383724433991
 20
242.657993273652
 30
0.0
 10
226.1500274385152
 20
243.4451452074188
 30
0.0
 10
226.3738013969389
 20
245.0227199851214
 30
0.0
 10
226.41268356956
 20
246.6118038180503
 30
0.0
 10
226.4321649646076
 20
247.4079931209151
 30
0.0
  0
LINE
  5
308
330
1F
100
AcDbEntity
  8
0
  6
Continuous
 62
     7
370
    15
100
AcDbLine
 10
226.0383724433991
 20
242.657993273652
 30
0.0
 11
215.825958011082
 21
242.657993273652
 31
0.0
  0
SPLINE
  5
309
330
1F
100
AcDbEntity
  8
0
  6
Continuous
 62
     7
370
    15
100
AcDbSpline
210
0.0
220
0.0
230
1.0
 70
     8
 71
     3
 72
     9
 73
     5
 74
     0
 42
0.0000000001
 43
0.0000000001
 40
0.0
 40
0.0
 40
0.0
 40
0.0
 40
0.4989633089717084
 40
1.0
 40
1.0
 40
1.0
 40
1.0
 10
215.825958011082
 20
242.657993273652
 30
0.0
 10
215.7143030545238
 20
243.4451452086913
 30
0.0
 10
215.490529172656
 20
245.0227199940229
 30
0.0
 10
215.4516466131605
 20
246.6118038193211
 30
0.0
 10
215.4321650242122
 20
247.4079931209151
 30
0.0
  0
SPLINE
  5
30A
330
1F
100
AcDbEntity
  8
0
  6
Continuous
 62
     7
370
    15
100
AcDbSpline
210
0.0
220
0.0
230
1.0
 70
     8
 71
     3
 72
     9
 73
     5
 74
     0
 42
0.0000000001
 43
0.0000000001
 40
0.0
 40
0.0
 40
0.0
 40
0.0
 40
0.4987909893418996
 40
1.0
 40
1.0
 40
1.0
 40
1.0
 10
215.4321650242122
 20
247.4079931209151
 30
0.0
 10
215.4514732446862
 20
248.2006122749983
 30
0.0
 10
215.4901832873424
 20
249.7896930142655
 30
0.0
 10
215.7138528239331
 20
251.3672881212069
 30
0.0
 10
215.825958011082
 20
252.157993003976
 30
0.0
  0
SPLINE
  5
30B
330
1F
100
AcDbEntity
  8
0
  6
Continuous
 62
     7
370
    15
100
AcDbSpline
210
0.0
220
0.0
230
1.0
 70
    24
 71
     3
 72
     9
 73
     5
 74
     0
 42
0.0000000001
 43
0.0000000001
 40
0.0
 40
0.0
 40
0.0
 40
0.0
 40
0.4989631510114245
 40
1.0
 40
1.0
 40
1.0
 40
1.0
 10
215.825958011082
 20
261.6579926627043
 30
0.0
 10
215.7143030538943
 20
261.6579926627043
 30
0.0
 10
215.4905290999232
 20
261.6579926627043
 30
0.0
 10
215.4516465929745
 20
261.6579926627043
 30
0.0
 10
215.4321650242122
 20
261.6579926627043
 30
0.0
  0
LINE
  5
30C
330
1F
100
AcDbEntity
  8
0
  6
Continuous
 62
     7
370
    15
100
AcDbLine
 10
226.4321649646076
 20
256.9079928154412
 30
0.0
 11
226.4321649646076
 21
261.6579926627043
 31
0.0
  0
LINE
  5
30D
330
1F
100
AcDbEntity
  8
0
  6
Continuous
 62
     7
370
    15
100
AcDbLine
 10
226.4321649646076
 20
242.657993273652
 30
0.0
 11
226.4321649646076
 21
247.4079931209151
 31
0.0
  0
SPLINE
  5
30E
330
1F
100
AcDbEntity
  8
0
  6
Continuous
 62
     7
370
    15
100
AcDbSpline
210
0.0
220
0.0
230
1.0
 70
    24
 71
     3
 72
     9
 73
     5
 74
     0
 42
0.0000000001
 43
0.0000000001
 40
0.0
 40
0.0
 40
0.0
 40
0.0
 40
0.4987908232274514
 40
1.0
 40
1.0
 40
1.0
 40
1.0
 10
215.4321650242122
 20
242.657993273652
 30
0.0
 10
215.4514732657281
 20
242.657993273652
 30
0.0
 10
215.4901833634619
 20
242.657993273652
 30
0.0
 10
215.7138528245972
 20
242.657993273652
 30
0.0
 10
215.825958011082
 20
242.657993273652
 30
0.0
  0
LINE
  5
30F
330
1F
100
AcDbEntity
  8
0
  6
Continuous
 62
     7
370
    15
100
AcDbLine
 10
202.4321647559913
 20
258.6079931872252
 30
0.0
 11
202.4321647559913
 21
245.7079927491311
 31
0.0
  0
LINE
  5
310
330
1F
100
AcDbEntity
  8
0
  6
Continuous
 62
     7
370
    15
100
AcDbLine
 10
203.9321659331831
 20
260.1079934330944
 30
0.0
 11
203.9321659331831
 21
244.2079925032619
 31
0.0
  0
LINE
  5
311
330
1F
100
AcDbEntity
  8
0
  6
Continuous
 62
     7
370
    15
100
AcDbLine
 10
211.4321652998837
 20
242.8813123198513
 30
0.0
 11
211.4321652998837
 21
261.434673616505
 31
0.0
  0
LINE
  5
312
330
1F
100
AcDbEntity
  8
0
  6
Continuous
 62
     7
370
    15
100
AcDbLine
 10
215.4321650242122
 20
242.8813123198513
 30
0.0
 11
215.4321650242122
 21
261.434673616505
 31
0.0
  0
LINE
  5
313
330
1F
100
AcDbEntity
  8
0
  6
Continuous
 62
     7
370
    15
100
AcDbLine
 10
211.4321652998837
 20
261.434673616505
 30
0.0
 11
211.4321652998837
 21
272.4710938575033
 31
0.0
  0
LINE
  5
314
330
1F
100
AcDbEntity
  8
0
  6
Continuous
 62
     7
370
    15
100
AcDbLine
 10
215.4321650242122
 20
261.434673616505
 30
0.0
 11
215.4321650242122
 21
272.4710938575033
 31
0.0
  0
LINE
  5
315
330
1F
100
AcDbEntity
  8
0
  6
Continuous
 62
     7
370
    15
100
AcDbLine
 10
211.4321652998837
 20
231.844892078853
 30
0.0
 11
211.4321652998837
 21
242.8813123198513
 31
0.0
  0
LINE
  5
316
330
1F
100
AcDbEntity
  8
0
  6
Continuous
 62
     7
370
    15
100
AcDbLine
 10
215.4321650242122
 20
231.844892078853
 30
0.0
 11
215.4321650242122
 21
242.8813123198513
 31
0.0
  0
LINE
  5
317
330
1F
100
AcDbEntity
  8
0
  6
Continuous
 62
     7
370
    15
100
AcDbLine
 10
211.4321652998837
 20
274.1579928489688
 30
0.0
 11
215.4321650242122
 21
274.1579928489688
 31
0.0
  0
LINE
  5
318
330
1F
100
AcDbEntity
  8
0
  6
Continuous
 62
     7
370
    15
100
AcDbLine
 10
211.4321652998837
 20
272.4710938575033
 30
0.0
 11
211.4321652998837
 21
274.1579928489688
 31
0.0
  0
LINE
  5
319
330
1F
100
AcDbEntity
  8
0
  6
Continuous
 62
     7
370
    15
100
AcDbLine
 10
215.4321650242122
 20
274.1579928489688
 30
0.0
 11
215.4321650242122
 21
272.4710938575033
 31
0.0
  0
LINE
  5
31A
330
1F
100
AcDbEntity
  8
0
  6
Continuous
 62
     7
370
    15
100
AcDbLine
 10
215.4321650242122
 20
230.1579930873875
 30
0.0
 11
211.4321652998837
 21
230.1579930873875
 31
0.0
  0
LINE
  5
31B
330
1F
100
AcDbEntity
  8
0
  6
Continuous
 62
     7
370
    15
100
AcDbLine
 10
211.4321652998837
 20
230.1579930873875
 30
0.0
 11
211.4321652998837
 21
231.844892078853
 31
0.0
  0
LINE
  5
31C
330
1F
100
AcDbEntity
  8
0
  6
Continuous
 62
     7
370
    15
100
AcDbLine
 10
215.4321650242122
 20
231.844892078853
 30
0.0
 11
215.4321650242122
 21
230.1579930873875
 31
0.0
  0
LINE
  5
31D
330
1F
100
AcDbEntity
  8
0
  6
Continuous
 62
     7
370
    15
100
AcDbLine
 10
218.4321650502893
 20
230.1579930873875
 30
0.0
 11
215.4321650242122
 21
230.1579930873875
 31
0.0
  0
LINE
  5
31E
330
1F
100
AcDbEntity
  8
0
  6
Continuous
 62
     7
370
    15
100
AcDbLine
 10
215.4321650242122
 20
274.1579928489688
 30
0.0
 11
218.4321650502893
 21
274.1579928489688
 31
0.0
  0
ARC
  5
31F
330
1F
100
AcDbEntity
  8
0
  6
Continuous
 62
     7
370
    15
100
AcDbCircle
 10
227.4321651583226
 20
235.1579929681782
 30
0.0
 40
5.0
100
AcDbArc
 50
270.0000000000008
 51
0.0
  0
ARC
  5
320
330
1F
100
AcDbEntity
  8
0
  6
Continuous
 62
     7
370
    15
100
AcDbCircle
 10
227.4321651583226
 20
269.1579929681782
 30
0.0
 40
5.0
100
AcDbArc
 50
0.0
 51
90.0
  0
LINE
  5
321
330
1F
100
AcDbEntity
  8
0
  6
Continuous
 62
     7
370
    15
100
AcDbLine
 10
232.4321650167616
 20
235.1579920443062
 30
0.0
 11
232.4321650167616
 21
240.15799286387
 31
0.0
  0
LINE
  5
322
330
1F
100
AcDbEntity
  8
0
  6
Continuous
 62
     7
370
    15
100
AcDbLine
 10
232.4321650167616
 20
264.1579930724863
 30
0.0
 11
232.4321650167616
 21
269.1579938920501
 31
0.0
  0
ARC
  5
323
330
1F
100
AcDbEntity
  8
0
  6
Continuous
 62
     7
370
    15
100
AcDbCircle
 10
224.9321651583227
 20
243.1579929681782
 30
0.0
 40
2.650000000000006
100
AcDbArc
 50
349.1242835053846
 51
55.52561539016173
  0
ARC
  5
324
330
1F
100
AcDbEntity
  8
0
  6
Continuous
 62
     7
370
    15
100
AcDbCircle
 10
224.9321651583227
 20
261.1579929681782
 30
0.0
 40
2.650000000000051
100
AcDbArc
 50
304.474384609838
 51
10.87571649462554
  0
LINE
  5
325
330
1F
100
AcDbEntity
  8
0
  6
Continuous
 62
     7
370
    15
100
AcDbLine
 10
227.4321651285204
 20
230.1579930873875
 30
0.0
 11
218.4321650502893
 21
230.1579930873875
 31
0.0
  0
LINE
  5
326
330
1F
100
AcDbEntity
  8
0
  6
Continuous
 62
     7
370
    15
100
AcDbLine
 10
227.4321651285204
 20
274.1579928489688
 30
0.0
 11
218.4321650502893
 21
274.1579928489688
 31
0.0
  0
LINE
  5
327
330
1F
100
AcDbEntity
  8
0
  6
Continuous
 62
     7
370
    15
100
AcDbLine
 10
245.4320954357894
 20
55.3145703451042
 30
0.0
 11
245.4320954357894
 21
56.31457050901698
 31
0.0
  0
LINE
  5
328
330
1F
100
AcDbEntity
  8
0
  6
Continuous
 62
     7
370
    15
100
AcDbLine
 10
239.4320944523128
 20
56.31457050901698
 30
0.0
 11
239.4320944523128
 21
55.3145703451042
 31
0.0
  0
LINE
  5
329
330
1F
100
AcDbEntity
  8
0
  6
Continuous
 62
     7
370
    15
100
AcDbLine
 10
243.9320942585977
 20
49.31457029295014
 30
0.0
 11
243.9320942585977
 21
50.37016389530943
 31
0.0
  0
LINE
  5
32A
330
1F
100
AcDbEntity
  8
0
  6
Continuous
 62
     7
370
    15
100
AcDbLine
 10
243.9320942585977
 20
52.37016329181241
 30
0.0
 11
243.9320942585977
 21
52.81456993532227
 31
0.0
  0
LINE
  5
32B
330
1F
100
AcDbEntity
  8
0
  6
Continuous
 62
     7
370
    15
100
AcDbLine
 10
240.9320956295045
 20
52.81456993532227
 30
0.0
 11
240.9320956295045
 21
52.37016329181241
 31
0.0
  0
LINE
  5
32C
330
1F
100
AcDbEntity
  8
0
  6
Continuous
 62
     7
370
    15
100
AcDbLine
 10
240.9320956295045
 20
50.37016389530943
 30
0.0
 11
240.9320956295045
 21
49.31457029295014
 31
0.0
  0
LINE
  5
32D
330
1F
100
AcDbEntity
  8
0
  6
Continuous
 62
     7
370
    15
100
AcDbLine
 10
239.4320944523128
 20
31.31457013648795
 30
0.0
 11
239.4320944523128
 21
30.31456997257517
 31
0.0
  0
LINE
  5
32E
330
1F
100
AcDbEntity
  8
0
  6
Continuous
 62
     7
370
    15
100
AcDbLine
 10
245.4320954357894
 20
30.31456997257517
 30
0.0
 11
245.4320954357894
 21
31.31457013648795
 31
0.0
  0
LINE
  5
32F
330
1F
100
AcDbEntity
  8
0
  6
Continuous
 62
     7
370
    15
100
AcDbLine
 10
240.9320956295045
 20
37.31457018864201
 30
0.0
 11
240.9320956295045
 21
35.73313602817105
 31
0.0
  0
LINE
  5
330
330
1F
100
AcDbEntity
  8
0
  6
Continuous
 62
     7
370
    15
100
AcDbLine
 10
243.9320942585977
 20
35.73313602817105
 30
0.0
 11
243.9320942585977
 21
37.31457018864201
 31
0.0
  0
LINE
  5
331
330
1F
100
AcDbEntity
  8
0
  6
Continuous
 62
     7
370
    15
100
AcDbLine
 10
237.0113086154374
 20
33.81457054626988
 30
0.0
 11
237.0113086154374
 21
52.81456993532227
 31
0.0
  0
LINE
  5
332
330
1F
100
AcDbEntity
  8
0
  6
Continuous
 62
     7
370
    15
100
AcDbLine
 10
236.0113084515246
 20
29.76456997555541
 30
0.0
 11
236.0113084515246
 21
31.31457013648795
 31
0.0
  0
LINE
  5
333
330
1F
100
AcDbEntity
  8
0
  6
Continuous
 62
     7
370
    15
100
AcDbLine
 10
233.0113088911089
 20
31.31457013648795
 30
0.0
 11
233.0113088911089
 21
29.76456997555541
 31
0.0
  0
LINE
  5
334
330
1F
100
AcDbEntity
  8
0
  6
Continuous
 62
     7
370
    15
100
AcDbLine
 10
236.0113084515246
 20
55.3145703451042
 30
0.0
 11
236.0113084515246
 21
56.86457050603674
 31
0.0
  0
LINE
  5
335
330
1F
100
AcDbEntity
  8
0
  6
Continuous
 62
     7
370
    15
100
AcDbLine
 10
233.0113088911089
 20
56.86457050603674
 30
0.0
 11
233.0113088911089
 21
55.3145703451042
 31
0.0
  0
LINE
  5
336
330
1F
100
AcDbEntity
  8
0
  6
Continuous
 62
     7
370
    15
100
AcDbLine
 10
175.4322199349912
 20
46.31457026687311
 30
0.0
 11
169.4322189515146
 21
46.31457026687311
 31
0.0
  0
LINE
  5
337
330
1F
100
AcDbEntity
  8
0
  6
Continuous
 62
     7
370
    15
100
AcDbLine
 10
169.4322189515146
 20
40.31457021471904
 30
0.0
 11
175.4322199349912
 21
40.31457021471904
 31
0.0
  0
LINE
  5
338
330
1F
100
AcDbEntity
  8
0
  6
Continuous
 62
     7
370
    15
100
AcDbLine
 10
247.432095763615
 20
31.31457013648795
 30
0.0
 11
247.432095763615
 21
33.7331357003455
 31
0.0
  0
LINE
  5
339
330
1F
100
AcDbEntity
  8
0
  6
Continuous
 62
     7
370
    15
100
AcDbLine
 10
247.432095763615
 20
52.81456993532227
 30
0.0
 11
247.432095763615
 21
55.3145703451042
 31
0.0
  0
LINE
  5
33A
330
1F
100
AcDbEntity
  8
0
  6
Continuous
 62
     7
370
    15
100
AcDbLine
 10
202.4321647559913
 20
48.31457012903737
 30
0.0
 11
179.9322216039213
 21
48.31457012903737
 31
0.0
  0
LINE
  5
33B
330
1F
100
AcDbEntity
  8
0
  6
Continuous
 62
     7
370
    15
100
AcDbLine
 10
179.9322216039213
 20
38.31457035255478
 30
0.0
 11
202.4321647559913
 21
38.31457035255478
 31
0.0
  0
LINE
  5
33C
330
1F
100
AcDbEntity
  8
0
  6
Continuous
 62
     7
370
    15
100
AcDbLine
 10
179.9322216039213
 20
48.31457012903737
 30
0.0
 11
179.4322205906423
 21
47.81457004708098
 31
0.0
  0
LINE
  5
33D
330
1F
100
AcDbEntity
  8
0
  6
Continuous
 62
     7
370
    15
100
AcDbLine
 10
179.4322205906423
 20
38.81457043451117
 30
0.0
 11
179.9322216039213
 21
38.31457035255478
 31
0.0
  0
LINE
  5
33E
330
1F
100
AcDbEntity
  8
0
  6
Continuous
 62
     7
370
    15
100
AcDbLine
 10
211.4321652998837
 20
51.2645707057123
 30
0.0
 11
203.9321659331831
 21
51.2645707057123
 31
0.0
  0
LINE
  5
33F
330
1F
100
AcDbEntity
  8
0
  6
Continuous
 62
     7
370
    15
100
AcDbLine
 10
203.9321659331831
 20
35.36456977587985
 30
0.0
 11
211.4321652998837
 21
35.36456977587985
 31
0.0
  0
LINE
  5
340
330
1F
100
AcDbEntity
  8
0
  6
Continuous
 62
     7
370
    15
100
AcDbLine
 10
203.9321659331831
 20
51.2645707057123
 30
0.0
 11
202.4321647559913
 21
49.76457045984314
 31
0.0
  0
LINE
  5
341
330
1F
100
AcDbEntity
  8
0
  6
Continuous
 62
     7
370
    15
100
AcDbLine
 10
202.4321647559913
 20
36.86457002174901
 30
0.0
 11
203.9321659331831
 21
35.36456977587985
 31
0.0
  0
LINE
  5
342
330
1F
100
AcDbEntity
  8
0
  6
Continuous
 62
     7
370
    15
100
AcDbLine
 10
243.3802502428802
 20
56.31457050901698
 30
0.0
 11
245.4320954357894
 21
56.31457050901698
 31
0.0
  0
LINE
  5
343
330
1F
100
AcDbEntity
  8
0
  6
Continuous
 62
     7
370
    15
100
AcDbLine
 10
239.4320944523128
 20
56.31457050901698
 30
0.0
 11
243.3802502428802
 21
56.31457050901698
 31
0.0
  0
LINE
  5
344
330
1F
100
AcDbEntity
  8
0
  6
Continuous
 62
     7
370
    15
100
AcDbLine
 10
242.9061716621431
 20
49.31457029295014
 30
0.0
 11
243.9320942585977
 21
49.31457029295014
 31
0.0
  0
LINE
  5
345
330
1F
100
AcDbEntity
  8
0
  6
Continuous
 62
     7
370
    15
100
AcDbLine
 10
240.9320956295045
 20
49.31457029295014
 30
0.0
 11
242.9061716621431
 21
49.31457029295014
 31
0.0
  0
LINE
  5
346
330
1F
100
AcDbEntity
  8
0
  6
Continuous
 62
     7
370
    15
100
AcDbLine
 10
245.4320954357894
 20
30.31456997257517
 30
0.0
 11
239.4320944523128
 21
30.31456997257517
 31
0.0
  0
LINE
  5
347
330
1F
100
AcDbEntity
  8
0
  6
Continuous
 62
     7
370
    15
100
AcDbLine
 10
243.9320942585977
 20
37.31457018864201
 30
0.0
 11
240.9320956295045
 21
37.31457018864201
 31
0.0
  0
LINE
  5
348
330
1F
100
AcDbEntity
  8
0
  6
Continuous
 62
     7
370
    15
100
AcDbLine
 10
233.0113088911089
 20
29.76456997555541
 30
0.0
 11
236.0113084515246
 21
29.76456997555541
 31
0.0
  0
LINE
  5
349
330
1F
100
AcDbEntity
  8
0
  6
Continuous
 62
     7
370
    15
100
AcDbLine
 10
236.0113084515246
 20
56.86457050603674
 30
0.0
 11
233.0113088911089
 21
56.86457050603674
 31
0.0
  0
ARC
  5
34A
330
1F
100
AcDbEntity
  8
0
  6
Continuous
 62
     7
370
    15
100
AcDbCircle
 10
242.5786884295296
 20
43.55153006568348
 30
0.0
 40
6.330250428076223
100
AcDbArc
 50
208.4193272814856
 51
217.0056953983934
  0
ARC
  5
34B
330
1F
100
AcDbEntity
  8
0
  6
Continuous
 62
     7
370
    15
100
AcDbCircle
 10
242.5784000319898
 20
43.55165072966197
 30
0.0
 40
6.330476573676734
100
AcDbArc
 50
321.6236533130958
 51
38.47332176059608
  0
ARC
  5
34C
330
1F
100
AcDbEntity
  8
0
  6
Continuous
 62
     7
370
    15
100
AcDbCircle
 10
242.5785158864068
 20
43.55187750642474
 30
0.0
 40
6.330047302627765
100
AcDbArc
 50
143.0927193730572
 51
151.5807887953635
  0
LINE
  5
34D
330
1F
100
AcDbEntity
  8
0
  6
Continuous
 62
     7
370
    15
100
AcDbLine
 10
247.5784121280225
 20
46.05164975498663
 30
0.0
 11
247.5784121280225
 21
41.05164986674534
 31
0.0
  0
LINE
  5
34E
330
1F
100
AcDbEntity
  8
0
  6
Continuous
 62
     7
370
    15
100
AcDbLine
 10
247.544018385342
 20
46.05164975498663
 30
0.0
 11
247.5784121280225
 21
46.05164975498663
 31
0.0
  0
LINE
  5
34F
330
1F
100
AcDbEntity
  8
0
  6
Continuous
 62
     7
370
    15
100
AcDbLine
 10
240.8189064090761
 20
52.37016329181241
 30
0.0
 11
240.9320956295045
 21
52.39249081921624
 31
0.0
  0
LINE
  5
350
330
1F
100
AcDbEntity
  8
0
  6
Continuous
 62
     7
370
    15
100
AcDbLine
 10
243.9320942585977
 20
52.45506731432723
 30
0.0
 11
244.4153873448881
 21
52.37016329181241
 31
0.0
  0
ARC
  5
351
330
1F
100
AcDbEntity
  8
0
  6
Continuous
 62
     7
370
    15
100
AcDbCircle
 10
242.6168610237055
 20
43.55164991875503
 30
0.0
 40
9.000097183741212
100
AcDbArc
 50
302.9894297307855
 51
57.06089834951676
  0
LINE
  5
352
330
1F
100
AcDbEntity
  8
0
  6
Continuous
 62
     7
370
    15
100
AcDbLine
 10
243.9320942585977
 20
52.4553802387123
 30
0.0
 11
244.417508897713
 21
52.37016329181241
 31
0.0
  0
ARC
  5
353
330
1F
100
AcDbEntity
  8
0
  6
Continuous
 62
     7
370
    15
100
AcDbCircle
 10
242.6189811257701
 20
43.55164947889335
 30
0.0
 40
9.000098004231784
100
AcDbArc
 50
302.9732800573238
 51
57.07705295147299
  0
LINE
  5
354
330
1F
100
AcDbEntity
  8
0
  6
Continuous
 62
     7
370
    15
100
AcDbLine
 10
243.9320942585977
 20
52.46639778477
 30
0.0
 11
244.4945367252143
 21
52.37016329181241
 31
0.0
  0
ARC
  5
355
330
1F
100
AcDbEntity
  8
0
  6
Continuous
 62
     7
370
    15
100
AcDbCircle
 10
242.6960101742803
 20
43.55165011627383
 30
0.0
 40
9.000097375812847
100
AcDbArc
 50
302.3881924336022
 51
57.66179829600101
  0
LINE
  5
356
330
1F
100
AcDbEntity
  8
0
  6
Continuous
 62
     7
370
    15
100
AcDbLine
 10
243.9320942585977
 20
52.46643969428586
 30
0.0
 11
244.4948384737285
 21
52.37016329181241
 31
0.0
  0
ARC
  5
357
330
1F
100
AcDbEntity
  8
0
  6
Continuous
 62
     7
370
    15
100
AcDbCircle
 10
242.6963129151292
 20
43.5516498364025
 30
0.0
 40
9.000095992525594
100
AcDbArc
 50
302.3859016756754
 51
57.66408779542197
  0
LINE
  5
358
330
1F
100
AcDbEntity
  8
0
  6
Continuous
 62
     7
370
    15
100
AcDbLine
 10
243.9320942585977
 20
52.47555827361392
 30
0.0
 11
244.5625214105161
 21
52.37016329181241
 31
0.0
  0
ARC
  5
359
330
1F
100
AcDbEntity
  8
0
  6
Continuous
 62
     7
370
    15
100
AcDbCircle
 10
242.7639988421398
 20
43.55164994516057
 30
0.0
 40
9.000093282474399
100
AcDbArc
 50
301.8749523616535
 51
58.17474431740859
  0
LINE
  5
35A
330
1F
100
AcDbEntity
  8
0
  6
Continuous
 62
     7
370
    15
100
AcDbLine
 10
243.9320942585977
 20
52.4768649191861
 30
0.0
 11
244.5725443040641
 21
52.37016329181241
 31
0.0
  0
ARC
  5
35B
330
1F
100
AcDbEntity
  8
0
  6
Continuous
 62
     7
370
    15
100
AcDbCircle
 10
242.7740209196907
 20
43.55165016588038
 30
0.0
 40
9.000094507379385
100
AcDbArc
 50
301.7995396661092
 51
58.25011645764229
  0
LINE
  5
35C
330
1F
100
AcDbEntity
  8
0
  6
Continuous
 62
     7
370
    15
100
AcDbLine
 10
243.9320942585977
 20
52.48466660839365
 30
0.0
 11
244.6343617712768
 21
52.37016329181241
 31
0.0
  0
ARC
  5
35D
330
1F
100
AcDbEntity
  8
0
  6
Continuous
 62
     7
370
    15
100
AcDbCircle
 10
242.8358389124962
 20
43.55165031758494
 30
0.0
 40
9.000093528695011
100
AcDbArc
 50
301.335772527322
 51
58.71363756004375
  0
LINE
  5
35E
330
1F
100
AcDbEntity
  8
0
  6
Continuous
 62
     7
370
    15
100
AcDbLine
 10
243.9320942585977
 20
52.48414599907444
 30
0.0
 11
244.6301279788526
 21
52.37016329181241
 31
0.0
  0
ARC
  5
35F
330
1F
100
AcDbEntity
  8
0
  6
Continuous
 62
     7
370
    15
100
AcDbCircle
 10
242.8316063891237
 20
43.55165013412758
 30
0.0
 40
9.000092385481517
100
AcDbArc
 50
301.3674535707949
 51
58.68197315012931
  0
LINE
  5
360
330
1F
100
AcDbEntity
  8
0
  6
Continuous
 62
     7
370
    15
100
AcDbLine
 10
175.6394801860364
 20
43.31457024050376
 30
0.0
 11
179.2249603395971
 21
43.31457016424095
 31
0.0
  0
SPLINE
  5
361
330
1F
100
AcDbEntity
  8
0
  6
Continuous
 62
     7
370
    15
100
AcDbSpline
210
0.0
220
0.0
230
1.0
 70
     8
 71
     3
 72
     9
 73
     5
 74
     0
 42
0.0000000001
 43
0.0000000001
 40
0.0
 40
0.0
 40
0.0
 40
0.0
 40
0.4987927322348903
 40
1.0
 40
1.0
 40
1.0
 40
1.0
 10
179.4322205906423
 20
40.81620150816487
 30
0.0
 10
179.4220232169943
 20
41.23309863596175
 30
0.0
 10
179.4015791066675
 20
42.06891099018139
 30
0.0
 10
179.2839279529175
 20
42.89868243749551
 30
0.0
 10
179.2249603395971
 20
43.31456991747332
 30
0.0
  0
SPLINE
  5
362
330
1F
100
AcDbEntity
  8
0
  6
Continuous
 62
     7
370
    15
100
AcDbSpline
210
0.0
220
0.0
230
1.0
 70
     8
 71
     3
 72
     9
 73
     5
 74
     0
 42
0.0000000001
 43
0.0000000001
 40
0.0
 40
0.0
 40
0.0
 40
0.0
 40
0.4989614457960709
 40
1.0
 40
1.0
 40
1.0
 40
1.0
 10
179.2249603395971
 20
38.3145698868935
 30
0.0
 10
179.2837612886192
 20
38.7291293735736
 30
0.0
 10
179.4016079669898
 20
39.55997410150382
 30
0.0
 10
179.4220022623707
 20
40.39687959146792
 30
0.0
 10
179.4322205906423
 20
40.81620150816487
 30
0.0
  0
LINE
  5
363
330
1F
100
AcDbEntity
  8
0
  6
Continuous
 62
     7
370
    15
100
AcDbLine
 10
175.6394801860364
 20
38.31457035255478
 30
0.0
 11
179.2249603395971
 21
38.31457035255478
 31
0.0
  0
SPLINE
  5
364
330
1F
100
AcDbEntity
  8
0
  6
Continuous
 62
     7
370
    15
100
AcDbSpline
210
0.0
220
0.0
230
1.0
 70
     8
 71
     3
 72
     9
 73
     5
 74
     0
 42
0.0000000001
 43
0.0000000001
 40
0.0
 40
0.0
 40
0.0
 40
0.0
 40
0.4989616062386446
 40
1.0
 40
1.0
 40
1.0
 40
1.0
 10
175.6394801860364
 20
38.31457035255478
 30
0.0
 10
175.5806792373434
 20
38.7291291507709
 30
0.0
 10
175.4628325975261
 20
39.55997223174705
 30
0.0
 10
175.4424382740617
 20
40.39687688522557
 30
0.0
 10
175.4322199349912
 20
40.81619824853586
 30
0.0
  0
SPLINE
  5
365
330
1F
100
AcDbEntity
  8
0
  6
Continuous
 62
     7
370
    15
100
AcDbSpline
210
0.0
220
0.0
230
1.0
 70
     8
 71
     3
 72
     9
 73
     5
 74
     0
 42
0.0000000001
 43
0.0000000001
 40
0.0
 40
0.0
 40
0.0
 40
0.0
 40
0.4987925973609209
 40
1.0
 40
1.0
 40
1.0
 40
1.0
 10
175.4322199349912
 20
40.81619824853586
 30
0.0
 10
175.4424173176249
 20
41.23309606588187
 30
0.0
 10
175.4628614514948
 20
42.06891002854248
 30
0.0
 10
175.5805125730062
 20
42.89868225302766
 30
0.0
 10
175.6394801860364
 20
43.31457023444394
 30
0.0
  0
SPLINE
  5
366
330
1F
100
AcDbEntity
  8
0
  6
Continuous
 62
     7
370
    15
100
AcDbSpline
210
0.0
220
0.0
230
1.0
 70
     8
 71
     3
 72
     9
 73
     5
 74
     0
 42
0.0000000001
 43
0.0000000001
 40
0.0
 40
0.0
 40
0.0
 40
0.0
 40
0.4989616285433702
 40
1.0
 40
1.0
 40
1.0
 40
1.0
 10
179.2249603395971
 20
43.31457008768583
 30
0.0
 10
179.2837612882444
 20
43.72913018341287
 30
0.0
 10
179.401607922702
 20
44.55997582767067
 30
0.0
 10
179.4220022500706
 20
45.39688298712458
 30
0.0
 10
179.4322205906423
 20
45.81620558735775
 30
0.0
  0
LINE
  5
367
330
1F
100
AcDbEntity
  8
0
  6
Continuous
 62
     7
370
    15
100
AcDbLine
 10
179.4322205906423
 20
45.81620558735775
 30
0.0
 11
179.4322205906423
 21
40.81620150816487
 31
0.0
  0
LINE
  5
368
330
1F
100
AcDbEntity
  8
0
  6
Continuous
 62
     7
370
    15
100
AcDbLine
 10
175.6394801860364
 20
48.31457012903737
 30
0.0
 11
179.2249603395971
 21
48.31457012903737
 31
0.0
  0
SPLINE
  5
369
330
1F
100
AcDbEntity
  8
0
  6
Continuous
 62
     7
370
    15
100
AcDbSpline
210
0.0
220
0.0
230
1.0
 70
     8
 71
     3
 72
     9
 73
     5
 74
     0
 42
0.0000000001
 43
0.0000000001
 40
0.0
 40
0.0
 40
0.0
 40
0.0
 40
0.4987929450383272
 40
1.0
 40
1.0
 40
1.0
 40
1.0
 10
179.4322205906423
 20
45.81620558735775
 30
0.0
 10
179.422023231172
 20
46.23310207566023
 30
0.0
 10
179.4015791579913
 20
47.06891279120762
 30
0.0
 10
179.2839279533753
 20
47.89868329735646
 30
0.0
 10
179.2249603395971
 20
48.31457012903737
 30
0.0
  0
SPLINE
  5
36A
330
1F
100
AcDbEntity
  8
0
  6
Continuous
 62
     7
370
    15
100
AcDbSpline
210
0.0
220
0.0
230
1.0
 70
     8
 71
     3
 72
     9
 73
     5
 74
     0
 42
0.0000000001
 43
0.0000000001
 40
0.0
 40
0.0
 40
0.0
 40
0.0
 40
0.4989616049566854
 40
1.0
 40
1.0
 40
1.0
 40
1.0
 10
175.6394801860364
 20
43.3145702465636
 30
0.0
 10
175.5806792373407
 20
43.72913005288856
 30
0.0
 10
175.4628325972154
 20
44.55997515641302
 30
0.0
 10
175.4424382739754
 20
45.39688181923334
 30
0.0
 10
175.4322199349912
 20
45.81620419037388
 30
0.0
  0
SPLINE
  5
36B
330
1F
100
AcDbEntity
  8
0
  6
Continuous
 62
     7
370
    15
100
AcDbSpline
210
0.0
220
0.0
230
1.0
 70
     8
 71
     3
 72
     9
 73
     5
 74
     0
 42
0.0000000001
 43
0.0000000001
 40
0.0
 40
0.0
 40
0.0
 40
0.0
 40
0.498792624897055
 40
1.0
 40
1.0
 40
1.0
 40
1.0
 10
175.4322199349912
 20
45.81620419037388
 30
0.0
 10
175.4424173157904
 20
46.23310096610452
 30
0.0
 10
175.4628614448537
 20
47.06891279435012
 30
0.0
 10
175.5805125729469
 20
47.89868281126103
 30
0.0
 10
175.6394801860364
 20
48.31456966337608
 30
0.0
  0
LINE
  5
36C
330
1F
100
AcDbEntity
  8
0
  6
Continuous
 62
     7
370
    15
100
AcDbLine
 10
175.4322199349912
 20
40.81619824853586
 30
0.0
 11
175.4322199349912
 21
45.81620419037388
 31
0.0
  0
SPLINE
  5
36D
330
1F
100
AcDbEntity
  8
0
  6
Continuous
 62
     7
370
    15
100
AcDbSpline
210
0.0
220
0.0
230
1.0
 70
    24
 71
     3
 72
     9
 73
     5
 74
     0
 42
0.0000000001
 43
0.0000000001
 40
0.0
 40
0.0
 40
0.0
 40
0.0
 40
0.4987908111508701
 40
1.0
 40
1.0
 40
1.0
 40
1.0
 10
179.4322205906423
 20
38.31457035255478
 30
0.0
 10
179.4220584223437
 20
38.31457035255478
 30
0.0
 10
179.4016848146681
 20
38.31457035255478
 30
0.0
 10
179.2839633962384
 20
38.31457035255478
 30
0.0
 10
179.2249603395971
 20
38.31457035255478
 30
0.0
  0
LINE
  5
36E
330
1F
100
AcDbEntity
  8
0
  6
Continuous
 62
     7
370
    15
100
AcDbLine
 10
179.4322205906423
 20
38.31457035255478
 30
0.0
 11
179.4322205906423
 21
40.81620150816487
 31
0.0
  0
SPLINE
  5
36F
330
1F
100
AcDbEntity
  8
0
  6
Continuous
 62
     7
370
    15
100
AcDbSpline
210
0.0
220
0.0
230
1.0
 70
    24
 71
     3
 72
     9
 73
     5
 74
     0
 42
0.0000000001
 43
0.0000000001
 40
0.0
 40
0.0
 40
0.0
 40
0.0
 40
0.4987908111508701
 40
1.0
 40
1.0
 40
1.0
 40
1.0
 10
175.4322199349912
 20
38.31457035255478
 30
0.0
 10
175.4423821032898
 20
38.31457035255478
 30
0.0
 10
175.4627557109654
 20
38.31457035255478
 30
0.0
 10
175.5804771293951
 20
38.31457035255478
 30
0.0
 10
175.6394801860364
 20
38.31457035255478
 30
0.0
  0
LINE
  5
370
330
1F
100
AcDbEntity
  8
0
  6
Continuous
 62
     7
370
    15
100
AcDbLine
 10
175.4322199349912
 20
38.31457035255478
 30
0.0
 11
175.4322199349912
 21
40.81619824853586
 31
0.0
  0
SPLINE
  5
371
330
1F
100
AcDbEntity
  8
0
  6
Continuous
 62
     7
370
    15
100
AcDbSpline
210
0.0
220
0.0
230
1.0
 70
    24
 71
     3
 72
     9
 73
     5
 74
     0
 42
0.0000000001
 43
0.0000000001
 40
0.0
 40
0.0
 40
0.0
 40
0.0
 40
0.4989648711482612
 40
1.0
 40
1.0
 40
1.0
 40
1.0
 10
179.2249603395971
 20
48.31457012903737
 30
0.0
 10
179.2836980388844
 20
48.31457012903737
 30
0.0
 10
179.4014171463482
 20
48.31457012903737
 30
0.0
 10
179.4219386143019
 20
48.31457012903737
 30
0.0
 10
179.4322205906423
 20
48.31457012903737
 30
0.0
  0
LINE
  5
372
330
1F
100
AcDbEntity
  8
0
  6
Continuous
 62
     7
370
    15
100
AcDbLine
 10
179.4322205906423
 20
48.31457012903737
 30
0.0
 11
179.4322205906423
 21
45.81620558735775
 31
0.0
  0
SPLINE
  5
373
330
1F
100
AcDbEntity
  8
0
  6
Continuous
 62
     7
370
    15
100
AcDbSpline
210
0.0
220
0.0
230
1.0
 70
    24
 71
     3
 72
     9
 73
     5
 74
     0
 42
0.0000000001
 43
0.0000000001
 40
0.0
 40
0.0
 40
0.0
 40
0.0
 40
0.4989632758511659
 40
1.0
 40
1.0
 40
1.0
 40
1.0
 10
175.6394801860364
 20
48.31457012903737
 30
0.0
 10
175.5807145822067
 20
48.31457012903737
 30
0.0
 10
175.4629391733261
 20
48.31457012903737
 30
0.0
 10
175.4424738257162
 20
48.31457012903737
 30
0.0
 10
175.4322199349912
 20
48.31457012903737
 30
0.0
  0
LINE
  5
374
330
1F
100
AcDbEntity
  8
0
  6
Continuous
 62
     7
370
    15
100
AcDbLine
 10
175.4322199349912
 20
45.81620419037388
 30
0.0
 11
175.4322199349912
 21
48.31457012903737
 31
0.0
  0
LINE
  5
375
330
1F
100
AcDbEntity
  8
0
  6
Continuous
 62
     7
370
    15
100
AcDbLine
 10
169.4322189515146
 20
43.31457024079609
 30
0.0
 11
165.4322220211538
 21
43.31457024079609
 31
0.0
  0
LINE
  5
376
330
1F
100
AcDbEntity
  8
0
  6
Continuous
 62
     7
370
    15
100
AcDbLine
 10
169.4322189515146
 20
43.31457024079609
 30
0.0
 11
169.4322189515146
 21
38.31457035255478
 31
0.0
  0
LINE
  5
377
330
1F
100
AcDbEntity
  8
0
  6
Continuous
 62
     7
370
    15
100
AcDbLine
 10
169.4322189515146
 20
38.31457035255478
 30
0.0
 11
165.4322220211538
 21
38.31457035255478
 31
0.0
  0
LINE
  5
378
330
1F
100
AcDbEntity
  8
0
  6
Continuous
 62
     7
370
    15
100
AcDbLine
 10
165.4322220211538
 20
43.31457024079609
 30
0.0
 11
165.4322220211538
 21
38.31457035255478
 31
0.0
  0
LINE
  5
379
330
1F
100
AcDbEntity
  8
0
  6
Continuous
 62
     7
370
    15
100
AcDbLine
 10
169.4322189515146
 20
48.31457012903737
 30
0.0
 11
165.4322220211538
 21
48.31457012903737
 31
0.0
  0
LINE
  5
37A
330
1F
100
AcDbEntity
  8
0
  6
Continuous
 62
     7
370
    15
100
AcDbLine
 10
169.4322189515146
 20
48.31457012903737
 30
0.0
 11
169.4322189515146
 21
43.31457024079609
 31
0.0
  0
LINE
  5
37B
330
1F
100
AcDbEntity
  8
0
  6
Continuous
 62
     7
370
    15
100
AcDbLine
 10
165.4322220211538
 20
48.31457012903737
 30
0.0
 11
165.4322220211538
 21
43.31457024079609
 31
0.0
  0
LINE
  5
37C
330
1F
100
AcDbEntity
  8
0
  6
Continuous
 62
     7
370
    15
100
AcDbLine
 10
240.8586571192058
 20
52.37016329181241
 30
0.0
 11
237.0113086154374
 21
52.37016329181241
 31
0.0
  0
SPLINE
  5
37D
330
1F
100
AcDbEntity
  8
0
  6
Continuous
 62
     7
370
    15
100
AcDbSpline
210
0.0
220
0.0
230
1.0
 70
     8
 71
     3
 72
    10
 73
     6
 74
     0
 42
0.0000000001
 43
0.0000000001
 40
0.0
 40
0.0
 40
0.0
 40
0.0
 40
0.2724355349697915
 40
0.7247683909365291
 40
1.0
 40
1.0
 40
1.0
 40
1.0
 10
240.8586571192058
 20
52.37016329181241
 30
0.0
 10
240.6954418420323
 20
52.35967065819592
 30
0.0
 10
240.2612353651627
 20
52.33175679158616
 30
0.0
 10
239.6837576658079
 20
52.09877928727448
 30
0.0
 10
239.3427729556568
 20
51.81321862006412
 30
0.0
 10
239.213781264952
 20
51.70519338560151
 30
0.0
  0
LINE
  5
37E
330
1F
100
AcDbEntity
  8
0
  6
Continuous
 62
     7
370
    15
100
AcDbLine
 10
239.213781264952
 20
51.70519245427893
 30
0.0
 11
239.1455451225551
 21
51.63793047529505
 31
0.0
  0
LINE
  5
37F
330
1F
100
AcDbEntity
  8
0
  6
Continuous
 62
     7
370
    15
100
AcDbLine
 10
240.8586571192058
 20
52.37016329181241
 30
0.0
 11
240.8586571192058
 21
50.37016389530943
 31
0.0
  0
SPLINE
  5
380
330
1F
100
AcDbEntity
  8
0
  6
Continuous
 62
     7
370
    15
100
AcDbSpline
210
0.0
220
0.0
230
1.0
 70
     8
 71
     3
 72
    14
 73
    10
 74
     0
 42
0.0000000001
 43
0.0000000001
 40
0.0
 40
0.0
 40
0.0
 40
0.0
 40
0.1576466454328585
 40
0.3152927459528316
 40
0.4729346617303264
 40
0.630579912506107
 40
0.7093104393679442
 40
0.8539005911603535
 40
0.9999999999999998
 40
0.9999999999999998
 40
0.9999999999999998
 40
0.9999999999999998
 10
240.8586571192058
 20
50.37016389530943
 30
0.0
 10
240.8377815735351
 20
50.36949656568431
 30
0.0
 10
240.796030554351
 20
50.36816190874072
 30
0.0
 10
240.7341692559959
 20
50.35741560186185
 30
0.0
 10
240.6738415058033
 20
50.34041924720451
 30
0.0
 10
240.6254322871296
 20
50.32073946002429
 30
0.0
 10
240.5804952366964
 20
50.29797161139462
 30
0.0
 10
240.5384902668744
 20
50.27282747082608
 30
0.0
 10
240.5083368919831
 20
50.24909665011031
 30
0.0
 10
240.4931819265398
 20
50.23716963467048
 30
0.0
  0
LINE
  5
381
330
1F
100
AcDbEntity
  8
0
  6
Continuous
 62
     7
370
    15
100
AcDbLine
 10
240.4931819265398
 20
50.23716963467048
 30
0.0
 11
240.4776362901243
 21
50.22371714574145
 31
0.0
  0
LINE
  5
382
330
1F
100
AcDbEntity
  8
0
  6
Continuous
 62
     7
370
    15
100
AcDbLine
 10
239.1455451225551
 20
51.63793047529505
 30
0.0
 11
240.4776362901243
 21
50.22371714574145
 31
0.0
  0
LINE
  5
383
330
1F
100
AcDbEntity
  8
0
  6
Continuous
 62
     7
370
    15
100
AcDbLine
 10
240.4776362901243
 20
50.22371714574145
 30
0.0
 11
238.5794369702848
 21
48.52096238744305
 31
0.0
  0
LINE
  5
384
330
1F
100
AcDbEntity
  8
0
  6
Continuous
 62
     7
370
    15
100
AcDbLine
 10
237.2473458027156
 20
49.93517618265794
 30
0.0
 11
238.5794369702848
 21
48.52096238744305
 31
0.0
  0
LINE
  5
385
330
1F
100
AcDbEntity
  8
0
  6
Continuous
 62
     7
370
    15
100
AcDbLine
 10
239.1455451225551
 20
51.63793047529505
 30
0.0
 11
237.2473458027156
 21
49.93517618265794
 31
0.0
  0
SPLINE
  5
386
330
1F
100
AcDbEntity
  8
0
  6
Continuous
 62
     7
370
    15
100
AcDbSpline
210
0.0
220
0.0
230
1.0
 70
     8
 71
     3
 72
    10
 73
     6
 74
     0
 42
0.0000000001
 43
0.0000000001
 40
0.0
 40
0.0
 40
0.0
 40
0.0
 40
0.2784499273099454
 40
0.7444873319910861
 40
1.0
 40
1.0
 40
1.0
 40
1.0
 10
238.5794369702848
 20
48.52096238744305
 30
0.0
 10
238.4568259030687
 20
48.41011447286971
 30
0.0
 10
238.1290025590797
 20
48.11374209103882
 30
0.0
 10
237.5791920900993
 20
47.85513154228447
 30
0.0
 10
237.1598163986993
 20
47.81976765837015
 30
0.0
 10
237.0113086154374
 20
47.80724472937034
 30
0.0
  0
SPLINE
  5
387
330
1F
100
AcDbEntity
  8
0
  6
Continuous
 62
     7
370
    15
100
AcDbSpline
210
0.0
220
0.0
230
1.0
 70
     8
 71
     3
 72
    11
 73
     7
 74
     0
 42
0.0000000001
 43
0.0000000001
 40
0.0
 40
0.0
 40
0.0
 40
0.0
 40
0.4642993708760387
 40
0.6953629337865569
 40
0.9264296873677281
 40
1.0
 40
1.0
 40
1.0
 40
1.0
 10
237.2473458027156
 20
49.93517618265794
 30
0.0
 10
237.214489795461
 20
49.90905544225609
 30
0.0
 10
237.1652826437175
 20
49.86993543517049
 30
0.0
 10
237.0896955400831
 20
49.83355659152543
 30
0.0
 10
237.0443313586736
 20
49.81651564694582
 30
0.0
 10
237.0177323228523
 20
49.80949400094369
 30
0.0
 10
237.0113086154374
 20
49.80779826280521
 30
0.0
  0
LINE
  5
388
330
1F
100
AcDbEntity
  8
0
  6
Continuous
 62
     7
370
    15
100
AcDbLine
 10
247.4319858675512
 20
52.37016329181241
 30
0.0
 11
242.3990683829101
 21
52.37016329181241
 31
0.0
  0
LINE
  5
389
330
1F
100
AcDbEntity
  8
0
  6
Continuous
 62
     7
370
    15
100
AcDbLine
 10
247.4319858675512
 20
50.37016389530943
 30
0.0
 11
242.3990683829101
 21
50.37016389530943
 31
0.0
  0
LINE
  5
38A
330
1F
100
AcDbEntity
  8
0
  6
Continuous
 62
     7
370
    15
100
AcDbLine
 10
242.3990683829101
 20
52.37016329181241
 30
0.0
 11
240.8586571192058
 21
52.37016329181241
 31
0.0
  0
LINE
  5
38B
330
1F
100
AcDbEntity
  8
0
  6
Continuous
 62
     7
370
    15
100
AcDbLine
 10
240.8586571192058
 20
50.37016389530943
 30
0.0
 11
242.3990683829101
 21
50.37016389530943
 31
0.0
  0
LINE
  5
38C
330
1F
100
AcDbEntity
  8
0
  6
Continuous
 62
     7
370
    15
100
AcDbLine
 10
247.5496547495636
 20
45.19809645705716
 30
0.0
 11
247.5071193849357
 21
51.63793047529505
 31
0.0
  0
ARC
  5
38D
330
1F
100
AcDbEntity
  8
0
  6
Continuous
 62
     7
370
    15
100
AcDbCircle
 10
250.8258607175364
 20
45.17710850454604
 30
0.0
 40
3.276273193543476
100
AcDbArc
 50
179.632958165163
 51
182.1945699894633
  0
LINE
  5
38E
330
1F
100
AcDbEntity
  8
0
  6
Continuous
 62
     7
370
    15
100
AcDbLine
 10
247.5784121280225
 20
45.0516498239045
 30
0.0
 11
247.5519905065807
 21
45.0516498239045
 31
0.0
  0
LINE
  5
38F
330
1F
100
AcDbEntity
  8
0
  6
Continuous
 62
     7
370
    15
100
AcDbLine
 10
247.5519905065807
 20
43.05164981622109
 30
0.0
 11
247.5784121280225
 21
43.05164981622109
 31
0.0
  0
ARC
  5
390
330
1F
100
AcDbEntity
  8
0
  6
Continuous
 62
     7
370
    15
100
AcDbCircle
 10
263.9122859101195
 20
43.67875712239597
 30
0.0
 40
16.37230983290117
100
AcDbArc
 50
179.6321042752888
 51
182.1951327474081
  0
LINE
  5
391
330
1F
100
AcDbEntity
  8
0
  6
Continuous
 62
     7
370
    15
100
AcDbLine
 10
247.4977782195123
 20
50.22371714574145
 30
0.0
 11
247.5403135841402
 21
43.78388286556909
 31
0.0
  0
ARC
  5
392
330
1F
100
AcDbEntity
  8
0
  6
Continuous
 62
     7
370
    15
100
AcDbCircle
 10
244.2312678883661
 20
50.24485983884696
 30
0.0
 40
3.266578754133544
100
AcDbArc
 50
359.6291546502352
 51
2.198372051875273
  0
ARC
  5
393
330
1F
100
AcDbEntity
  8
0
  6
Continuous
 62
     7
370
    15
100
AcDbCircle
 10
231.1465920324483
 20
51.7432385321463
 30
0.0
 40
16.36086626796778
100
AcDbArc
 50
359.6312084720593
 51
2.196029131552235
  0
LINE
  5
394
330
1F
100
AcDbEntity
  8
0
  6
Continuous
 62
     7
370
    15
100
AcDbLine
 10
247.4954424624952
 20
52.37016329181241
 30
0.0
 11
247.4319858675512
 21
52.37016329181241
 31
0.0
  0
LINE
  5
395
330
1F
100
AcDbEntity
  8
0
  6
Continuous
 62
     7
370
    15
100
AcDbLine
 10
247.4319858675512
 20
50.37016389530943
 30
0.0
 11
247.4954424624952
 21
50.37016389530943
 31
0.0
  0
LINE
  5
396
330
1F
100
AcDbEntity
  8
0
  6
Continuous
 62
     7
370
    15
100
AcDbLine
 10
237.5405326684626
 20
43.78388286556909
 30
0.0
 11
237.5134060358318
 21
47.89078389865206
 31
0.0
  0
LINE
  5
397
330
1F
100
AcDbEntity
  8
0
  6
Continuous
 62
     7
370
    15
100
AcDbLine
 10
247.5519905065807
 20
43.05164981622109
 30
0.0
 11
237.5522086595806
 21
43.05164981622109
 31
0.0
  0
ARC
  5
398
330
1F
100
AcDbEntity
  8
0
  6
Continuous
 62
     7
370
    15
100
AcDbCircle
 10
253.9077885627337
 20
43.67866110688879
 30
0.0
 40
16.36759411541759
100
AcDbArc
 50
179.6316621630877
 51
182.195429148384
  0
LINE
  5
399
330
1F
100
AcDbEntity
  8
0
  6
Continuous
 62
     7
370
    15
100
AcDbLine
 10
239.213781264952
 20
34.39810653787898
 30
0.0
 11
239.1455451225551
 21
34.46536851686285
 31
0.0
  0
SPLINE
  5
39A
330
1F
100
AcDbEntity
  8
0
  6
Continuous
 62
     7
370
    15
100
AcDbSpline
210
0.0
220
0.0
230
1.0
 70
     8
 71
     3
 72
     9
 73
     5
 74
     0
 42
0.0000000001
 43
0.0000000001
 40
0.0
 40
0.0
 40
0.0
 40
0.0
 40
0.5971268051845829
 40
1.0
 40
1.0
 40
1.0
 40
1.0
 10
240.2967231547149
 20
33.81457054626988
 30
0.0
 10
240.0591275147126
 20
33.88871363073016
 30
0.0
 10
239.6612293832949
 20
34.01288002858153
 30
0.0
 10
239.3422781623317
 20
34.28747826791002
 30
0.0
 10
239.213781264952
 20
34.39810653787898
 30
0.0
  0
LINE
  5
39B
330
1F
100
AcDbEntity
  8
0
  6
Continuous
 62
     7
370
    15
100
AcDbLine
 10
239.1455451225551
 20
34.46536851686285
 30
0.0
 11
240.4776362901243
 21
35.87958231207775
 31
0.0
  0
LINE
  5
39C
330
1F
100
AcDbEntity
  8
0
  6
Continuous
 62
     7
370
    15
100
AcDbLine
 10
240.4931819265398
 20
35.86613028881
 30
0.0
 11
240.4776362901243
 21
35.87958231207775
 31
0.0
  0
SPLINE
  5
39D
330
1F
100
AcDbEntity
  8
0
  6
Continuous
 62
     7
370
    15
100
AcDbSpline
210
0.0
220
0.0
230
1.0
 70
     8
 71
     3
 72
    14
 73
    10
 74
     0
 42
0.0000000001
 43
0.0000000001
 40
0.0
 40
0.0
 40
0.0
 40
0.0
 40
0.1576466138648028
 40
0.3152926828168294
 40
0.4729342474290422
 40
0.6305799078435623
 40
0.7093098904250068
 40
0.8539006204161253
 40
1.0
 40
1.0
 40
1.0
 40
1.0
 10
240.8586571192058
 20
35.73313602817105
 30
0.0
 10
240.8377815673035
 20
35.73380333908339
 30
0.0
 10
240.7960305356565
 20
35.73513795860147
 30
0.0
 10
240.7341693725773
 20
35.74588453890612
 30
0.0
 10
240.6738412501335
 20
35.76287982500534
 30
0.0
 10
240.6254325853897
 20
35.78256078675959
 30
0.0
 10
240.5804949349775
 20
35.80532758530935
 30
0.0
 10
240.5384904489252
 20
35.8304726161433
 30
0.0
 10
240.5083369318104
 20
35.85420334463366
 30
0.0
 10
240.4931819265398
 20
35.86613028881
 30
0.0
  0
LINE
  5
39E
330
1F
100
AcDbEntity
  8
0
  6
Continuous
 62
     7
370
    15
100
AcDbLine
 10
240.8586571192058
 20
33.81457054626988
 30
0.0
 11
240.8586571192058
 21
35.73313602817105
 31
0.0
  0
LINE
  5
39F
330
1F
100
AcDbEntity
  8
0
  6
Continuous
 62
     7
370
    15
100
AcDbLine
 10
239.1455451225551
 20
34.46536851686285
 30
0.0
 11
237.2473458027156
 21
36.16812374082254
 31
0.0
  0
LINE
  5
3A0
330
1F
100
AcDbEntity
  8
0
  6
Continuous
 62
     7
370
    15
100
AcDbLine
 10
237.2473458027156
 20
36.16812374082254
 30
0.0
 11
238.5794369702848
 21
37.58233707037614
 31
0.0
  0
LINE
  5
3A1
330
1F
100
AcDbEntity
  8
0
  6
Continuous
 62
     7
370
    15
100
AcDbLine
 10
240.4776362901243
 20
35.87958231207775
 30
0.0
 11
238.5794369702848
 21
37.58233707037614
 31
0.0
  0
SPLINE
  5
3A2
330
1F
100
AcDbEntity
  8
0
  6
Continuous
 62
     7
370
    15
100
AcDbSpline
210
0.0
220
0.0
230
1.0
 70
     8
 71
     3
 72
    10
 73
     6
 74
     0
 42
0.0000000001
 43
0.0000000001
 40
0.0
 40
0.0
 40
0.0
 40
0.0
 40
0.2784498985300781
 40
0.7444873584002174
 40
1.0
 40
1.0
 40
1.0
 40
1.0
 10
238.5794369702848
 20
37.58233707037614
 30
0.0
 10
238.4568258934746
 20
37.69318496271589
 30
0.0
 10
238.1290024783219
 20
37.9895573262466
 30
0.0
 10
237.5791921792309
 20
38.24816844298203
 30
0.0
 10
237.1598164062985
 20
38.28353228259278
 30
0.0
 10
237.0113086154374
 20
38.29605519411014
 30
0.0
  0
SPLINE
  5
3A3
330
1F
100
AcDbEntity
  8
0
  6
Continuous
 62
     7
370
    15
100
AcDbSpline
210
0.0
220
0.0
230
1.0
 70
     8
 71
     3
 72
    11
 73
     7
 74
     0
 42
0.0000000001
 43
0.0000000001
 40
0.0
 40
0.0
 40
0.0
 40
0.0
 40
0.4642987555830998
 40
0.6953632690951066
 40
0.9264296265761375
 40
1.0
 40
1.0
 40
1.0
 40
1.0
 10
237.2473458027156
 20
36.16812374082254
 30
0.0
 10
237.2144896969266
 20
36.19424413400168
 30
0.0
 10
237.165282308674
 20
36.23336369177065
 30
0.0
 10
237.0896957784571
 20
36.26974358126499
 30
0.0
 10
237.0443312894785
 20
36.28678377842602
 30
0.0
 10
237.0177323193627
 20
36.2938054479317
 30
0.0
 10
237.0113086154374
 20
36.29550119501399
 30
0.0
  0
LINE
  5
3A4
330
1F
100
AcDbEntity
  8
0
  6
Continuous
 62
     7
370
    15
100
AcDbLine
 10
247.4319858675512
 20
35.73313602817105
 30
0.0
 11
242.3990683829101
 21
35.73313602817105
 31
0.0
  0
LINE
  5
3A5
330
1F
100
AcDbEntity
  8
0
  6
Continuous
 62
     7
370
    15
100
AcDbLine
 10
247.4319858675512
 20
33.7331357003455
 30
0.0
 11
245.9695244406971
 21
33.7331357003455
 31
0.0
  0
LINE
  5
3A6
330
1F
100
AcDbEntity
  8
0
  6
Continuous
 62
     7
370
    15
100
AcDbLine
 10
240.8586571192058
 20
35.73313602817105
 30
0.0
 11
242.3990683829101
 21
35.73313602817105
 31
0.0
  0
ARC
  5
3A7
330
1F
100
AcDbEntity
  8
0
  6
Continuous
 62
     7
370
    15
100
AcDbCircle
 10
244.2312951284318
 20
35.85843958293831
 30
0.0
 40
3.266551514871668
100
AcDbArc
 50
357.8016184135307
 51
0.3708490742835035
  0
LINE
  5
3A8
330
1F
100
AcDbEntity
  8
0
  6
Continuous
 62
     7
370
    15
100
AcDbLine
 10
247.4977782195123
 20
35.87958231207775
 30
0.0
 11
247.5403135841402
 21
42.31941679597692
 31
0.0
  0
ARC
  5
3A9
330
1F
100
AcDbEntity
  8
0
  6
Continuous
 62
     7
370
    15
100
AcDbCircle
 10
263.9122802295387
 20
42.42454260481285
 30
0.0
 40
16.37230415285905
100
AcDbArc
 50
177.8048668225472
 51
180.367896082143
  0
LINE
  5
3AA
330
1F
100
AcDbEntity
  8
0
  6
Continuous
 62
     7
370
    15
100
AcDbLine
 10
247.5784121280225
 20
41.05164986674534
 30
0.0
 11
247.5519905065807
 21
41.05164986674534
 31
0.0
  0
ARC
  5
3AB
330
1F
100
AcDbEntity
  8
0
  6
Continuous
 62
     7
370
    15
100
AcDbCircle
 10
250.8258532724723
 20
40.92619128816504
 30
0.0
 40
3.276265750031737
100
AcDbArc
 50
177.8054268083153
 51
180.3670464895758
  0
LINE
  5
3AC
330
1F
100
AcDbEntity
  8
0
  6
Continuous
 62
     7
370
    15
100
AcDbLine
 10
247.5496547495636
 20
40.90520311717735
 30
0.0
 11
247.5071193849357
 21
34.46536851686285
 31
0.0
  0
ARC
  5
3AD
330
1F
100
AcDbEntity
  8
0
  6
Continuous
 62
     7
370
    15
100
AcDbCircle
 10
231.146504992276
 20
34.36006184804191
 30
0.0
 40
16.36095329740299
100
AcDbArc
 50
357.8039776911615
 51
0.3687847052285893
  0
LINE
  5
3AE
330
1F
100
AcDbEntity
  8
0
  6
Continuous
 62
     7
370
    15
100
AcDbLine
 10
247.4319858675512
 20
35.73313602817105
 30
0.0
 11
247.4954424624952
 21
35.73313602817105
 31
0.0
  0
LINE
  5
3AF
330
1F
100
AcDbEntity
  8
0
  6
Continuous
 62
     7
370
    15
100
AcDbLine
 10
247.4954424624952
 20
33.7331357003455
 30
0.0
 11
247.4319858675512
 21
33.7331357003455
 31
0.0
  0
LINE
  5
3B0
330
1F
100
AcDbEntity
  8
0
  6
Continuous
 62
     7
370
    15
100
AcDbLine
 10
237.5405326684626
 20
42.31941679597692
 30
0.0
 11
237.5134060358318
 21
38.21251602482842
 31
0.0
  0
ARC
  5
3B1
330
1F
100
AcDbEntity
  8
0
  6
Continuous
 62
     7
370
    15
100
AcDbCircle
 10
253.9077828849323
 20
42.4246386202723
 30
0.0
 40
16.36758843815528
100
AcDbArc
 50
177.8045704215503
 51
180.368338194371
  0
LINE
  5
3B2
330
1F
100
AcDbEntity
  8
0
  6
Continuous
 62
     7
370
    15
100
AcDbLine
 10
238.0487395649465
 20
33.81457054626988
 30
0.0
 11
232.4321650167616
 21
33.81457054626988
 31
0.0
  0
LINE
  5
3B3
330
1F
100
AcDbEntity
  8
0
  6
Continuous
 62
     7
370
    15
100
AcDbLine
 10
232.4321650167616
 20
31.31457013648795
 30
0.0
 11
238.0487395649465
 21
31.31457013648795
 31
0.0
  0
LINE
  5
3B4
330
1F
100
AcDbEntity
  8
0
  6
Continuous
 62
     7
370
    15
100
AcDbLine
 10
227.5345677708896
 20
33.81457054626988
 30
0.0
 11
222.3297624232868
 21
33.81457054626988
 31
0.0
  0
LINE
  5
3B5
330
1F
100
AcDbEntity
  8
0
  6
Continuous
 62
     7
370
    15
100
AcDbLine
 10
245.9695244406971
 20
33.81457054626988
 30
0.0
 11
238.0487395649465
 21
33.81457054626988
 31
0.0
  0
LINE
  5
3B6
330
1F
100
AcDbEntity
  8
0
  6
Continuous
 62
     7
370
    15
100
AcDbLine
 10
238.0487395649465
 20
31.31457013648795
 30
0.0
 11
245.9695244406971
 21
31.31457013648795
 31
0.0
  0
LINE
  5
3B7
330
1F
100
AcDbEntity
  8
0
  6
Continuous
 62
     7
370
    15
100
AcDbLine
 10
247.432095763615
 20
33.81457054626988
 30
0.0
 11
245.9695244406971
 21
33.81457054626988
 31
0.0
  0
LINE
  5
3B8
330
1F
100
AcDbEntity
  8
0
  6
Continuous
 62
     7
370
    15
100
AcDbLine
 10
245.9695244406971
 20
31.31457013648795
 30
0.0
 11
247.432095763615
 21
31.31457013648795
 31
0.0
  0
LINE
  5
3B9
330
1F
100
AcDbEntity
  8
0
  6
Continuous
 62
     7
370
    15
100
AcDbLine
 10
238.0487395649465
 20
55.3145703451042
 30
0.0
 11
232.4321650167616
 21
55.3145703451042
 31
0.0
  0
LINE
  5
3BA
330
1F
100
AcDbEntity
  8
0
  6
Continuous
 62
     7
370
    15
100
AcDbLine
 10
232.4321650167616
 20
52.81456993532227
 30
0.0
 11
238.0487395649465
 21
52.81456993532227
 31
0.0
  0
LINE
  5
3BB
330
1F
100
AcDbEntity
  8
0
  6
Continuous
 62
     7
370
    15
100
AcDbLine
 10
222.3297624232868
 20
52.81456993532227
 30
0.0
 11
227.5345677708896
 21
52.81456993532227
 31
0.0
  0
LINE
  5
3BC
330
1F
100
AcDbEntity
  8
0
  6
Continuous
 62
     7
370
    15
100
AcDbLine
 10
245.9695244406971
 20
55.3145703451042
 30
0.0
 11
238.0487395649465
 21
55.3145703451042
 31
0.0
  0
LINE
  5
3BD
330
1F
100
AcDbEntity
  8
0
  6
Continuous
 62
     7
370
    15
100
AcDbLine
 10
238.0487395649465
 20
52.81456993532227
 30
0.0
 11
245.9695244406971
 21
52.81456993532227
 31
0.0
  0
LINE
  5
3BE
330
1F
100
AcDbEntity
  8
0
  6
Continuous
 62
     7
370
    15
100
AcDbLine
 10
247.432095763615
 20
55.3145703451042
 30
0.0
 11
245.9695244406971
 21
55.3145703451042
 31
0.0
  0
LINE
  5
3BF
330
1F
100
AcDbEntity
  8
0
  6
Continuous
 62
     7
370
    15
100
AcDbLine
 10
245.9695244406971
 20
52.81456993532227
 30
0.0
 11
247.432095763615
 21
52.81456993532227
 31
0.0
  0
LINE
  5
3C0
330
1F
100
AcDbEntity
  8
0
  6
Continuous
 62
     7
370
    15
100
AcDbLine
 10
179.9322216039213
 20
48.31457012903737
 30
0.0
 11
179.9322216039213
 21
38.31457035255478
 31
0.0
  0
SPLINE
  5
3C1
330
1F
100
AcDbEntity
  8
0
  6
Continuous
 62
     7
370
    15
100
AcDbSpline
210
0.0
220
0.0
230
1.0
 70
     8
 71
     3
 72
     9
 73
     5
 74
     0
 42
0.0000000001
 43
0.0000000001
 40
0.0
 40
0.0
 40
0.0
 40
0.0
 40
0.8794928616814454
 40
1.0
 40
1.0
 40
1.0
 40
1.0
 10
226.0383724433991
 20
33.81457054626988
 30
0.0
 10
226.1617295783455
 20
34.60099412728731
 30
0.0
 10
226.3019889713674
 20
35.49517259681339
 30
0.0
 10
226.3373523304564
 20
36.39588028789589
 30
0.0
 10
226.3416138676616
 20
36.50442199420975
 30
0.0
  0
SPLINE
  5
3C2
330
1F
100
AcDbEntity
  8
0
  6
Continuous
 62
     7
370
    15
100
AcDbSpline
210
0.0
220
0.0
230
1.0
 70
     8
 71
     3
 72
     9
 73
     5
 74
     0
 42
0.0000000001
 43
0.0000000001
 40
0.0
 40
0.0
 40
0.0
 40
0.0
 40
0.1246764897828961
 40
1.0
 40
1.0
 40
1.0
 40
1.0
 10
226.343100724152
 20
50.09964728367375
 30
0.0
 10
226.3386906500536
 20
50.21298902512199
 30
0.0
 10
226.3033185112805
 20
51.12207574745114
 30
0.0
 10
226.1620383180563
 20
52.02458359671028
 30
0.0
 10
226.0383724433991
 20
52.81456993532227
 30
0.0
  0
LINE
  5
3C3
330
1F
100
AcDbEntity
  8
0
  6
Continuous
 62
     7
370
    15
100
AcDbLine
 10
226.4321649646076
 20
33.81457054626988
 30
0.0
 11
226.4321649646076
 21
36.49917538848566
 31
0.0
  0
LINE
  5
3C4
330
1F
100
AcDbEntity
  8
0
  6
Continuous
 62
     7
370
    15
100
AcDbLine
 10
226.4321649646076
 20
50.12996509310649
 30
0.0
 11
226.4321649646076
 21
52.81456993532227
 31
0.0
  0
LINE
  5
3C5
330
1F
100
AcDbEntity
  8
0
  6
Continuous
 62
     7
370
    15
100
AcDbLine
 10
203.9321659331831
 20
51.2645707057123
 30
0.0
 11
203.9321659331831
 21
35.36456977587985
 31
0.0
  0
LINE
  5
3C6
330
1F
100
AcDbEntity
  8
0
  6
Continuous
 62
     7
370
    15
100
AcDbLine
 10
202.4321647559913
 20
49.76457045984314
 30
0.0
 11
202.4321647559913
 21
36.86457002174901
 31
0.0
  0
ARC
  5
3C7
330
1F
100
AcDbEntity
  8
0
  6
Continuous
 62
     7
370
    15
100
AcDbCircle
 10
227.4321651583226
 20
60.31457024079607
 30
0.0
 40
5.000000000000014
100
AcDbArc
 50
0.0
 51
90.0
  0
LINE
  5
3C8
330
1F
100
AcDbEntity
  8
0
  6
Continuous
 62
     7
370
    15
100
AcDbLine
 10
232.4321650167616
 20
60.31457116466807
 30
0.0
 11
232.4321650167616
 21
26.31456931692408
 31
0.0
  0
ARC
  5
3C9
330
1F
100
AcDbEntity
  8
0
  6
Continuous
 62
     7
370
    15
100
AcDbCircle
 10
227.4321651583226
 20
26.31457024079608
 30
0.0
 40
5.000000000000003
100
AcDbArc
 50
270.0000000000008
 51
0.0
  0
LINE
  5
3CA
330
1F
100
AcDbEntity
  8
0
  6
Continuous
 62
     7
370
    15
100
AcDbLine
 10
218.4321650502893
 20
21.31457036000536
 30
0.0
 11
227.4321651285204
 21
21.31457036000536
 31
0.0
  0
LINE
  5
3CB
330
1F
100
AcDbEntity
  8
0
  6
Continuous
 62
     7
370
    15
100
AcDbLine
 10
218.4321650502893
 20
65.31457012158679
 30
0.0
 11
227.4321651285204
 21
65.31457012158679
 31
0.0
  0
CIRCLE
  5
3CC
330
1F
100
AcDbEntity
  8
0
  6
Continuous
 62
     7
370
    15
100
AcDbCircle
 10
224.9321651583227
 20
52.31457024079608
 30
0.0
 40
2.649999999999977
  0
CIRCLE
  5
3CD
330
1F
100
AcDbEntity
  8
0
  6
Continuous
 62
     7
370
    15
100
AcDbCircle
 10
224.9321651583227
 20
34.31457024079608
 30
0.0
 40
2.649999999999977
  0
LINE
  5
3CE
330
1F
100
AcDbEntity
  8
0
  6
Continuous
 62
     7
370
    15
100
AcDbLine
 10
218.4321650502893
 20
21.31457036000536
 30
0.0
 11
211.4321652998837
 21
21.31457036000536
 31
0.0
  0
LINE
  5
3CF
330
1F
100
AcDbEntity
  8
0
  6
Continuous
 62
     7
370
    15
100
AcDbLine
 10
211.4321652998837
 20
21.31457036000536
 30
0.0
 11
211.4321652998837
 21
65.31457012158679
 31
0.0
  0
LINE
  5
3D0
330
1F
100
AcDbEntity
  8
0
  6
Continuous
 62
     7
370
    15
100
AcDbLine
 10
211.4321652998837
 20
65.31457012158679
 30
0.0
 11
218.4321650502893
 21
65.31457012158679
 31
0.0
  0
ENDSEC
  0
SECTION
  2
OBJECTS
  0
DICTIONARY
  5
C
330
0
100
AcDbDictionary
281
     1
  3
ACAD_GROUP
350
D
  3
ACAD_LAYOUT
350
1A
  3
ACAD_MLINESTYLE
350
17
  3
ACAD_PLOTSETTINGS
350
19
  3
ACAD_PLOTSTYLENAME
350
E
  3
ACAD_SCALELIST
350
47
  3
AcDbVariableDictionary
350
3E1
  3
AcmDictionary
350
494
  3
AMG
350
3D5
  3
DWGPROPS
350
497
  3
MAPISURF_MODULE
350
463
  0
DICTIONARY
  5
4CF
330
1F
100
AcDbDictionary
280
     1
281
     1
  3
ACAD_INDEX
360
4D0
  0
DICTIONARY
  5
D
102
{ACAD_REACTORS
330
C
102
}
330
C
100
AcDbDictionary
281
     1
  0
DICTIONARY
  5
1A
102
{ACAD_REACTORS
330
C
102
}
330
C
100
AcDbDictionary
281
     1
  3
Layout1
350
1E
  3
Layout2
350
26
  3
Model
350
22
  0
DICTIONARY
  5
17
102
{ACAD_REACTORS
330
C
102
}
330
C
100
AcDbDictionary
281
     1
  3
Standard
350
18
  0
DICTIONARY
  5
19
102
{ACAD_REACTORS
330
C
102
}
330
C
100
AcDbDictionary
281
     1
  0
ACDBDICTIONARYWDFLT
  5
E
102
{ACAD_REACTORS
330
C
102
}
330
C
100
AcDbDictionary
281
     1
  3
Normal
350
F
100
AcDbDictionaryWithDefault
340
F
  0
DICTIONARY
  5
47
102
{ACAD_REACTORS
330
C
102
}
330
C
100
AcDbDictionary
281
     1
  3
A0
350
48
  3
A1
350
49
  3
A2
350
4A
  3
A3
350
4B
  3
A4
350
4C
  3
A5
350
4D
  3
A6
350
4E
  3
A7
350
4F
  3
A8
350
50
  3
A9
350
51
  3
B0
350
52
  3
B1
350
53
  3
B2
350
54
  3
B3
350
55
  3
B4
350
56
  3
B5
350
57
  3
B6
350
58
  3
B7
350
59
  3
B8
350
5A
  3
B9
350
5B
  3
C0
350
5C
  3
C1
350
5D
  3
C2
350
5E
  3
C3
350
5F
  3
C4
350
60
  3
C5
350
61
  3
C6
350
62
  3
C7
350
63
  3
C8
350
64
  3
C9
350
65
  3
D0
350
66
  3
D1
350
67
  3
D2
350
68
  0
DICTIONARY
  5
3E1
102
{ACAD_REACTORS
330
C
102
}
330
C
100
AcDbDictionary
281
     1
  3
INDEXCTL
350
3E2
  0
DICTIONARY
  5
494
102
{ACAD_REACTORS
330
C
102
}
330
C
100
AcDbDictionary
281
     1
  3
AcmBOMDATA
350
495
  3
AcmStdDictionary
350
4A3
  0
DICTIONARY
  5
3D5
102
{ACAD_REACTORS
330
C
102
}
330
C
100
AcDbDictionary
281
     1
  3
AcMgSettings
350
3D6
  3
AMGLAYCFG
350
4A5
  0
XRECORD
  5
497
102
{ACAD_REACTORS
330
C
102
}
330
C
100
AcDbXrecord
280
     1
  1
DWGPROPS COOKIE
  2

  3

  4

  6

  7

  8

  9

300
AmdtFileType=84
301
=
302
=
303
=
304
=
305
=
306
=
307
=
308
=
309
=
 40
0.0000177893518519
 41
2457688.607531898
 42
2457688.607532627
  1

 90
        1
  0
DICTIONARY
  5
4D0
102
{ACAD_REACTORS
330
4CF
102
}
330
4CF
100
AcDbDictionary
281
     1
  3
*A1
350
4D1
  0
LAYOUT
  5
1E
102
{ACAD_REACTORS
330
1A
102
}
330
1A
100
AcDbPlotSettings
  1

  2
none_device
  4

  6

 40
0.0
 41
0.0
 42
0.0
 43
0.0
 44
0.0
 45
0.0
 46
0.0
 47
0.0
 48
0.0
 49
0.0
140
0.0
141
0.0
142
1.0
143
1.0
 70
   688
 72
     1
 73
     0
 74
     5
  7

 75
    16
147
1.0
148
0.0
149
0.0
100
AcDbLayout
  1
Layout1
 70
     1
 71
     1
 10
0.0
 20
0.0
 11
420.0
 21
297.0
 12
0.0
 22
0.0
 32
0.0
 14
1.000000000000000E+20
 24
1.000000000000000E+20
 34
1.000000000000000E+20
 15
-1.000000000000000E+20
 25
-1.000000000000000E+20
 35
-1.000000000000000E+20
146
0.0
 13
0.0
 23
0.0
 33
0.0
 16
1.0
 26
0.0
 36
0.0
 17
0.0
 27
1.0
 37
0.0
 76
     0
330
1B
  0
LAYOUT
  5
26
102
{ACAD_REACTORS
330
1A
102
}
330
1A
100
AcDbPlotSettings
  1

  2
none_device
  4

  6

 40
0.0
 41
0.0
 42
0.0
 43
0.0
 44
0.0
 45
0.0
 46
0.0
 47
0.0
 48
0.0
 49
0.0
140
0.0
141
0.0
142
1.0
143
1.0
 70
   688
 72
     1
 73
     0
 74
     5
  7

 75
    16
147
1.0
148
0.0
149
0.0
100
AcDbLayout
  1
Layout2
 70
     1
 71
     2
 10
0.0
 20
0.0
 11
0.0
 21
0.0
 12
0.0
 22
0.0
 32
0.0
 14
0.0
 24
0.0
 34
0.0
 15
0.0
 25
0.0
 35
0.0
146
0.0
 13
0.0
 23
0.0
 33
0.0
 16
1.0
 26
0.0
 36
0.0
 17
0.0
 27
1.0
 37
0.0
 76
     0
330
23
  0
LAYOUT
  5
22
102
{ACAD_REACTORS
330
1A
102
}
330
1A
100
AcDbPlotSettings
  1

  2
none_device
  4
Letter_(8.50_x_11.00_Inches)
  6

 40
6.349999999999999
 41
6.349999999999999
 42
6.350005079999999
 43
6.350005079999999
 44
215.8999999999999
 45
279.4
 46
0.0
 47
0.0
 48
0.0
 49
0.0
140
0.0
141
0.0
142
1.0
143
1.0
 70
  1712
 72
     1
 73
     0
 74
     0
  7

 75
     0
147
1.0
148
0.0
149
0.0
100
AcDbLayout
  1
Model
 70
     1
 71
     0
 10
0.0
 20
0.0
 11
420.0
 21
297.0
 12
0.0
 22
0.0
 32
0.0
 14
0.0
 24
0.0
 34
0.0
 15
420.0
 25
297.0
 35
0.0
146
0.0
 13
0.0
 23
0.0
 33
0.0
 16
1.0
 26
0.0
 36
0.0
 17
0.0
 27
1.0
 37
0.0
 76
     0
330
1F
  0
MLINESTYLE
  5
18
102
{ACAD_REACTORS
330
17
102
}
330
17
100
AcDbMlineStyle
  2
STANDARD
 70
     0
  3

 62
   256
 51
90.0
 52
90.0
 71
     2
 49
0.5
 62
   256
  6
BYLAYER
 49
-0.5
 62
   256
  6
BYLAYER
  0
ACDBPLACEHOLDER
  5
F
102
{ACAD_REACTORS
330
E
102
}
330
E
  0
ACAD_PROXY_OBJECT
  5
48
102
{ACAD_REACTORS
330
47
102
}
330
47
100
AcDbProxyObject
 90
      499
 91
      503
 95
   655383
 70
     0
 93
       41
310
903313A3158C
 94
        0
  0
ACAD_PROXY_OBJECT
  5
49
102
{ACAD_REACTORS
330
47
102
}
330
47
100
AcDbProxyObject
 90
      499
 91
      503
 95
   655383
 70
     0
 93
      105
310
903313A324000000000000004000
 94
        0
  0
ACAD_PROXY_OBJECT
  5
4A
102
{ACAD_REACTORS
330
47
102
}
330
47
100
AcDbProxyObject
 90
      499
 91
      503
 95
   655383
 70
     0
 93
      105
310
903313A344000000000000104000
 94
        0
  0
ACAD_PROXY_OBJECT
  5
4B
102
{ACAD_REACTORS
330
47
102
}
330
47
100
AcDbProxyObject
 90
      499
 91
      503
 95
   655383
 70
     0
 93
      105
310
903313A354000000000000144000
 94
        0
  0
ACAD_PROXY_OBJECT
  5
4C
102
{ACAD_REACTORS
330
47
102
}
330
47
100
AcDbProxyObject
 90
      499
 91
      503
 95
   655383
 70
     0
 93
      105
310
903313A384000000000000204000
 94
        0
  0
ACAD_PROXY_OBJECT
  5
4D
102
{ACAD_REACTORS
330
47
102
}
330
47
100
AcDbProxyObject
 90
      499
 91
      503
 95
   655383
 70
     0
 93
      113
310
904313A31304000000000000244000
 94
        0
  0
ACAD_PROXY_OBJECT
  5
4E
102
{ACAD_REACTORS
330
47
102
}
330
47
100
AcDbProxyObject
 90
      499
 91
      503
 95
   655383
 70
     0
 93
      113
310
904313A31364000000000000304000
 94
        0
  0
ACAD_PROXY_OBJECT
  5
4F
102
{ACAD_REACTORS
330
47
102
}
330
47
100
AcDbProxyObject
 90
      499
 91
      503
 95
   655383
 70
     0
 93
      113
310
904313A32304000000000000344000
 94
        0
  0
ACAD_PROXY_OBJECT
  5
50
102
{ACAD_REACTORS
330
47
102
}
330
47
100
AcDbProxyObject
 90
      499
 91
      503
 95
   655383
 70
     0
 93
      113
310
904313A333040000000000003E4000
 94
        0
  0
ACAD_PROXY_OBJECT
  5
51
102
{ACAD_REACTORS
330
47
102
}
330
47
100
AcDbProxyObject
 90
      499
 91
      503
 95
   655383
 70
     0
 93
      113
310
904313A34304000000000000444000
 94
        0
  0
ACAD_PROXY_OBJECT
  5
52
102
{ACAD_REACTORS
330
47
102
}
330
47
100
AcDbProxyObject
 90
      499
 91
      503
 95
   655383
 70
     0
 93
      113
310
904313A35304000000000000494000
 94
        0
  0
ACAD_PROXY_OBJECT
  5
53
102
{ACAD_REACTORS
330
47
102
}
330
47
100
AcDbProxyObject
 90
      499
 91
      503
 95
   655383
 70
     0
 93
      121
310
905313A3130304000000000000594000
 94
        0
  0
ACAD_PROXY_OBJECT
  5
54
102
{ACAD_REACTORS
330
47
102
}
330
47
100
AcDbProxyObject
 90
      499
 91
      503
 95
   655383
 70
     0
 93
      105
310
903323A310000000000000010159
 94
        0
  0
ACAD_PROXY_OBJECT
  5
55
102
{ACAD_REACTORS
330
47
102
}
330
47
100
AcDbProxyObject
 90
      499
 91
      503
 95
   655383
 70
     0
 93
      105
310
903343A310000000000000410159
 94
        0
  0
ACAD_PROXY_OBJECT
  5
56
102
{ACAD_REACTORS
330
47
102
}
330
47
100
AcDbProxyObject
 90
      499
 91
      503
 95
   655383
 70
     0
 93
      105
310
903383A310000000000000810159
 94
        0
  0
ACAD_PROXY_OBJECT
  5
57
102
{ACAD_REACTORS
330
47
102
}
330
47
100
AcDbProxyObject
 90
      499
 91
      503
 95
   655383
 70
     0
 93
      113
310
90431303A310000000000000910140
 94
        0
  0
ACAD_PROXY_OBJECT
  5
58
102
{ACAD_REACTORS
330
47
102
}
330
47
100
AcDbProxyObject
 90
      499
 91
      503
 95
   655383
 70
     0
 93
      121
310
9053130303A310000000000001650100
 94
        0
  0
ACAD_PROXY_OBJECT
  5
59
102
{ACAD_REACTORS
330
47
102
}
330
47
100
AcDbProxyObject
 90
      499
 91
      503
 95
   655383
 70
     0
 93
      257
310
90E312F31323822203D2031272D3022000000000000200FC000000000000284000
 94
        0
  0
ACAD_PROXY_OBJECT
  5
5A
102
{ACAD_REACTORS
330
47
102
}
330
47
100
AcDbProxyObject
 90
      499
 91
      503
 95
   655383
 70
     0
 93
      249
310
90D312F363422203D2031272D3022000000000000240FC000000000000284040
 94
        0
  0
ACAD_PROXY_OBJECT
  5
5B
102
{ACAD_REACTORS
330
47
102
}
330
47
100
AcDbProxyObject
 90
      499
 91
      503
 95
   655383
 70
     0
 93
      249
310
90D312F333222203D2031272D3022000000000000280FC000000000000284040
 94
        0
  0
ACAD_PROXY_OBJECT
  5
5C
102
{ACAD_REACTORS
330
47
102
}
330
47
100
AcDbProxyObject
 90
      499
 91
      503
 95
   655383
 70
     0
 93
      249
310
90D312F313622203D2031272D30220000000000002C0FC000000000000284040
 94
        0
  0
ACAD_PROXY_OBJECT
  5
5D
102
{ACAD_REACTORS
330
47
102
}
330
47
100
AcDbProxyObject
 90
      499
 91
      503
 95
   655383
 70
     0
 93
      249
310
90D332F333222203D2031272D30220000000000002E0FC000000000000284040
 94
        0
  0
ACAD_PROXY_OBJECT
  5
5E
102
{ACAD_REACTORS
330
47
102
}
330
47
100
AcDbProxyObject
 90
      499
 91
      503
 95
   655383
 70
     0
 93
      241
310
90C312F3822203D2031272D3022000000000000300FC000000000000284040
 94
        0
  0
ACAD_PROXY_OBJECT
  5
5F
102
{ACAD_REACTORS
330
47
102
}
330
47
100
AcDbProxyObject
 90
      499
 91
      503
 95
   655383
 70
     0
 93
      249
310
90D332F313622203D2031272D3022000000000000320FC000000000000284040
 94
        0
  0
ACAD_PROXY_OBJECT
  5
60
102
{ACAD_REACTORS
330
47
102
}
330
47
100
AcDbProxyObject
 90
      499
 91
      503
 95
   655383
 70
     0
 93
      241
310
90C312F3422203D2031272D3022000000000000340FC000000000000284040
 94
        0
  0
ACAD_PROXY_OBJECT
  5
61
102
{ACAD_REACTORS
330
47
102
}
330
47
100
AcDbProxyObject
 90
      499
 91
      503
 95
   655383
 70
     0
 93
      241
310
90C332F3822203D2031272D3022000000000000360FC000000000000284040
 94
        0
  0
ACAD_PROXY_OBJECT
  5
62
102
{ACAD_REACTORS
330
47
102
}
330
47
100
AcDbProxyObject
 90
      499
 91
      503
 95
   655383
 70
     0
 93
      241
310
90C312F3222203D2031272D3022000000000000380FC000000000000284040
 94
        0
  0
ACAD_PROXY_OBJECT
  5
63
102
{ACAD_REACTORS
330
47
102
}
330
47
100
AcDbProxyObject
 90
      499
 91
      503
 95
   655383
 70
     0
 93
      241
310
90C332F3422203D2031272D30220000000000003A0FC000000000000284040
 94
        0
  0
ACAD_PROXY_OBJECT
  5
64
102
{ACAD_REACTORS
330
47
102
}
330
47
100
AcDbProxyObject
 90
      499
 91
      503
 95
   655383
 70
     0
 93
      161
310
90A3122203D2031272D30224000000000000284020
 94
        0
  0
ACAD_PROXY_OBJECT
  5
65
102
{ACAD_REACTORS
330
47
102
}
330
47
100
AcDbProxyObject
 90
      499
 91
      503
 95
   655383
 70
     0
 93
      257
310
90E312D312F3222203D2031272D30220000000000003E0FC000000000000284000
 94
        0
  0
ACAD_PROXY_OBJECT
  5
66
102
{ACAD_REACTORS
330
47
102
}
330
47
100
AcDbProxyObject
 90
      499
 91
      503
 95
   655383
 70
     0
 93
      225
310
90A3322203D2031272D302200000000000002100000000000000284000
 94
        0
  0
ACAD_PROXY_OBJECT
  5
67
102
{ACAD_REACTORS
330
47
102
}
330
47
100
AcDbProxyObject
 90
      499
 91
      503
 95
   655383
 70
     0
 93
      225
310
90A3622203D2031272D302200000000000006100000000000000284000
 94
        0
  0
ACAD_PROXY_OBJECT
  5
68
102
{ACAD_REACTORS
330
47
102
}
330
47
100
AcDbProxyObject
 90
      499
 91
      503
 95
   655383
 70
     0
 93
      249
310
90D31272D3022203D2031272D30220000000000000A100000000000000284040
 94
        0
  0
DICTIONARYVAR
  5
3E2
102
{ACAD_REACTORS
330
3E1
102
}
330
3E1
100
DictionaryVariables
280
     0
  1
1
  0
ACMDATADICTIONARY
  5
495
102
{ACAD_REACTORS
330
494
102
}
330
494
100
AcDbDictionary
281
     1
  3
*A1
350
496
100
AcmDataDictionary
  0
DICTIONARY
  5
4A3
102
{ACAD_REACTORS
330
494
102
}
330
494
100
AcDbDictionary
281
     1
  3
ISO
350
4A4
  0
DICTIONARY
  5
3D6
102
{ACAD_REACTORS
330
3D5
102
}
330
3D5
100
AcDbDictionary
281
     1
  3
DWGSETTINGS
350
3D7
  3
TRANSSETTINGS
350
3DB
  0
LAYER_INDEX
  5
4D1
102
{ACAD_REACTORS
330
4D0
102
}
330
4D0
100
AcDbIndex
 40
2457690.480891898
100
AcDbLayerIndex
  8
0
360
4D2
 90
      862
  0
ACMDATAENTRYBLOCK
  5
496
102
{ACAD_REACTORS
330
495
102
}
330
495
100
AcmDataEntry
100
AcmDataEntryBlock
  0
IDBUFFER
  5
4D2
330
0
100
AcDbIdBuffer
330
263
330
264
330
265
330
266
330
267
330
268
330
269
330
26A
330
26B
330
26C
330
26D
330
26E
330
26F
330
270
330
271
330
272
330
273
330
274
330
275
330
276
330
277
330
278
330
279
330
27A
330
27B
330
27C
330
27D
330
27E
330
27F
330
280
330
281
330
282
330
283
330
284
330
285
330
286
330
287
330
288
330
289
330
28A
330
28B
330
28C
330
28D
330
28E
330
28F
330
290
330
291
330
292
330
293
330
294
330
295
330
296
330
297
330
298
330
299
330
29A
330
29B
330
29C
330
29D
330
29E
330
29F
330
2A0
330
2A1
330
2A2
330
2A3
330
2A4
330
2A5
330
2A6
330
2A7
330
2A8
330
2A9
330
2AA
330
2AB
330
2AC
330
2AD
330
2AE
330
2AF
330
2B0
330
2B1
330
2B2
330
2B3
330
2B4
330
2B5
330
2B6
330
2B7
330
2B8
330
2B9
330
2BA
330
2BB
330
2BC
330
2BD
330
2BE
330
2BF
330
2C0
330
2C1
330
2C2
330
2C3
330
2C4
330
2C5
330
2C6
330
2C7
330
2C8
330
2C9
330
2CA
330
2CB
330
2CC
330
2CD
330
2CE
330
2CF
330
2D0
330
2D1
330
2D2
330
2D3
330
2D4
330
2D5
330
2D6
330
2D7
330
2D8
330
2D9
330
2DA
330
2DB
330
2DC
330
2DD
330
2DE
330
2DF
330
2E0
330
2E1
330
2E2
330
2E3
330
2E4
330
2E5
330
2E6
330
2E7
330
2E8
330
2E9
330
2EA
330
2EB
330
2EC
330
2ED
330
2EE
330
2EF
330
2F0
330
2F1
330
2F2
330
2F3
330
2F4
330
2F5
330
2F6
330
2F7
330
2F8
330
2F9
330
2FA
330
2FB
330
2FC
330
2FD
330
2FE
330
2FF
330
300
330
301
330
302
330
303
330
304
330
305
330
306
330
307
330
308
330
309
330
30A
330
30B
330
30C
330
30D
330
30E
330
30F
330
310
330
311
330
312
330
313
330
314
330
315
330
316
330
317
330
318
330
319
330
31A
330
31B
330
31C
330
31D
330
31E
330
31F
330
320
330
321
330
322
330
323
330
324
330
325
330
326
330
327
330
328
330
329
330
32A
330
32B
330
32C
330
32D
330
32E
330
32F
330
330
330
331
330
332
330
333
330
334
330
335
330
336
330
337
330
338
330
339
330
33A
330
33B
330
33C
330
33D
330
33E
330
33F
330
340
330
341
330
342
330
343
330
344
330
345
330
346
330
347
330
348
330
349
330
34A
330
34B
330
34C
330
34D
330
34E
330
34F
330
350
330
351
330
352
330
353
330
354
330
355
330
356
330
357
330
358
330
359
330
35A
330
35B
330
35C
330
35D
330
35E
330
35F
330
360
330
361
330
362
330
363
330
364
330
365
330
366
330
367
330
368
330
369
330
36A
330
36B
330
36C
330
36D
330
36E
330
36F
330
370
330
371
330
372
330
373
330
374
330
375
330
376
330
377
330
378
330
379
330
37A
330
37B
330
37C
330
37D
330
37E
330
37F
330
380
330
381
330
382
330
383
330
384
330
385
330
386
330
387
330
388
330
389
330
38A
330
38B
330
38C
330
38D
330
38E
330
38F
330
390
330
391
330
392
330
393
330
394
330
395
330
396
330
397
330
398
330
399
330
39A
330
39B
330
39C
330
39D
330
39E
330
39F
330
3A0
330
3A1
330
3A2
330
3A3
330
3A4
330
3A5
330
3A6
330
3A7
330
3A8
330
3A9
330
3AA
330
3AB
330
3AC
330
3AD
330
3AE
330
3AF
330
3B0
330
3B1
330
3B2
330
3B3
330
3B4
330
3B5
330
3B6
330
3B7
330
3B8
330
3B9
330
3BA
330
3BB
330
3BC
330
3BD
330
3BE
330
3BF
330
3C0
330
3C1
330
3C2
330
3C3
330
3C4
330
3C5
330
3C6
330
3C7
330
3C8
330
3C9
330
3CA
330
3CB
330
3CC
330
3CD
330
3CE
330
3CF
330
3D0
330
73
330
74
330
75
330
76
330
77
330
78
330
79
330
7A
330
7B
330
7C
330
7D
330
7E
330
7F
330
80
330
81
330
82
330
83
330
84
330
85
330
86
330
87
330
88
330
89
330
8A
330
8B
330
8C
330
8D
330
8E
330
8F
330
90
330
91
330
92
330
93
330
94
330
95
330
96
330
97
330
98
330
99
330
9A
330
9B
330
9C
330
9D
330
9E
330
9F
330
A0
330
A1
330
A2
330
A3
330
A4
330
A5
330
A6
330
A7
330
A8
330
A9
330
AA
330
AB
330
AC
330
AD
330
AE
330
AF
330
B0
330
B1
330
B2
330
B3
330
B4
330
B5
330
B6
330
B7
330
B8
330
B9
330
BA
330
BB
330
BC
330
BD
330
BE
330
BF
330
C0
330
C1
330
C2
330
C3
330
C4
330
C5
330
C6
330
C7
330
C8
330
C9
330
CA
330
CB
330
CC
330
CD
330
CE
330
CF
330
D0
330
D1
330
D2
330
D3
330
D4
330
D5
330
D6
330
D7
330
D8
330
D9
330
DA
330
DB
330
DC
330
DD
330
DE
330
DF
330
E0
330
E1
330
E2
330
E3
330
E4
330
E5
330
E6
330
E7
330
E8
330
E9
330
EA
330
EB
330
EC
330
ED
330
EE
330
EF
330
F0
330
F1
330
F2
330
F3
330
F4
330
F5
330
F6
330
F7
330
F8
330
F9
330
FA
330
FB
330
FC
330
FD
330
FE
330
FF
330
100
330
101
330
102
330
103
330
104
330
105
330
106
330
107
330
108
330
109
330
10A
330
10B
330
10C
330
10D
330
10E
330
10F
330
110
330
111
330
112
330
113
330
114
330
115
330
116
330
117
330
118
330
119
330
11A
330
11B
330
11C
330
11D
330
11E
330
11F
330
120
330
121
330
122
330
123
330
124
330
125
330
126
330
127
330
128
330
129
330
12A
330
12B
330
12C
330
12D
330
12E
330
12F
330
130
330
131
330
132
330
133
330
134
330
135
330
136
330
137
330
138
330
139
330
13A
330
13B
330
13C
330
13D
330
13E
330
13F
330
140
330
141
330
142
330
143
330
144
330
145
330
146
330
147
330
148
330
149
330
14A
330
14B
330
14C
330
14D
330
14E
330
14F
330
150
330
151
330
152
330
153
330
154
330
155
330
156
330
157
330
158
330
159
330
15A
330
15B
330
15C
330
15D
330
15E
330
15F
330
160
330
161
330
162
330
163
330
164
330
165
330
166
330
167
330
168
330
169
330
16A
330
16B
330
16C
330
16D
330
16E
330
16F
330
170
330
171
330
172
330
173
330
174
330
175
330
176
330
177
330
178
330
179
330
17A
330
17B
330
17C
330
17D
330
17E
330
17F
330
180
330
181
330
182
330
183
330
184
330
185
330
186
330
187
330
188
330
189
330
18A
330
18B
330
18C
330
18D
330
18E
330
18F
330
190
330
191
330
192
330
193
330
194
330
195
330
196
330
197
330
198
330
199
330
19A
330
19B
330
19C
330
19D
330
19E
330
19F
330
1A0
330
1A1
330
1A2
330
1A3
330
1A4
330
1A5
330
1A6
330
1A7
330
1A8
330
1A9
330
1AA
330
1AB
330
1AC
330
1AD
330
1AE
330
1AF
330
1B0
330
1B1
330
1B2
330
1B3
330
1B4
330
1B5
330
1B6
330
1B7
330
1B8
330
1B9
330
1BA
330
1BB
330
1BC
330
1BD
330
1BE
330
1BF
330
1C0
330
1C1
330
1C2
330
1C3
330
1C4
330
1C5
330
1C6
330
1C7
330
1C8
330
1C9
330
1CA
330
1CB
330
1CC
330
1CD
330
1CE
330
1CF
330
1D0
330
1D1
330
1D2
330
1D3
330
1D4
330
1D5
330
1D6
330
1D7
330
1D8
330
1D9
330
1DA
330
1DB
330
1DC
330
1DD
330
1DE
330
1DF
330
1E0
330
1E1
330
1E2
330
1E3
330
1E4
330
1E5
330
1E6
330
1E7
330
1E8
330
1E9
330
1EA
330
1EB
330
1EC
330
1ED
330
1EE
330
1EF
330
1F0
330
1F1
330
1F2
330
1F3
330
1F4
330
1F5
330
1F6
330
1F7
330
1F8
330
1F9
330
1FA
330
1FB
330
1FC
330
1FD
330
1FE
330
1FF
330
200
330
201
330
202
330
203
330
204
330
205
330
206
330
207
330
208
330
209
330
20A
330
20B
330
20C
330
20D
330
20E
330
20F
330
210
330
211
330
212
330
213
330
214
330
215
330
216
330
217
330
218
330
219
330
21A
330
21B
330
21C
330
21D
330
21E
330
21F
330
220
330
221
330
222
330
223
330
224
330
225
330
226
330
227
330
228
330
229
330
22A
330
22B
330
22C
330
22D
330
22E
330
22F
330
230
330
231
330
232
330
233
330
234
330
235
330
236
330
237
330
238
330
239
330
23A
330
23B
330
23C
330
23D
330
23E
330
23F
330
240
330
241
330
242
330
243
330
244
330
245
330
246
330
247
330
248
330
249
330
24A
330
24B
330
24C
330
24D
330
24E
330
24F
330
250
330
251
330
252
330
253
330
254
330
255
330
256
330
257
330
258
330
259
330
25A
330
25B
330
25C
330
25D
330
25E
330
25F
330
260
330
261
330
262
  0
ENDSEC
  0
EOF
