  0
SECTION
  2
HEADER
  9
$ACADVER
  1
AC1015
  9
$ACADMAINTVER
 70
    10
  9
$DWGCODEPAGE
  3
ANSI_1252
  9
$INSBASE
 10
0.0
 20
0.0
 30
0.0
  9
$EXTMIN
 10
21.84754987075629
 20
3.485602198212305
 30
0.0
  9
$EXTMAX
 10
399.7189643227399
 20
291.4829985927844
 30
0.0
  9
$LIMMIN
 10
0.0
 20
0.0
  9
$LIMMAX
 10
420.0
 20
297.0
  9
$ORTHOMODE
 70
     0
  9
$REGENMODE
 70
     1
  9
$FILLMODE
 70
     1
  9
$QTEXTMODE
 70
     0
  9
$MIRRTEXT
 70
     1
  9
$LTSCALE
 40
1.0
  9
$ATTMODE
 70
     1
  9
$TEXTSIZE
 40
3.5
  9
$TRACEWID
 40
1.0
  9
$TEXTSTYLE
  7
Standard
  9
$CLAYER
  8
0
  9
$CELTYPE
  6
ByLayer
  9
$CECOLOR
 62
   256
  9
$CELTSCALE
 40
1.0
  9
$DISPSILH
 70
     0
  9
$DIMSCALE
 40
1.0
  9
$DIMASZ
 40
6.0
  9
$DIMEXO
 40
1.0
  9
$DIMDLI
 40
3.75
  9
$DIMRND
 40
0.0
  9
$DIMDLE
 40
0.0
  9
$DIMEXE
 40
1.0
  9
$DIMTP
 40
0.0
  9
$DIMTM
 40
0.0
  9
$DIMTXT
 40
3.5
  9
$DIMCEN
 40
2.5
  9
$DIMTSZ
 40
0.0
  9
$DIMTOL
 70
     0
  9
$DIMLIM
 70
     0
  9
$DIMTIH
 70
     1
  9
$DIMTOH
 70
     1
  9
$DIMSE1
 70
     0
  9
$DIMSE2
 70
     0
  9
$DIMTAD
 70
     1
  9
$DIMZIN
 70
     1
  9
$DIMBLK
  1

  9
$DIMASO
 70
     1
  9
$DIMSHO
 70
     1
  9
$DIMPOST
  1

  9
$DIMAPOST
  1

  9
$DIMALT
 70
     0
  9
$DIMALTD
 70
     3
  9
$DIMALTF
 40
0.0393700787401575
  9
$DIMLFAC
 40
1.0
  9
$DIMTOFL
 70
     1
  9
$DIMTVP
 40
0.0
  9
$DIMTIX
 70
     0
  9
$DIMSOXD
 70
     0
  9
$DIMSAH
 70
     0
  9
$DIMBLK1
  1

  9
$DIMBLK2
  1

  9
$DIMSTYLE
  2
ISO-25
  9
$DIMCLRD
 70
     0
  9
$DIMCLRE
 70
     0
  9
$DIMCLRT
 70
     0
  9
$DIMTFAC
 40
1.0
  9
$DIMGAP
 40
1.524
  9
$DIMJUST
 70
     0
  9
$DIMSD1
 70
     0
  9
$DIMSD2
 70
     0
  9
$DIMTOLJ
 70
     0
  9
$DIMTZIN
 70
     1
  9
$DIMALTZ
 70
     0
  9
$DIMALTTZ
 70
     0
  9
$DIMUPT
 70
     0
  9
$DIMDEC
 70
     1
  9
$DIMTDEC
 70
     1
  9
$DIMALTU
 70
     2
  9
$DIMALTTD
 70
     3
  9
$DIMTXSTY
  7
Standard
  9
$DIMAUNIT
 70
     0
  9
$DIMADEC
 70
     0
  9
$DIMALTRND
 40
0.0
  9
$DIMAZIN
 70
     0
  9
$DIMDSEP
 70
    44
  9
$DIMATFIT
 70
     3
  9
$DIMFRAC
 70
     0
  9
$DIMLDRBLK
  1

  9
$DIMLUNIT
 70
     2
  9
$DIMLWD
 70
    -2
  9
$DIMLWE
 70
    -2
  9
$DIMTMOVE
 70
     0
  9
$LUNITS
 70
     2
  9
$LUPREC
 70
     2
  9
$SKETCHINC
 40
1.0
  9
$FILLETRAD
 40
10.0
  9
$AUNITS
 70
     0
  9
$AUPREC
 70
     2
  9
$MENU
  1
.
  9
$ELEVATION
 40
0.0
  9
$PELEVATION
 40
0.0
  9
$THICKNESS
 40
0.0
  9
$LIMCHECK
 70
     0
  9
$CHAMFERA
 40
0.0
  9
$CHAMFERB
 40
0.0
  9
$CHAMFERC
 40
0.0
  9
$CHAMFERD
 40
0.0
  9
$SKPOLY
 70
     0
  9
$TDCREATE
 40
2457688.604945659
  9
$TDUCREATE
 40
2457688.563278993
  9
$TDUPDATE
 40
2457690.489742997
  9
$TDUUPDATE
 40
2457690.448076331
  9
$TDINDWG
 40
0.0001947222
  9
$TDUSRTIMER
 40
0.0001947222
  9
$USRTIMER
 70
     1
  9
$ANGBASE
 50
0.0
  9
$ANGDIR
 70
     0
  9
$PDMODE
 70
     0
  9
$PDSIZE
 40
-1.0
  9
$PLINEWID
 40
0.0
  9
$SPLFRAME
 70
     0
  9
$SPLINETYPE
 70
     6
  9
$SPLINESEGS
 70
     8
  9
$HANDSEED
  5
4E0
  9
$SURFTAB1
 70
     6
  9
$SURFTAB2
 70
     6
  9
$SURFTYPE
 70
     6
  9
$SURFU
 70
     6
  9
$SURFV
 70
     6
  9
$UCSBASE
  2

  9
$UCSNAME
  2

  9
$UCSORG
 10
0.0
 20
0.0
 30
0.0
  9
$UCSXDIR
 10
1.0
 20
0.0
 30
0.0
  9
$UCSYDIR
 10
0.0
 20
1.0
 30
0.0
  9
$UCSORTHOREF
  2

  9
$UCSORTHOVIEW
 70
     0
  9
$UCSORGTOP
 10
0.0
 20
0.0
 30
0.0
  9
$UCSORGBOTTOM
 10
0.0
 20
0.0
 30
0.0
  9
$UCSORGLEFT
 10
0.0
 20
0.0
 30
0.0
  9
$UCSORGRIGHT
 10
0.0
 20
0.0
 30
0.0
  9
$UCSORGFRONT
 10
0.0
 20
0.0
 30
0.0
  9
$UCSORGBACK
 10
0.0
 20
0.0
 30
0.0
  9
$PUCSBASE
  2

  9
$PUCSNAME
  2

  9
$PUCSORG
 10
0.0
 20
0.0
 30
0.0
  9
$PUCSXDIR
 10
1.0
 20
0.0
 30
0.0
  9
$PUCSYDIR
 10
0.0
 20
1.0
 30
0.0
  9
$PUCSORTHOREF
  2

  9
$PUCSORTHOVIEW
 70
     0
  9
$PUCSORGTOP
 10
0.0
 20
0.0
 30
0.0
  9
$PUCSORGBOTTOM
 10
0.0
 20
0.0
 30
0.0
  9
$PUCSORGLEFT
 10
0.0
 20
0.0
 30
0.0
  9
$PUCSORGRIGHT
 10
0.0
 20
0.0
 30
0.0
  9
$PUCSORGFRONT
 10
0.0
 20
0.0
 30
0.0
  9
$PUCSORGBACK
 10
0.0
 20
0.0
 30
0.0
  9
$USERI1
 70
     0
  9
$USERI2
 70
     0
  9
$USERI3
 70
     0
  9
$USERI4
 70
     0
  9
$USERI5
 70
     0
  9
$USERR1
 40
0.0
  9
$USERR2
 40
0.0
  9
$USERR3
 40
0.0
  9
$USERR4
 40
0.0
  9
$USERR5
 40
0.0
  9
$WORLDVIEW
 70
     1
  9
$SHADEDGE
 70
     3
  9
$SHADEDIF
 70
    70
  9
$TILEMODE
 70
     1
  9
$MAXACTVP
 70
    64
  9
$PINSBASE
 10
0.0
 20
0.0
 30
0.0
  9
$PLIMCHECK
 70
     0
  9
$PEXTMIN
 10
1.000000000000000E+20
 20
1.000000000000000E+20
 30
1.000000000000000E+20
  9
$PEXTMAX
 10
-1.000000000000000E+20
 20
-1.000000000000000E+20
 30
-1.000000000000000E+20
  9
$PLIMMIN
 10
0.0
 20
0.0
  9
$PLIMMAX
 10
420.0
 20
297.0
  9
$UNITMODE
 70
     0
  9
$VISRETAIN
 70
     1
  9
$PLINEGEN
 70
     0
  9
$PSLTSCALE
 70
     1
  9
$TREEDEPTH
 70
  3020
  9
$CMLSTYLE
  2
Standard
  9
$CMLJUST
 70
     0
  9
$CMLSCALE
 40
20.0
  9
$PROXYGRAPHICS
 70
     1
  9
$MEASUREMENT
 70
     1
  9
$CELWEIGHT
370
    -1
  9
$ENDCAPS
280
     0
  9
$JOINSTYLE
280
     0
  9
$LWDISPLAY
290
     1
  9
$INSUNITS
 70
     4
  9
$HYPERLINKBASE
  1

  9
$STYLESHEET
  1

  9
$XEDIT
290
     1
  9
$CEPSNTYPE
380
     0
  9
$PSTYLEMODE
290
     1
  9
$FINGERPRINTGUID
  2
{C6E05BD8-4B39-4E4C-8716-3FFF7598E5E6}
  9
$VERSIONGUID
  2
{835EEB10-F0CE-4E2D-9C32-3D63C21CC100}
  9
$EXTNAMES
290
     1
  9
$PSVPSCALE
 40
0.0
  9
$OLESTARTUP
290
     0
  0
ENDSEC
  0
SECTION
  2
CLASSES
  0
CLASS
  1
ACDBDICTIONARYWDFLT
  2
AcDbDictionaryWithDefault
  3
AutoCAD 2000
 90
        0
280
     0
281
     0
  0
CLASS
  1
VISUALSTYLE
  2
AcDbVisualStyle
  3
ObjectDBX Classes
 90
    36863
280
     0
281
     0
  0
CLASS
  1
MATERIAL
  2
AcDbMaterial
  3
ObjectDBX Classes
 90
    33921
280
     0
281
     0
  0
CLASS
  1
SCALE
  2
AcDbScale
  3
ObjectDBX Classes
 90
     1153
280
     0
281
     0
  0
CLASS
  1
TABLESTYLE
  2
AcDbTableStyle
  3
ObjectDBX Classes
 90
    36863
280
     0
281
     0
  0
CLASS
  1
MLEADERSTYLE
  2
AcDbMLeaderStyle
  3
ACDB_MLEADERSTYLE_CLASS
 90
    36863
280
     0
281
     0
  0
CLASS
  1
SUN
  2
AcDbSun
  3
SCENEOE
 90
     1153
280
     0
281
     0
  0
CLASS
  1
ACDBPLACEHOLDER
  2
AcDbPlaceHolder
  3
AutoCAD 2000
 90
        0
280
     0
281
     0
  0
CLASS
  1
LAYOUT
  2
AcDbLayout
  3
AutoCAD 2000
 90
        0
280
     0
281
     0
  0
CLASS
  1
ACME_DOCUMENT
  2
AcMeDbDoc
  3
AcMeServices
 90
        0
280
     0
281
     0
  0
CLASS
  1
AMGSETTINGSOBJ
  2
AmgSettingsObj
  3
"AcadM|Product Description: AutoCAD Mechanical 2000|Company: Autodesk"
 90
        0
280
     0
281
     0
  0
CLASS
  1
ACMESCOPE
  2
AcMeScope
  3
AcMeServices
 90
        0
280
     0
281
     0
  0
CLASS
  1
ACMECOMMANDHISTORY
  2
AcMeCommandHistory
  3
AcMeServices
 90
        0
280
     0
281
     0
  0
CLASS
  1
DICTIONARYVAR
  2
AcDbDictionaryVar
  3
AutoCAD 2000
 90
        0
280
     0
281
     0
  0
CLASS
  1
ACIMSYSVARMAN
  2
AcImSysVarManager
  3
AcMeServices
 90
        0
280
     0
281
     0
  0
CLASS
  1
ACIMREALSYSVAR
  2
AcImRealSysVar
  3
AcMeServices
 90
        0
280
     0
281
     0
  0
CLASS
  1
ACIMINTSYSVAR
  2
AcImIntSysVar
  3
AcMeServices
 90
        0
280
     0
281
     0
  0
CLASS
  1
ACMEDRAWINGMAN
  2
AcMeDrawingMan
  3
AcMeServices
 90
        0
280
     0
281
     0
  0
CLASS
  1
ACMEVIEW
  2
AcMeView
  3
AcMeServices
 90
        0
280
     0
281
     0
  0
CLASS
  1
ACDBENTITYCACHE
  2
AcMeEntityCache
  3
AcMeServices
 90
        0
280
     0
281
     0
  0
CLASS
  1
GSMANAGER
  2
AcMeGSManager
  3
AcMeServices
 90
        0
280
     0
281
     0
  0
CLASS
  1
AMDTINTERNALREACTOR
  2
AmdtInternalReactor
  3
AcMeServices
 90
        0
280
     0
281
     0
  0
CLASS
  1
ACMESTATEMGR
  2
AcMeStateMgr
  3
AcMeServices
 90
        0
280
     0
281
     0
  0
CLASS
  1
ACGREFMASTER
  2
AcGrefMaster
  3
AcAttribServices
 90
        0
280
     0
281
     0
  0
CLASS
  1
AM_DRAWING_MGR
  2
AcDmDwgMgr
  3
AcMechDwgViewMgmt
 90
        0
280
     0
281
     0
  0
CLASS
  1
AM_DWG_DOCUMENT
  2
AcDmDwgDocument
  3
AcMechDwgViewMgmt
 90
        0
280
     0
281
     0
  0
CLASS
  1
AM_DWG_SHEET
  2
AcDmSheet
  3
AcMechDwgViewMgmt
 90
        0
280
     0
281
     0
  0
CLASS
  1
AM_VIEWDIMPARMAP
  2
AcDmViewDimParMap
  3
AcMechDwgViewMgmt
 90
        0
280
     0
281
     0
  0
CLASS
  1
AM_DWGMGR_NAME
  2
AcDmDwgMgrName
  3
AcMechDwgViewMgmt
 90
        0
280
     0
281
     0
  0
CLASS
  1
ACME_DATABASE
  2
AcMeDbDatabase
  3
AcMeServices
 90
        0
280
     0
281
     0
  0
CLASS
  1
ACRFINSADJUSTERMGR
  2
AcRfInsAdjusterMgr
  3
AcMeServices
 90
        0
280
     0
281
     0
  0
CLASS
  1
ACGREFMASTER
  2
AcGrefacadMaster
  3
AcGrefServices
 90
        0
280
     0
281
     0
  0
CLASS
  1
AMDTMENUSTATEMGR
  2
AmdtMenuStateMgr
  3
McadcomServices
 90
        0
280
     0
281
     0
  0
CLASS
  1
AMDTMCOMMENUSTATE
  2
AmdtMcomMenuState
  3
McadcomServices
 90
        0
280
     0
281
     0
  0
CLASS
  1
AMIMASTER
  2
AmiMaster
  3
AmiServices
 90
        0
280
     0
281
     0
  0
CLASS
  1
ASAPP
  2
AcAsAppObject
  3
AutoSurfServices
 90
        0
280
     0
281
     0
  0
CLASS
  1
IM_STATIC_MAN
  2
AcImStaticVarManager
  3
AcMeServices
 90
        0
280
     0
281
     0
  0
CLASS
  1
ACIMSTRSYSVAR
  2
AcImStrSysVar
  3
AcMeServices
 90
        0
280
     0
281
     0
  0
CLASS
  1
ACIMDBLSTATICVAR
  2
AcImDblStaticVar
  3
AcMeServices
 90
        0
280
     0
281
     0
  0
CLASS
  1
ACIMSTRSTATICVAR
  2
AcImStrStaticVar
  3
AcMeServices
 90
        0
280
     0
281
     0
  0
CLASS
  1
ACIMINTSTATICVAR
  2
AcImIntStaticVar
  3
AcMeServices
 90
        0
280
     0
281
     0
  0
CLASS
  1
ACASGREFMASTER
  2
AcAsGrefMaster
  3
AutoSurfResolverServices
 90
        0
280
     0
281
     0
  0
CLASS
  1
ACADGREFMODULE
  2
AcAdGrefModule
  3
AdGrefServices
 90
        0
280
     0
281
     0
  0
CLASS
  1
AMDTMAPISURFMOUDULE
  2
AmdtMApiSurfModule
  3
MApiSurfServices
 90
        0
280
     0
281
     0
  0
CLASS
  1
MAPIAMMOUDLE
  2
MApiAmModule
  3
MApiAmServices
 90
        0
280
     0
281
     0
  0
CLASS
  1
AMDTADMENUSTATE
  2
AmdtAdMenuState
  3
DesignerServices
 90
        0
280
     0
281
     0
  0
CLASS
  1
ADAPPL
  2
AcAdAppl
  3
DesignerServices
 90
        0
280
     0
281
     0
  0
CLASS
  1
DEPMGR
  2
AcAdDepMgr
  3
DesignerServices
 90
        0
280
     0
281
     0
  0
CLASS
  1
PARAMMGR
  2
AcAdParamMgr
  3
DesignerServices
 90
        0
280
     0
281
     0
  0
CLASS
  1
PARAMSCOPE
  2
AcAdParamScope
  3
DesignerServices
 90
        0
280
     0
281
     0
  0
CLASS
  1
NAMEDAPPL
  2
AcAdNamedAppl
  3
DesignerServices
 90
        0
280
     0
281
     0
  0
CLASS
  1
ADHNTMPLT
  2
AdHoleNoteTemplateMgr
  3
DesignerServices
 90
        0
280
     0
281
     0
  0
CLASS
  1
AM_HNTEMPLATE_MGR_NAME
  2
AdHoleNoteTemplateMgrName
  3
DesignerServices
 90
        0
280
     0
281
     0
  0
CLASS
  1
AMDTDMMENUSTATE
  2
AmdtDmMenuState
  3
AcMechDwgViewMgmt
 90
        0
280
     0
281
     0
  0
CLASS
  1
MAPIADMODULE
  2
MApiAdModule
  3
MApiAdServices
 90
        0
280
     0
281
     0
  0
CLASS
  1
AMDTAMMENUSTATE
  2
AmdtAmMenuState
  3
DesignerAssemblies
 90
        0
280
     0
281
     0
  0
CLASS
  1
ACAMPROJECT
  2
AcAmProject
  3
DesignerAssemblies
 90
        0
280
     0
281
     0
  0
CLASS
  1
ACAMGRCOMPDEF
  2
AcAmGrCompDef
  3
DesignerAssemblies
 90
        0
280
     0
281
     0
  0
CLASS
  1
ACCMCONTEXT
  2
AcCmContext
  3
DesignerAssemblies
 90
        0
280
     0
281
     0
  0
CLASS
  1
ACAMCOMPDEF
  2
AcAmCompDef
  3
DesignerAssemblies
 90
        0
280
     0
281
     0
  0
CLASS
  1
ACAMCOMPDEFMGR
  2
AcAmCompDefMgr
  3
DesignerAssemblies
 90
        0
280
     0
281
     0
  0
CLASS
  1
AMCONTEXTMGR
  2
AcAmContextMgr
  3
DesignerAssemblies
 90
        0
280
     0
281
     0
  0
CLASS
  1
ACAMCONTEXTMODELER
  2
AcAmContextModeler
  3
DesignerAssemblies
 90
        0
280
     0
281
     0
  0
CLASS
  1
ACMDATADICTIONARY
  2
AcmDataDictionary
  3
"AcmSymBB|Product Description: AutoCAD Mechanical 2000|Company: Autodesk"
 90
        0
280
     0
281
     0
  0
CLASS
  1
ACMDATAENTRYBLOCK
  2
AcmDataEntryBlock
  3
"AcmSymBB|Product Description: AutoCAD Mechanical 2000|Company: Autodesk"
 90
        0
280
     0
281
     0
  0
CLASS
  1
CATALOGSTATE
  2
AcAmCatalogState
  3
DesignerAssemblies
 90
        0
280
     0
281
     0
  0
CLASS
  1
ACAMGRCOMPDEFSET
  2
AcAmGrCompDefSet
  3
DesignerAssemblies
 90
        0
280
     0
281
     0
  0
CLASS
  1
AMDTBROWSERDBTAB
  2
AmdtBrowserDbTab
  3
McadcomServices
 90
        0
280
     0
281
     0
  0
CLASS
  1
CBROWSERAPPOBJECT
  2
CBrowserAppObject
  3
McadcomServices
 90
        0
280
     0
281
     0
  0
CLASS
  1
DM_PLACEHOLDER
  2
AcDmSelsetPlaceholder
  3
AcMechDwgViewMgmt
 90
        0
280
     0
281
     0
  0
CLASS
  1
ACMSTANDARDISO
  2
AcmStandardISO
  3
"Amdt_StdImp|Product Description: AutoCAD Mechanical 2000|Company: Autodesk"
 90
        0
280
     0
281
     0
  0
CLASS
  1
AMGOBJPROPCFG
  2
AmgObjPropCfg
  3
"AmgLay|Product Description: AutoCAD Mechanical 2000|Company: Autodesk"
 90
        1
280
     0
281
     0
  0
CLASS
  1
AMDTEDGESTANDARDISO
  2
AmdtEdgeStdISO
  3
"Amdt_StdImp|Product Description: AutoCAD Mechanical 2000|Company: Autodesk"
 90
        0
280
     0
281
     0
  0
CLASS
  1
ACMSURFSTANDARDISO
  2
AcmSurfTextStdISO
  3
"Amdt_StdImp|Product Description: AutoCAD Mechanical 2000|Company: Autodesk"
 90
        0
280
     0
281
     0
  0
CLASS
  1
ACMFCFSTANDARDISO
  2
AcmFCFStdISO
  3
"Amdt_StdImp|Product Description: AutoCAD Mechanical 2000|Company: Autodesk"
 90
        0
280
     0
281
     0
  0
CLASS
  1
ACMWELDSTANDARDISO
  2
AcmWeldingStdISO
  3
"Amdt_StdImp|Product Description: AutoCAD Mechanical 2000|Company: Autodesk"
 90
        0
280
     0
281
     0
  0
CLASS
  1
ACMIDSTANDARDISO
  2
AcmIdStdISO
  3
"Amdt_StdImp|Product Description: AutoCAD Mechanical 2000|Company: Autodesk"
 90
        0
280
     0
281
     0
  0
CLASS
  1
ACMDATUMSTANDARDISO
  2
AcmDatumStdISO
  3
"Amdt_StdImp|Product Description: AutoCAD Mechanical 2000|Company: Autodesk"
 90
        0
280
     0
281
     0
  0
CLASS
  1
ACMBOMSTANDARDISO
  2
AcmBOMStdISO
  3
"Amdt_StdImp|Product Description: AutoCAD Mechanical 2000|Company: Autodesk"
 90
        0
280
     0
281
     0
  0
CLASS
  1
ACMDETAILSTANDARDISO
  2
AmdtDetailSymStdISO
  3
"Amdt_StdImp|Product Description: AutoCAD Mechanical 2000|Company: Autodesk"
 90
        0
280
     0
281
     0
  0
CLASS
  1
ACMSECTIONSTANDARDISO
  2
AmdtSectionSymStdISO
  3
"Amdt_StdImp|Product Description: AutoCAD Mechanical 2000|Company: Autodesk"
 90
        0
280
     0
281
     0
  0
CLASS
  1
ACMCENTERLINESTANDARDISO
  2
AmdtCenterLineStdISO
  3
"Amdt_StdImp|Product Description: AutoCAD Mechanical 2000|Company: Autodesk"
 90
        0
280
     0
281
     0
  0
CLASS
  1
ACMTHREADLINESTANDARDCSN
  2
AmdtThreadLineStdCSN
  3
"Amdt_StdImp|Product Description: AutoCAD Mechanical 2000|Company: Autodesk"
 90
        0
280
     0
281
     0
  0
CLASS
  1
"AcAmgLayStd"
  2
AcAmgLayStd
  3
"AcAmgLayStd|Product Description: AutoCAD Mechanical 2000|Company: Autodesk"
 90
        0
280
     0
281
     0
  0
CLASS
  1
"AcAmgDimStd"
  2
AcAmgDimStd
  3
"AcAmgDimStd|Product Description: AutoCAD Mechanical 2000|Company: Autodesk"
 90
        0
280
     0
281
     0
  0
CLASS
  1
AcAmgTitleStd
  2
AcAmgTitleStd
  3
"TITLEAPP"
 90
        0
280
     0
281
     0
  0
CLASS
  1
LAYER_INDEX
  2
AcDbLayerIndex
  3
AutoCAD 2000
 90
        0
280
     0
281
     0
  0
CLASS
  1
IDBUFFER
  2
AcDbIdBuffer
  3
AutoCAD 2000
 90
        0
280
     0
281
     0
  0
ENDSEC
  0
SECTION
  2
TABLES
  0
TABLE
  2
VPORT
  5
8
330
0
100
AcDbSymbolTable
 70
     3
  0
VPORT
  5
4DF
330
8
100
AcDbSymbolTableRecord
100
AcDbViewportTableRecord
  2
*Active
 70
     0
 10
0.0
 20
0.0
 11
1.0
 21
1.0
 12
-161.1428659192113
 22
-13.82189195027757
 13
0.0
 23
0.0
 14
10.0
 24
10.0
 15
10.0
 25
10.0
 16
0.0
 26
0.0
 36
1.0
 17
449.6414342629482
 27
148.5
 37
0.0
 40
418.5116618508597
 41
3.027888446215139
 42
50.0
 43
0.0
 44
0.0
 50
0.0
 51
0.0
 71
     0
 72
  2000
 73
     1
 74
     3
 75
     0
 76
     0
 77
     0
 78
     0
281
     0
 65
     0
110
0.0
120
0.0
130
0.0
111
1.0
121
0.0
131
0.0
112
0.0
122
1.0
132
0.0
 79
     0
146
0.0
  0
ENDTAB
  0
TABLE
  2
LTYPE
  5
5
330
0
100
AcDbSymbolTable
 70
    19
  0
LTYPE
  5
14
330
5
100
AcDbSymbolTableRecord
100
AcDbLinetypeTableRecord
  2
ByBlock
 70
     0
  3

 72
    65
 73
     0
 40
0.0
  0
LTYPE
  5
15
330
5
100
AcDbSymbolTableRecord
100
AcDbLinetypeTableRecord
  2
ByLayer
 70
     0
  3

 72
    65
 73
     0
 40
0.0
  0
LTYPE
  5
16
330
5
100
AcDbSymbolTableRecord
100
AcDbLinetypeTableRecord
  2
Continuous
 70
     0
  3
Solid line
 72
    65
 73
     0
 40
0.0
  0
LTYPE
  5
6E
330
5
100
AcDbSymbolTableRecord
100
AcDbLinetypeTableRecord
  2
HIDDEN
 70
     0
  3
Hidden __ __ __ __ __ __ __ __ __ __ __ __ __ __
 72
    65
 73
     2
 40
1.905
 49
1.27
 74
     0
 49
-0.635
 74
     0
  0
LTYPE
  5
6F
330
5
100
AcDbSymbolTableRecord
100
AcDbLinetypeTableRecord
  2
PHANTOM
 70
     0
  3
Phantom ______  __  __  ______  __  __  ______
 72
    65
 73
     6
 40
12.69999999999999
 49
6.349999999999999
 74
     0
 49
-1.27
 74
     0
 49
1.27
 74
     0
 49
-1.27
 74
     0
 49
1.27
 74
     0
 49
-1.27
 74
     0
  0
LTYPE
  5
70
330
5
100
AcDbSymbolTableRecord
100
AcDbLinetypeTableRecord
  2
CENTER
 70
     0
  3
Center ____ _ ____ _ ____ _ ____ _ ____ _ ____
 72
    65
 73
     4
 40
10.15999999999999
 49
6.349999999999999
 74
     0
 49
-1.27
 74
     0
 49
1.27
 74
     0
 49
-1.27
 74
     0
  0
LTYPE
  5
71
330
5
100
AcDbSymbolTableRecord
100
AcDbLinetypeTableRecord
  2
CENTERX2
 70
     0
  3
Center (2x) ________  __  ________  __  _____
 72
    65
 73
     4
 40
20.31999999999999
 49
12.7
 74
     0
 49
-2.54
 74
     0
 49
2.54
 74
     0
 49
-2.54
 74
     0
  0
LTYPE
  5
72
330
5
100
AcDbSymbolTableRecord
100
AcDbLinetypeTableRecord
  2
DOT2
 70
     0
  3
Dot (.5x) ........................................
 72
    65
 73
     2
 40
0.635
 49
0.0
 74
     0
 49
-0.635
 74
     0
  0
LTYPE
  5
40A
330
5
100
AcDbSymbolTableRecord
100
AcDbLinetypeTableRecord
  2
PHANTOM2
 70
     0
  3
Phantom (.5x) ___ _ _ ___ _ _ ___ _ _ ___ _ _
 72
    65
 73
     6
 40
31.75
 49
15.875
 74
     0
 49
-3.174999999999999
 74
     0
 49
3.174999999999999
 74
     0
 49
-3.174999999999999
 74
     0
 49
3.174999999999999
 74
     0
 49
-3.174999999999999
 74
     0
  0
LTYPE
  5
46A
330
5
100
AcDbSymbolTableRecord
100
AcDbLinetypeTableRecord
  2
ASULTYPE
 70
     0
  3
Solid line
 72
    65
 73
     2
 40
3.0
 49
2.5
 74
     0
 49
0.5
 74
     0
  0
LTYPE
  5
46B
330
5
100
AcDbSymbolTableRecord
100
AcDbLinetypeTableRecord
  2
ASVLTYPE
 70
     0
  3
__ __ __ __ __ __ __ __ __ __ __ __ __ __ __ __ __ __ __ __ __
 72
    65
 73
     2
 40
0.75
 49
0.5
 74
     0
 49
-0.25
 74
     0
  0
LTYPE
  5
4B2
330
5
100
AcDbSymbolTableRecord
100
AcDbLinetypeTableRecord
  2
AM_ISO02W050
 70
     0
  3
__ __ __ __ __ __ __ __ __ __ __ __ __ __ __
 72
    65
 73
     2
 40
7.5
 49
6.0
 74
     0
 49
-1.5
 74
     0
  0
LTYPE
  5
4B3
330
5
100
AcDbSymbolTableRecord
100
AcDbLinetypeTableRecord
  2
AM_ISO08W050
 70
     0
  3
____ . ____ . ____ . ____ . ____ . ____ . ____
 72
    65
 73
     4
 40
18.0
 49
12.0
 74
     0
 49
-1.5
 74
     0
 49
3.0
 74
     0
 49
-1.5
 74
     0
  0
LTYPE
  5
4B4
330
5
100
AcDbSymbolTableRecord
100
AcDbLinetypeTableRecord
  2
AM_ISO09W050
 70
     0
  3
_____ . . _____ . . _____ . . ____ .. ____
 72
    65
 73
     6
 40
22.5
 49
12.0
 74
     0
 49
-1.5
 74
     0
 49
3.0
 74
     0
 49
-1.5
 74
     0
 49
3.0
 74
     0
 49
-1.5
 74
     0
  0
LTYPE
  5
4B5
330
5
100
AcDbSymbolTableRecord
100
AcDbLinetypeTableRecord
  2
Amconstr
 70
     0
  3
_______________________
 72
    65
 73
     2
 40
9999.0
 49
9999.0
 74
     0
 49
0.0
 74
     0
  0
LTYPE
  5
4B6
330
5
100
AcDbSymbolTableRecord
100
AcDbLinetypeTableRecord
  2
AM_ISO08W050x2
 70
     0
  3
__ . __ . __ . __ . __ . __
 72
    65
 73
     4
 40
9.0
 49
6.0
 74
     0
 49
-0.75
 74
     0
 49
1.5
 74
     0
 49
-0.75
 74
     0
  0
LTYPE
  5
4B7
330
5
100
AcDbSymbolTableRecord
100
AcDbLinetypeTableRecord
  2
AM_ISO02W050x2
 70
     0
  3
 _ _ _ _ _ _ _ _ _ _ _ _
 72
    65
 73
     2
 40
3.75
 49
3.0
 74
     0
 49
-0.75
 74
     0
  0
LTYPE
  5
4BA
330
5
100
AcDbSymbolTableRecord
100
AcDbLinetypeTableRecord
  2
Amzigzag
 70
     0
  3
/\/-/\/-/\/-/\/-/\/-/\/
 72
    65
 73
     2
 40
11.00009999999999
 49
0.0001
 74
     4
 75
   135
340
4B9
 46
0.04
 50
0.0
 44
0.0
 45
0.0
 49
-11.0
 74
     0
  0
LTYPE
  5
4C8
330
5
100
AcDbSymbolTableRecord
100
AcDbLinetypeTableRecord
  2
ACISOWELD
 70
     0
  3
_ _ _ _ _
 72
    65
 73
     2
 40
2.0
 49
2.0
 74
     0
 49
-1.0
 74
     0
  0
LTYPE
  5
4C9
330
5
100
AcDbSymbolTableRecord
100
AcDbLinetypeTableRecord
  2
ACISOTGB
 70
     0
  3
__ . . __ . .
 72
    65
 73
     6
 40
9.0
 49
4.0
 74
     0
 49
-1.0
 74
     0
 49
1.0
 74
     0
 49
-1.0
 74
     0
 49
1.0
 74
     0
 49
-1.0
 74
     0
  0
LTYPE
  5
4CA
330
5
100
AcDbSymbolTableRecord
100
AcDbLinetypeTableRecord
  2
ACISOTGL
 70
     0
  3
_ _ _ _ _
 72
    65
 73
     2
 40
3.0
 49
2.0
 74
     0
 49
-1.0
 74
     0
  0
ENDTAB
  0
TABLE
  2
LAYER
  5
2
330
0
100
AcDbSymbolTable
 70
     1
  0
LAYER
  5
10
330
2
100
AcDbSymbolTableRecord
100
AcDbLayerTableRecord
  2
0
 70
     0
 62
     7
  6
Continuous
370
    -3
390
F
  0
ENDTAB
  0
TABLE
  2
STYLE
  5
3
330
0
100
AcDbSymbolTable
 70
     4
  0
STYLE
  5
11
330
3
100
AcDbSymbolTableRecord
100
AcDbTextStyleTableRecord
  2
Standard
 70
     0
 40
0.0
 41
1.0
 50
0.0
 71
     0
 42
3.5
  3
txt
  4

  0
STYLE
  5
4B9
330
3
100
AcDbSymbolTableRecord
100
AcDbTextStyleTableRecord
  2

 70
     1
 40
0.0
 41
1.0
 50
0.0
 71
     0
 42
3.5
  3
ltypeshp.shx
  4

  0
STYLE
  5
4BB
330
3
100
AcDbSymbolTableRecord
100
AcDbTextStyleTableRecord
  2
ACISOTS
 70
     0
 40
1.0
 41
1.0
 50
0.0
 71
     0
 42
3.5
  3
isocp.shx
  4

  0
STYLE
  5
4C7
330
3
100
AcDbSymbolTableRecord
100
AcDbTextStyleTableRecord
  2
ACISOGDT
 70
     0
 40
0.0
 41
1.0
 50
0.0
 71
     0
 42
3.5
  3
amgdt.shx
  4

  0
ENDTAB
  0
TABLE
  2
VIEW
  5
6
330
0
100
AcDbSymbolTable
 70
     0
  0
ENDTAB
  0
TABLE
  2
UCS
  5
7
330
0
100
AcDbSymbolTable
 70
     0
  0
ENDTAB
  0
TABLE
  2
APPID
  5
9
330
0
100
AcDbSymbolTable
 70
    13
  0
APPID
  5
12
330
9
100
AcDbSymbolTableRecord
100
AcDbRegAppTableRecord
  2
ACAD
 70
     0
  0
APPID
  5
3E4
330
9
100
AcDbSymbolTableRecord
100
AcDbRegAppTableRecord
  2
GENIUS_GENDIM_13
 70
     0
  0
APPID
  5
3E5
330
9
100
AcDbSymbolTableRecord
100
AcDbRegAppTableRecord
  2
GENIUS_GENDTOL_13
 70
     0
  0
APPID
  5
3E6
330
9
100
AcDbSymbolTableRecord
100
AcDbRegAppTableRecord
  2
GENIUS_GE3DTOL_13
 70
     0
  0
APPID
  5
3E9
330
9
100
AcDbSymbolTableRecord
100
AcDbRegAppTableRecord
  2
MCAD_NO_VIS
 70
     0
  0
APPID
  5
3EA
330
9
100
AcDbSymbolTableRecord
100
AcDbRegAppTableRecord
  2
ACAD_TEMP_GRAPHIC
 70
     0
  0
APPID
  5
41D
330
9
100
AcDbSymbolTableRecord
100
AcDbRegAppTableRecord
  2
AD_DRAW
 70
     0
  0
APPID
  5
420
330
9
100
AcDbSymbolTableRecord
100
AcDbRegAppTableRecord
  2
ACATTRIBSERVICES
 70
     0
  0
APPID
  5
46C
330
9
100
AcDbSymbolTableRecord
100
AcDbRegAppTableRecord
  2
ASURF_PCURVE_APPNAME
 70
     0
  0
APPID
  5
471
330
9
100
AcDbSymbolTableRecord
100
AcDbRegAppTableRecord
  2
AMG_3D2D_5.0
 70
     0
  0
APPID
  5
49F
330
9
100
AcDbSymbolTableRecord
100
AcDbRegAppTableRecord
  2
DESIGNERASSEMBLIES
 70
     0
  0
APPID
  5
4A7
330
9
100
AcDbSymbolTableRecord
100
AcDbRegAppTableRecord
  2
ACADM_DIM_EDIT
 70
     0
  0
APPID
  5
4A8
330
9
100
AcDbSymbolTableRecord
100
AcDbRegAppTableRecord
  2
AMDT_DM_ADJ
 70
     0
  0
ENDTAB
  0
TABLE
  2
DIMSTYLE
  5
A
330
0
100
AcDbSymbolTable
 70
     8
100
AcDbDimStyleTable
 71
     0
  0
DIMSTYLE
105
27
330
A
100
AcDbSymbolTableRecord
100
AcDbDimStyleTableRecord
  2
ISO-25
 70
     0
 41
2.5
 42
0.625
 43
3.75
 44
1.25
 73
     0
 74
     0
 77
     1
 78
     8
140
2.5
141
2.5
143
0.03937007874016
147
0.625
171
     3
172
     1
271
     2
272
     2
274
     3
278
    44
283
     0
284
     8
340
11
  0
DIMSTYLE
105
4CE
330
A
100
AcDbSymbolTableRecord
100
AcDbDimStyleTableRecord
  2
AM_ISO
 70
     0
  4
"
 41
2.5
 42
1.0
 43
10.0
 44
1.0
 47
0.1
 48
0.1
 73
     0
 74
     0
 77
     1
 78
     8
 79
     2
140
3.5
141
0.0
143
0.0393701
146
0.71
147
1.5
172
     1
176
   256
177
   256
178
     2
271
     2
272
     3
274
     4
283
     0
284
     8
340
11
371
    -1
372
    -1
  0
DIMSTYLE
105
4CF
330
A
100
AcDbSymbolTableRecord
100
AcDbDimStyleTableRecord
  2
AM_ISO$3
 70
     0
  4
"
 41
2.5
 42
1.0
 43
10.0
 44
1.0
 47
0.1
 48
0.1
 73
     0
 77
     1
 78
     8
 79
     2
140
3.5
141
0.0
143
0.0393701
146
0.71
147
1.5
176
   256
177
   256
178
     2
271
     2
272
     3
274
     4
283
     0
284
     8
288
     1
289
     0
340
11
371
    -1
372
    -1
  0
DIMSTYLE
105
4D0
330
A
100
AcDbSymbolTableRecord
100
AcDbDimStyleTableRecord
  2
AM_ISO$4
 70
     0
  4
"
 41
2.5
 42
1.0
 43
10.0
 44
1.0
 47
0.1
 48
0.1
 73
     0
 77
     1
 78
     8
 79
     2
140
3.5
141
0.0
143
0.0393701
146
0.71
147
1.5
176
   256
177
   256
178
     2
271
     2
272
     3
274
     4
283
     0
284
     8
288
     1
289
     0
340
11
371
    -1
372
    -1
  0
DIMSTYLE
105
4D1
330
A
100
AcDbSymbolTableRecord
100
AcDbDimStyleTableRecord
  2
AM_ISO$6
 70
     0
  4
"
 41
2.5
 42
1.0
 43
10.0
 44
1.0
 47
0.1
 48
0.1
 73
     0
 74
     0
 78
     8
 79
     2
140
3.5
141
0.0
143
0.0393701
146
0.71
147
1.5
172
     1
176
   256
177
   256
178
     2
271
     2
272
     3
274
     4
283
     0
284
     8
340
11
371
    -1
372
    -1
  0
DIMSTYLE
105
4D2
330
A
100
AcDbSymbolTableRecord
100
AcDbDimStyleTableRecord
  2
AM_ISO$7
 70
     0
  4
"
 41
2.5
 42
1.0
 43
10.0
 44
1.0
 47
0.1
 48
0.1
 73
     0
 74
     0
 77
     1
 78
     8
 79
     2
140
5.0
141
0.0
143
0.0393701
146
0.71
147
1.5
172
     1
176
   256
177
   256
178
     2
271
     2
272
     3
274
     4
283
     0
284
     8
340
11
371
    -1
372
    -1
  0
DIMSTYLE
105
4D3
330
A
100
AcDbSymbolTableRecord
100
AcDbDimStyleTableRecord
  2
AM_ISO$SF
 70
     0
  4
"
 41
2.5
 42
1.0
 43
10.0
 44
1.0
 47
0.1
 48
0.1
 73
     0
 74
     0
 75
     1
 76
     1
 77
     1
 78
     8
 79
     2
140
3.5
141
0.0
143
0.0393701
146
0.71
147
1.5
172
     1
176
   256
177
   256
178
     2
271
     2
272
     3
274
     4
283
     0
284
     8
340
11
371
    -1
372
    -1
  0
DIMSTYLE
105
4D8
330
A
100
AcDbSymbolTableRecord
100
AcDbDimStyleTableRecord
  2
AM_ISO$SH
 70
     0
  4
"
 41
2.5
 42
1.0
 43
10.0
 44
1.0
 47
0.1
 48
0.1
 73
     0
 74
     0
 75
     1
 76
     1
 77
     1
 78
     8
 79
     2
140
3.5
141
0.0
143
0.0393701
144
2.0
146
0.71
147
1.5
172
     1
173
     1
176
   256
177
   256
178
     2
271
     2
272
     3
274
     4
283
     0
284
     8
340
11
343
4D4
371
    -1
372
    -1
  0
ENDTAB
  0
TABLE
  2
BLOCK_RECORD
  5
1
330
0
100
AcDbSymbolTable
 70
     3
  0
BLOCK_RECORD
  5
1F
102
{ACAD_XDICTIONARY
360
4DB
102
}
330
1
100
AcDbSymbolTableRecord
100
AcDbBlockTableRecord
  2
*Model_Space
340
22
  0
BLOCK_RECORD
  5
1B
330
1
100
AcDbSymbolTableRecord
100
AcDbBlockTableRecord
  2
*Paper_Space
340
1E
  0
BLOCK_RECORD
  5
23
330
1
100
AcDbSymbolTableRecord
100
AcDbBlockTableRecord
  2
*Paper_Space0
340
26
  0
BLOCK_RECORD
  5
496
330
1
100
AcDbSymbolTableRecord
100
AcDbBlockTableRecord
  2
*U1
340
0
  0
BLOCK_RECORD
  5
4D4
330
1
100
AcDbSymbolTableRecord
100
AcDbBlockTableRecord
  2
GENAXEH
340
0
  0
ENDTAB
  0
ENDSEC
  0
SECTION
  2
BLOCKS
  0
BLOCK
  5
20
330
1F
100
AcDbEntity
  8
0
100
AcDbBlockBegin
  2
*Model_Space
 70
     0
 10
0.0
 20
0.0
 30
0.0
  3
*Model_Space
  1

  0
ENDBLK
  5
21
330
1F
100
AcDbEntity
  8
0
100
AcDbBlockEnd
  0
BLOCK
  5
1C
330
1B
100
AcDbEntity
 67
     1
  8
0
100
AcDbBlockBegin
  2
*Paper_Space
 70
     0
 10
0.0
 20
0.0
 30
0.0
  3
*Paper_Space
  1

  0
ENDBLK
  5
1D
330
1B
100
AcDbEntity
 67
     1
  8
0
100
AcDbBlockEnd
  0
BLOCK
  5
24
330
23
100
AcDbEntity
  8
0
100
AcDbBlockBegin
  2
*Paper_Space0
 70
     0
 10
0.0
 20
0.0
 30
0.0
  3
*Paper_Space0
  1

  0
ENDBLK
  5
25
330
23
100
AcDbEntity
  8
0
100
AcDbBlockEnd
  0
BLOCK
  5
497
330
496
100
AcDbEntity
  8
0
100
AcDbBlockBegin
  2
*U1
 70
     1
 10
0.0
 20
0.0
 30
0.0
  3
*U1
  1

  0
ENDBLK
  5
498
330
496
100
AcDbEntity
  8
0
100
AcDbBlockEnd
  0
BLOCK
  5
4D6
330
4D4
100
AcDbEntity
  8
0
100
AcDbBlockBegin
  2
GENAXEH
 70
     0
 10
0.0
 20
0.0
 30
0.0
  3
GENAXEH
  1

  0
LINE
  5
4D5
330
4D4
100
AcDbEntity
  8
0
100
AcDbLine
 10
-1.0
 20
0.0
 30
0.0
 11
1.0
 21
0.0
 31
0.0
  0
ENDBLK
  5
4D7
330
4D4
100
AcDbEntity
  8
0
100
AcDbBlockEnd
  0
ENDSEC
  0
SECTION
  2
ENTITIES
  0
SPLINE
  5
73
330
1F
100
AcDbEntity
  8
0
  6
Continuous
 62
     7
370
    15
100
AcDbSpline
210
0.0
220
0.0
230
1.0
 70
     8
 71
     3
 72
    29
 73
    25
 74
     0
 42
0.0000000001
 43
0.0000000001
 40
0.0
 40
0.0
 40
0.0
 40
0.0
 40
0.0531844499275053
 40
0.0750209580219158
 40
0.1113937132335814
 40
0.1495221674011856
 40
0.1907683832333835
 40
0.2341956034604756
 40
0.2793913173015681
 40
0.326002292082857
 40
0.3737504012124317
 40
0.4224123420807972
 40
0.4718089570806429
 40
0.5217986157857549
 40
0.5722706358472898
 40
0.6231394318676586
 40
0.6743418798647127
 40
0.7258304549354722
 40
0.7775737878999526
 40
0.8295523682741061
 40
0.8817587988075795
 40
0.9341971488426141
 40
0.9868835878476271
 40
1.0
 40
1.0
 40
1.0
 40
1.0
 10
268.019879768552
 20
223.450027980289
 30
0.0
 10
267.6377015038748
 20
223.7236063637898
 30
0.0
 10
267.0986082239721
 20
224.1095107484791
 30
0.0
 10
266.2467958379215
 20
224.602231759282
 30
0.0
 10
265.489269322531
 20
224.9902991433163
 30
0.0
 10
264.5477641561498
 20
225.3900947261384
 30
0.0
 10
263.5199115210824
 20
225.7385259662571
 30
0.0
 10
262.4067251866689
 20
226.0187621369653
 30
0.0
 10
261.227089369185
 20
226.2124953966047
 30
0.0
 10
259.996908940912
 20
226.3060576084269
 30
0.0
 10
258.7325653011972
 20
226.2891359054059
 30
0.0
 10
257.4504621769107
 20
226.1545057414488
 30
0.0
 10
256.1668581073484
 20
225.8977702268113
 30
0.0
 10
254.8976676731957
 20
225.5169950500445
 30
0.0
 10
253.658261869271
 20
225.0125383753128
 30
0.0
 10
252.4633179327005
 20
224.3867502947437
 30
0.0
 10
251.3267562704588
 20
223.6436749671109
 30
0.0
 10
250.2616415009597
 20
222.7889804396301
 30
0.0
 10
249.279852547155
 20
221.8297111987451
 30
0.0
 10
248.3934556626642
 20
220.7737458252196
 30
0.0
 10
247.6089773758933
 20
219.631418873947
 30
0.0
 10
246.9489873340667
 20
218.4084088146475
 30
0.0
 10
246.5165507532229
 20
217.453557919627
 30
0.0
 10
246.3487938230733
 20
216.8971514948822
 30
0.0
 10
246.3153550130741
 20
216.7862435955615
 30
0.0
  0
SPLINE
  5
74
330
1F
100
AcDbEntity
  8
0
  6
Continuous
 62
     7
370
    15
100
AcDbSpline
210
0.0
220
0.0
230
1.0
 70
     8
 71
     3
 72
    16
 73
    12
 74
     0
 42
0.0000000001
 43
0.0000000001
 40
0.0
 40
0.0
 40
0.0
 40
0.0
 40
0.0222517259659285
 40
0.1575912633803907
 40
0.2922653631180701
 40
0.4256471352773283
 40
0.5561687135627328
 40
0.6787970733236667
 40
0.7739327795413446
 40
0.8580764372671506
 40
1.0
 40
1.0
 40
1.0
 40
1.0
 10
273.1665210527793
 20
215.5599078316303
 30
0.0
 10
273.152472083465
 20
215.6297856147471
 30
0.0
 10
273.0529744163256
 20
216.1246743321648
 30
0.0
 10
272.7550370341408
 20
217.0157931738819
 30
0.0
 10
272.2717942109468
 20
218.2142939470611
 30
0.0
 10
271.6770061124992
 20
219.3464710349002
 30
0.0
 10
271.0059191109341
 20
220.3883680286906
 30
0.0
 10
270.3217578597817
 20
221.2712373479999
 30
0.0
 10
269.6728577762001
 20
221.9886774483391
 30
0.0
 10
268.9400840404297
 20
222.7121148530057
 30
0.0
 10
268.3747763438798
 20
223.1654359068052
 30
0.0
 10
268.019879768552
 20
223.450027980289
 30
0.0
  0
ARC
  5
75
330
1F
100
AcDbEntity
  8
0
  6
Continuous
 62
     7
370
    15
100
AcDbCircle
 10
250.0901099332293
 20
215.503014881331
 30
0.0
 40
4.000010828629942
100
AcDbArc
 50
161.2182062745833
 51
213.0937458674786
  0
ARC
  5
76
330
1F
100
AcDbEntity
  8
0
  6
Continuous
 62
     7
370
    15
100
AcDbCircle
 10
269.2870156341756
 20
214.6201350634222
 30
0.0
 40
4.000016892089925
100
AcDbArc
 50
321.6244736378427
 51
13.59699940151235
  0
ARC
  5
77
330
1F
100
AcDbEntity
  8
0
  6
Continuous
 62
     7
370
    15
100
AcDbCircle
 10
247.492672644038
 20
145.7784355307136
 30
0.0
 40
5.000000000000014
100
AcDbArc
 50
177.3667810223071
 51
267.3667810223077
  0
ARC
  5
78
330
1F
100
AcDbEntity
  8
0
  6
Continuous
 62
     7
370
    15
100
AcDbCircle
 10
265.4736664677071
 20
144.9514765757649
 30
0.0
 40
5.000000000000042
100
AcDbArc
 50
267.3667810223083
 51
357.3667810223077
  0
ARC
  5
79
330
1F
100
AcDbEntity
  8
0
  6
Continuous
 62
     7
370
    15
100
AcDbCircle
 10
248.4216134518368
 20
187.7433706945587
 30
0.0
 40
3.999999999999992
100
AcDbArc
 50
138.1653853747003
 51
177.3667810223072
  0
ARC
  5
7A
330
1F
100
AcDbEntity
  8
0
  6
Continuous
 62
     7
370
    15
100
AcDbCircle
 10
268.4004954781359
 20
186.8245274112823
 30
0.0
 40
4.000000000000026
100
AcDbArc
 50
357.366781022308
 51
36.56817666991332
  0
ARC
  5
7B
330
1F
100
AcDbEntity
  8
0
  6
Continuous
 62
     7
370
    15
100
AcDbCircle
 10
268.0381391024279
 20
178.9456263913667
 30
0.0
 40
4.000000000000023
100
AcDbArc
 50
318.1653853747003
 51
357.3667810223077
  0
ARC
  5
7C
330
1F
100
AcDbEntity
  8
0
  6
Continuous
 62
     7
370
    15
100
AcDbCircle
 10
248.0592570761287
 20
179.8644696746431
 30
0.0
 40
3.999999999999997
100
AcDbArc
 50
177.3667810223068
 51
216.5681766699149
  0
ARC
  5
7D
330
1F
100
AcDbEntity
  8
0
  6
Continuous
 62
     7
370
    15
100
AcDbCircle
 10
267.2111801474791
 20
160.9646325676975
 30
0.0
 40
4.000000000000058
100
AcDbArc
 50
318.1653853747002
 51
357.366781022308
  0
ARC
  5
7E
330
1F
100
AcDbEntity
  8
0
  6
Continuous
 62
     7
370
    15
100
AcDbCircle
 10
247.23229812118
 20
161.8834758509739
 30
0.0
 40
4.000000000000023
100
AcDbArc
 50
177.3667810223064
 51
216.5681766699149
  0
LINE
  5
7F
330
1F
100
AcDbEntity
  8
0
  6
Continuous
 62
     7
370
    15
100
AcDbLine
 10
244.4258374822751
 20
187.927142359695
 30
0.0
 11
244.0634803575889
 21
180.0482353348346
 31
0.0
  0
LINE
  5
80
330
1F
100
AcDbEntity
  8
0
  6
Continuous
 62
     7
370
    15
100
AcDbLine
 10
272.0339173180477
 20
178.7618553418727
 30
0.0
 11
272.3962725800888
 21
186.6407623667331
 31
0.0
  0
LINE
  5
81
330
1F
100
AcDbEntity
  8
0
  6
Continuous
 62
     7
370
    15
100
AcDbLine
 10
242.7719184858219
 20
151.9651493210406
 30
0.0
 11
242.4979513240472
 21
146.0081493634791
 31
0.0
  0
LINE
  5
82
330
1F
100
AcDbEntity
  8
0
  6
Continuous
 62
     7
370
    15
100
AcDbLine
 10
270.4683864218608
 20
144.7217693705173
 30
0.0
 11
270.7423554462806
 21
150.6787693280787
 31
0.0
  0
ARC
  5
83
330
1F
100
AcDbEntity
  8
0
  6
Continuous
 62
     7
370
    15
100
AcDbCircle
 10
247.5946544968881
 20
169.7623768708895
 30
0.0
 40
4.000000000000015
100
AcDbArc
 50
138.1653853746989
 51
177.3667810223064
  0
ARC
  5
84
330
1F
100
AcDbEntity
  8
0
  6
Continuous
 62
     7
370
    15
100
AcDbCircle
 10
267.5735365231872
 20
168.8435335876131
 30
0.0
 40
4.000000000000023
100
AcDbArc
 50
357.3667810223077
 51
36.5681766699138
  0
LINE
  5
85
330
1F
100
AcDbEntity
  8
0
  6
Continuous
 62
     7
370
    15
100
AcDbLine
 10
245.2511978996412
 20
205.8733781952472
 30
0.0
 11
244.890438924493
 21
198.029235579452
 31
0.0
  0
LINE
  5
86
330
1F
100
AcDbEntity
  8
0
  6
Continuous
 62
     7
370
    15
100
AcDbLine
 10
272.8608758849517
 20
196.7428481359096
 30
0.0
 11
273.2216329974548
 21
204.5870056528659
 31
0.0
  0
LINE
  5
87
330
1F
100
AcDbEntity
  8
0
  6
Continuous
 62
     7
370
    15
100
AcDbLine
 10
243.5988789153711
 20
169.9461421150775
 30
0.0
 11
243.2365217906848
 21
162.0672425407977
 31
0.0
  0
LINE
  5
88
330
1F
100
AcDbEntity
  8
0
  6
Continuous
 62
     7
370
    15
100
AcDbLine
 10
271.2069550258533
 20
160.7808625478358
 30
0.0
 11
271.5693140131847
 21
168.6597621221156
 31
0.0
  0
ARC
  5
89
330
1F
100
AcDbEntity
  8
0
  6
Continuous
 62
     7
370
    15
100
AcDbCircle
 10
246.7676955419393
 20
151.7813830472203
 30
0.0
 40
4.000000000000018
100
AcDbArc
 50
138.1653853746994
 51
177.3667810223064
  0
ARC
  5
8A
330
1F
100
AcDbEntity
  8
0
  6
Continuous
 62
     7
370
    15
100
AcDbCircle
 10
266.7465775682384
 20
150.8625397639439
 30
0.0
 40
4.000000000000026
100
AcDbArc
 50
357.366781022308
 51
36.56817666991332
  0
ARC
  5
8B
330
1F
100
AcDbEntity
  8
0
  6
Continuous
 62
     7
370
    15
100
AcDbCircle
 10
269.2258562221188
 20
204.7707705120363
 30
0.0
 40
3.999999999999983
100
AcDbArc
 50
357.3747743457815
 51
37.67052807686692
  0
ARC
  5
8C
330
1F
100
AcDbEntity
  8
0
  6
Continuous
 62
     7
370
    15
100
AcDbCircle
 10
249.2469414830601
 20
205.6896236393564
 30
0.0
 40
3.999961763158468
100
AcDbArc
 50
137.0703630255007
 51
177.3603342070668
  0
ARC
  5
8D
330
1F
100
AcDbEntity
  8
0
  6
Continuous
 62
     7
370
    15
100
AcDbCircle
 10
268.8650980573766
 20
196.9266202150359
 30
0.0
 40
3.999999999999966
100
AcDbArc
 50
318.1653853747004
 51
357.3667810223076
  0
ARC
  5
8E
330
1F
100
AcDbEntity
  8
0
  6
Continuous
 62
     7
370
    15
100
AcDbCircle
 10
248.8862160310775
 20
197.8454634983123
 30
0.0
 40
3.999999999999992
100
AcDbArc
 50
177.3667810223072
 51
216.5681766699146
  0
ARC
  5
8F
330
1F
100
AcDbEntity
  8
0
  6
Continuous
 62
     7
370
    15
100
AcDbCircle
 10
275.5608060958245
 20
209.6562891466802
 30
0.0
 40
4.000014941256154
100
AcDbArc
 50
141.6548769103598
 51
217.6478741295894
  0
ARC
  5
90
330
1F
100
AcDbEntity
  8
0
  6
Continuous
 62
     7
370
    15
100
AcDbCircle
 10
243.3872216426145
 20
211.1359845466243
 30
0.0
 40
4.000003778398343
100
AcDbArc
 50
317.0519792136003
 51
33.08247178892476
  0
ARC
  5
91
330
1F
100
AcDbEntity
  8
0
  6
Continuous
 62
     7
370
    15
100
AcDbCircle
 10
274.8256835396432
 20
191.5907584562763
 30
0.0
 40
4.00000000000002
100
AcDbArc
 50
138.1653853747
 51
216.5681766699151
  0
ARC
  5
92
330
1F
100
AcDbEntity
  8
0
  6
Continuous
 62
     7
370
    15
100
AcDbCircle
 10
242.4610279695702
 20
193.0792324533183
 30
0.0
 40
4.000000000000003
100
AcDbArc
 50
318.1653853747005
 51
36.56817666991356
  0
ARC
  5
93
330
1F
100
AcDbEntity
  8
0
  6
Continuous
 62
     7
370
    15
100
AcDbCircle
 10
273.1717656297457
 20
155.628770808938
 30
0.0
 40
4.00000000000006
100
AcDbArc
 50
138.1653853747006
 51
216.5681766699147
  0
ARC
  5
94
330
1F
100
AcDbEntity
  8
0
  6
Continuous
 62
     7
370
    15
100
AcDbCircle
 10
240.8071100596727
 20
157.1172448059799
 30
0.0
 40
4.000000000000003
100
AcDbArc
 50
318.1653853747005
 51
36.56817666991356
  0
ARC
  5
95
330
1F
100
AcDbEntity
  8
0
  6
Continuous
 62
     7
370
    15
100
AcDbCircle
 10
273.9987245846945
 20
173.6097646326071
 30
0.0
 40
4.00000000000006
100
AcDbArc
 50
138.1653853747
 51
216.5681766699147
  0
ARC
  5
96
330
1F
100
AcDbEntity
  8
0
  6
Continuous
 62
     7
370
    15
100
AcDbCircle
 10
241.6340690146215
 20
175.0982386296491
 30
0.0
 40
4.000000000000003
100
AcDbArc
 50
318.1653853747005
 51
36.56817666991356
  0
LINE
  5
97
330
1F
100
AcDbEntity
  8
0
  6
Continuous
 62
     7
370
    15
100
AcDbLine
 10
150.3021890026943
 20
113.2397545654387
 30
0.0
 11
135.3021884066478
 21
113.2397545654387
 31
0.0
  0
LINE
  5
98
330
1F
100
AcDbEntity
  8
0
  6
Continuous
 62
     7
370
    15
100
AcDbLine
 10
135.3021884066478
 20
105.2397551167817
 30
0.0
 11
150.3021890026943
 21
105.2397551167817
 31
0.0
  0
LINE
  5
99
330
1F
100
AcDbEntity
  8
0
  6
Continuous
 62
     7
370
    15
100
AcDbLine
 10
129.8021921617404
 20
102.7397556383224
 30
0.0
 11
130.071627507867
 21
101.7342010665746
 31
0.0
  0
LINE
  5
9A
330
1F
100
AcDbEntity
  8
0
  6
Continuous
 62
     7
370
    15
100
AcDbLine
 10
130.071627507867
 20
116.7453086156459
 30
0.0
 11
129.8021921617404
 21
115.7397559065433
 31
0.0
  0
LINE
  5
9B
330
1F
100
AcDbEntity
  8
0
  6
Continuous
 62
     7
370
    15
100
AcDbLine
 10
150.5716243488208
 20
116.7453086156459
 30
0.0
 11
150.3021890026943
 21
115.7397559065433
 31
0.0
  0
LINE
  5
9C
330
1F
100
AcDbEntity
  8
0
  6
Continuous
 62
     7
370
    15
100
AcDbLine
 10
155.3021916849033
 20
115.7397559065433
 30
0.0
 11
155.0327563387767
 21
116.7453086156459
 31
0.0
  0
LINE
  5
9D
330
1F
100
AcDbEntity
  8
0
  6
Continuous
 62
     7
370
    15
100
AcDbLine
 10
155.0327563387767
 20
101.7342047918649
 30
0.0
 11
155.3021916849033
 21
102.7397556383224
 31
0.0
  0
LINE
  5
9E
330
1F
100
AcDbEntity
  8
0
  6
Continuous
 62
     7
370
    15
100
AcDbLine
 10
150.3021890026943
 20
102.7397556383224
 30
0.0
 11
150.5716243488208
 21
101.7342029292197
 31
0.0
  0
LINE
  5
9F
330
1F
100
AcDbEntity
  8
0
  6
Continuous
 62
     7
370
    15
100
AcDbLine
 10
196.2928013605491
 20
115.2397548932643
 30
0.0
 11
155.8021926981822
 21
115.2397548932643
 31
0.0
  0
LINE
  5
A0
330
1F
100
AcDbEntity
  8
0
  6
Continuous
 62
     7
370
    15
100
AcDbLine
 10
155.8021926981822
 20
103.2397566516013
 30
0.0
 11
196.2928013605491
 21
103.2397566516013
 31
0.0
  0
LINE
  5
A1
330
1F
100
AcDbEntity
  8
0
  6
Continuous
 62
     7
370
    15
100
AcDbLine
 10
155.8021926981822
 20
115.2397548932643
 30
0.0
 11
155.3021916849033
 21
114.7397576052756
 31
0.0
  0
LINE
  5
A2
330
1F
100
AcDbEntity
  8
0
  6
Continuous
 62
     7
370
    15
100
AcDbLine
 10
155.3021916849033
 20
103.7397558022351
 30
0.0
 11
155.8021926981822
 21
103.2397566516013
 31
0.0
  0
LINE
  5
A3
330
1F
100
AcDbEntity
  8
0
  6
Continuous
 62
     7
370
    15
100
AcDbLine
 10
197.7928006750957
 20
119.1897547025294
 30
0.0
 11
196.2928013605491
 21
117.6897553879828
 31
0.0
  0
LINE
  5
A4
330
1F
100
AcDbEntity
  8
0
  6
Continuous
 62
     7
370
    15
100
AcDbLine
 10
196.2928013605491
 20
100.7897561568828
 30
0.0
 11
197.7928006750957
 21
99.28975497969108
 31
0.0
  0
LINE
  5
A5
330
1F
100
AcDbEntity
  8
0
  6
Continuous
 62
     7
370
    15
100
AcDbLine
 10
208.2928005335347
 20
119.1897547025294
 30
0.0
 11
197.7928006750957
 21
119.1897547025294
 31
0.0
  0
LINE
  5
A6
330
1F
100
AcDbEntity
  8
0
  6
Continuous
 62
     7
370
    15
100
AcDbLine
 10
197.7928006750957
 20
99.28975497969108
 30
0.0
 11
208.2928005335347
 21
99.28975497969108
 31
0.0
  0
LINE
  5
A7
330
1F
100
AcDbEntity
  8
0
  6
Continuous
 62
     7
370
    15
100
AcDbLine
 10
228.2928010178224
 20
120.2397575754733
 30
0.0
 11
227.8368301419035
 21
121.9414627332301
 31
0.0
  0
LINE
  5
A8
330
1F
100
AcDbEntity
  8
0
  6
Continuous
 62
     7
370
    15
100
AcDbLine
 10
212.2928007235245
 20
98.2397558320375
 30
0.0
 11
212.748771133782
 21
96.5380506742807
 31
0.0
  0
LINE
  5
A9
330
1F
100
AcDbEntity
  8
0
  6
Continuous
 62
     7
370
    15
100
AcDbLine
 10
227.8368301419035
 20
96.5380506742807
 30
0.0
 11
228.1068037924782
 21
97.54560572691875
 31
0.0
  0
LINE
  5
AA
330
1F
100
AcDbEntity
  8
0
  6
Continuous
 62
     7
370
    15
100
AcDbLine
 10
212.748771133782
 20
121.9414627332301
 30
0.0
 11
212.2928007235245
 21
120.2397575754733
 31
0.0
  0
LINE
  5
AB
330
1F
100
AcDbEntity
  8
0
  6
Continuous
 62
     7
370
    15
100
AcDbLine
 10
212.2928007235245
 20
125.239756532392
 30
0.0
 11
208.2928005335347
 21
125.239756532392
 31
0.0
  0
SPLINE
  5
AC
330
1F
100
AcDbEntity
  8
0
  6
Continuous
 62
     7
370
    15
100
AcDbSpline
210
0.0
220
0.0
230
1.0
 70
     8
 71
     3
 72
    16
 73
    12
 74
     0
 42
0.0000000001
 43
0.0000000001
 40
0.0
 40
0.0
 40
0.0
 40
0.0
 40
0.1164968161190661
 40
0.239971672348375
 40
0.3043770266725146
 40
0.3687451118992455
 40
0.5000825351749062
 40
0.6314201190065846
 40
0.7600283310113035
 40
0.8835032058869213
 40
1.0
 40
1.0
 40
1.0
 40
1.0
 10
256.2534572286025
 20
140.3702354211421
 30
0.0
 10
256.8017539867369
 20
140.3450200629714
 30
0.0
 10
257.9311899179149
 20
140.2930789724706
 30
0.0
 10
259.3155757390313
 20
140.229404772913
 30
0.0
 10
260.3962581130529
 20
140.1797045009451
 30
0.0
 10
261.4536054720025
 20
140.1310789595051
 30
0.0
 10
262.6559024530752
 20
140.0757783357628
 30
0.0
 10
263.8250222557209
 20
140.0220169275747
 30
0.0
 10
264.6545216542592
 20
139.9838619965664
 30
0.0
 10
265.1547007239191
 20
139.9608583859742
 30
0.0
 10
265.2147875589823
 20
139.9580980397244
 30
0.0
 10
265.2439573509113
 20
139.9567580003352
 30
0.0
  0
SPLINE
  5
AD
330
1F
100
AcDbEntity
  8
0
  6
Continuous
 62
     7
370
    15
100
AcDbSpline
210
0.0
220
0.0
230
1.0
 70
     8
 71
     3
 72
    16
 73
    12
 74
     0
 42
0.0000000001
 43
0.0000000001
 40
0.0
 40
0.0
 40
0.0
 40
0.0
 40
0.1164967940344906
 40
0.2399717307763381
 40
0.3043770619874648
 40
0.3687450942622374
 40
0.5000826220523232
 40
0.6314201746985843
 40
0.7600282873627329
 40
0.8835034223866461
 40
1.0
 40
1.0
 40
1.0
 40
1.0
 10
247.2629626942293
 20
140.783712841949
 30
0.0
 10
247.2919928908566
 20
140.7823790553659
 30
0.0
 10
247.3517921890877
 20
140.7796315885581
 30
0.0
 10
247.766714434141
 20
140.7605503451183
 30
0.0
 10
248.2565599013521
 20
140.738016679697
 30
0.0
 10
248.8747307118709
 20
140.7095874873383
 30
0.0
 10
249.850931202542
 20
140.6646958003996
 30
0.0
 10
251.2887208031093
 20
140.5985646282565
 30
0.0
 10
252.8999754394588
 20
140.5244673297754
 30
0.0
 10
254.5755775688989
 20
140.4473988542802
 30
0.0
 10
255.7051132570669
 20
140.3954530242875
 30
0.0
 10
256.2534572286025
 20
140.3702354211421
 30
0.0
  0
LINE
  5
AE
330
1F
100
AcDbEntity
  8
0
  6
Continuous
 62
     7
370
    15
100
AcDbLine
 10
129.8021921617404
 20
109.239757635078
 30
0.0
 11
129.8021921617404
 21
103.6094674993367
 31
0.0
  0
SPLINE
  5
AF
330
1F
100
AcDbEntity
  8
0
  6
Continuous
 62
     7
370
    15
100
AcDbSpline
210
0.0
220
0.0
230
1.0
 70
     8
 71
     3
 72
     9
 73
     5
 74
     0
 42
0.0000000001
 43
0.0000000001
 40
0.0
 40
0.0
 40
0.0
 40
0.0
 40
0.4987910648950509
 40
0.9999999999999998
 40
0.9999999999999998
 40
0.9999999999999998
 40
0.9999999999999998
 10
129.8021921617404
 20
109.239757635078
 30
0.0
 10
129.8154022752686
 20
108.6135411600314
 30
0.0
 10
129.8418865378342
 20
107.3580726500285
 30
0.0
 10
129.9949238430756
 20
106.1116797933012
 30
0.0
 10
130.071627507867
 20
105.4869765568585
 30
0.0
  0
SPLINE
  5
B0
330
1F
100
AcDbEntity
  8
0
  6
Continuous
 62
     7
370
    15
100
AcDbSpline
210
0.0
220
0.0
230
1.0
 70
     8
 71
     3
 72
     9
 73
     5
 74
     0
 42
0.0000000001
 43
0.0000000001
 40
0.0
 40
0.0
 40
0.0
 40
0.0
 40
0.4989616224405678
 40
0.9999999999999998
 40
0.9999999999999998
 40
0.9999999999999998
 40
0.9999999999999998
 10
130.071627507867
 20
105.4869765568585
 30
0.0
 10
129.9951897479429
 20
105.1758441214413
 30
0.0
 10
129.8419960823655
 20
104.5522842694923
 30
0.0
 10
129.8154784921292
 20
103.9241745660692
 30
0.0
 10
129.8021921617404
 20
103.6094674993367
 30
0.0
  0
SPLINE
  5
B1
330
1F
100
AcDbEntity
  8
0
  6
Continuous
 62
     7
370
    15
100
AcDbSpline
210
0.0
220
0.0
230
1.0
 70
     8
 71
     3
 72
     9
 73
     5
 74
     0
 42
0.0000000001
 43
0.0000000001
 40
0.0
 40
0.0
 40
0.0
 40
0.0
 40
0.4989634395571119
 40
1.0
 40
1.0
 40
1.0
 40
1.0
 10
130.071627507867
 20
112.9925294000716
 30
0.0
 10
129.9952306744691
 20
112.3706339351205
 30
0.0
 10
129.8421195898861
 20
111.1242591195565
 30
0.0
 10
129.815519686061
 20
109.8687923746809
 30
0.0
 10
129.8021921617404
 20
109.239757635078
 30
0.0
  0
SPLINE
  5
B2
330
1F
100
AcDbEntity
  8
0
  6
Continuous
 62
     7
370
    15
100
AcDbSpline
210
0.0
220
0.0
230
1.0
 70
     8
 71
     3
 72
     9
 73
     5
 74
     0
 42
0.0000000001
 43
0.0000000001
 40
0.0
 40
0.0
 40
0.0
 40
0.0
 40
0.4987939050954455
 40
1.0
 40
1.0
 40
1.0
 40
1.0
 10
129.8021921617404
 20
114.866700597486
 30
0.0
 10
129.8154838540134
 20
114.5539619466918
 30
0.0
 10
129.8421315177824
 20
113.9269722268908
 30
0.0
 10
129.9950059238107
 20
113.3045108406821
 30
0.0
 10
130.071627507867
 20
112.9925294000716
 30
0.0
  0
LINE
  5
B3
330
1F
100
AcDbEntity
  8
0
  6
Continuous
 62
     7
370
    15
100
AcDbLine
 10
129.8021921617404
 20
114.866700597486
 30
0.0
 11
129.8021921617404
 21
109.239757635078
 31
0.0
  0
LINE
  5
B4
330
1F
100
AcDbEntity
  8
0
  6
Continuous
 62
     7
370
    15
100
AcDbLine
 10
135.3021884066478
 20
112.9925294000716
 30
0.0
 11
130.071627507867
 21
112.9925294000716
 31
0.0
  0
LINE
  5
B5
330
1F
100
AcDbEntity
  8
0
  6
Continuous
 62
     7
370
    15
100
AcDbLine
 10
135.3021884066478
 20
112.9925294000716
 30
0.0
 11
135.3021884066478
 21
105.4869765568585
 31
0.0
  0
LINE
  5
B6
330
1F
100
AcDbEntity
  8
0
  6
Continuous
 62
     7
370
    15
100
AcDbLine
 10
135.3021884066478
 20
105.4869765568585
 30
0.0
 11
130.071627507867
 21
105.4869765568585
 31
0.0
  0
SPLINE
  5
B7
330
1F
100
AcDbEntity
  8
0
  6
Continuous
 62
     7
370
    15
100
AcDbSpline
210
0.0
220
0.0
230
1.0
 70
     8
 71
     3
 72
     9
 73
     5
 74
     0
 42
0.0000000001
 43
0.0000000001
 40
0.0
 40
0.0
 40
0.0
 40
0.0
 40
0.498966309197105
 40
1.0
 40
1.0
 40
1.0
 40
1.0
 10
130.071627507867
 20
116.7453086156459
 30
0.0
 10
129.9953125259502
 20
116.4347252301086
 30
0.0
 10
129.8423663640347
 20
115.8122716098689
 30
0.0
 10
129.815602006552
 20
115.1852808918031
 30
0.0
 10
129.8021921617404
 20
114.8711374182315
 30
0.0
  0
LINE
  5
B8
330
1F
100
AcDbEntity
  8
0
  6
Continuous
 62
     7
370
    15
100
AcDbLine
 10
135.3021884066478
 20
116.7453086156459
 30
0.0
 11
130.071627507867
 21
116.7453086156459
 31
0.0
  0
LINE
  5
B9
330
1F
100
AcDbEntity
  8
0
  6
Continuous
 62
     7
370
    15
100
AcDbLine
 10
135.3021884066478
 20
116.7453086156459
 30
0.0
 11
135.3021884066478
 21
112.9925294000716
 31
0.0
  0
LINE
  5
BA
330
1F
100
AcDbEntity
  8
0
  6
Continuous
 62
     7
370
    15
100
AcDbLine
 10
129.8021921617404
 20
114.866700597486
 30
0.0
 11
129.8021921617404
 21
114.8711374182315
 31
0.0
  0
LINE
  5
BB
330
1F
100
AcDbEntity
  8
0
  6
Continuous
 62
     7
370
    15
100
AcDbLine
 10
135.3021884066478
 20
101.7342010665746
 30
0.0
 11
130.071627507867
 21
101.7342010665746
 31
0.0
  0
SPLINE
  5
BC
330
1F
100
AcDbEntity
  8
0
  6
Continuous
 62
     7
370
    15
100
AcDbSpline
210
0.0
220
0.0
230
1.0
 70
     8
 71
     3
 72
     9
 73
     5
 74
     0
 42
0.0000000001
 43
0.0000000001
 40
0.0
 40
0.0
 40
0.0
 40
0.0
 40
0.4987925861601565
 40
1.0
 40
1.0
 40
1.0
 40
1.0
 10
129.8021921617404
 20
103.6094674993367
 30
0.0
 10
129.8154430558017
 20
103.2965456819605
 30
0.0
 10
129.8420089960923
 20
102.6691870843014
 30
0.0
 10
129.9949648832388
 20
102.0463644089621
 30
0.0
 10
130.071627507867
 20
101.7342010665746
 30
0.0
  0
LINE
  5
BD
330
1F
100
AcDbEntity
  8
0
  6
Continuous
 62
     7
370
    15
100
AcDbLine
 10
135.3021884066478
 20
105.4869765568585
 30
0.0
 11
135.3021884066478
 21
101.7342010665746
 31
0.0
  0
LINE
  5
BE
330
1F
100
AcDbEntity
  8
0
  6
Continuous
 62
     7
370
    15
100
AcDbLine
 10
129.8021921617404
 20
103.6094674993367
 30
0.0
 11
129.8021921617404
 21
102.7397556383224
 31
0.0
  0
LINE
  5
BF
330
1F
100
AcDbEntity
  8
0
  6
Continuous
 62
     7
370
    15
100
AcDbLine
 10
129.8021921617404
 20
115.7397559065433
 30
0.0
 11
129.8021921617404
 21
114.8711374182315
 31
0.0
  0
LINE
  5
C0
330
1F
100
AcDbEntity
  8
0
  6
Continuous
 62
     7
370
    15
100
AcDbLine
 10
155.0327563387767
 20
105.4869802821488
 30
0.0
 11
150.5716243488208
 21
105.4869802821488
 31
0.0
  0
SPLINE
  5
C1
330
1F
100
AcDbEntity
  8
0
  6
Continuous
 62
     7
370
    15
100
AcDbSpline
210
0.0
220
0.0
230
1.0
 70
     8
 71
     3
 72
     9
 73
     5
 74
     0
 42
0.0000000001
 43
0.0000000001
 40
0.0
 40
0.0
 40
0.0
 40
0.0
 40
0.4989660535872205
 40
1.0
 40
1.0
 40
1.0
 40
1.0
 10
150.5716243488208
 20
105.4869802821488
 30
0.0
 10
150.4953130863449
 20
106.1081448856765
 30
0.0
 10
150.342374300375
 20
107.3530484198186
 30
0.0
 10
150.3156025556208
 20
108.6070298329118
 30
0.0
 10
150.3021890026943
 20
109.2353170890422
 30
0.0
  0
LINE
  5
C2
330
1F
100
AcDbEntity
  8
0
  6
Continuous
 62
     7
370
    15
100
AcDbLine
 10
150.3021890026943
 20
109.2441944558234
 30
0.0
 11
150.3021890026943
 21
109.2353170890422
 31
0.0
  0
SPLINE
  5
C3
330
1F
100
AcDbEntity
  8
0
  6
Continuous
 62
     7
370
    15
100
AcDbSpline
210
0.0
220
0.0
230
1.0
 70
     8
 71
     3
 72
     9
 73
     5
 74
     0
 42
0.0000000001
 43
0.0000000001
 40
0.0
 40
0.0
 40
0.0
 40
0.0
 40
0.4987946832917001
 40
0.9999999999999998
 40
0.9999999999999998
 40
0.9999999999999998
 40
0.9999999999999998
 10
150.3021890026943
 20
109.2441944558234
 30
0.0
 10
150.315484346922
 20
109.8696734437924
 30
0.0
 10
150.3421392906757
 20
111.1236543079051
 30
0.0
 10
150.495006493843
 20
112.3685731718715
 30
0.0
 10
150.5716243488208
 20
112.9925331253619
 30
0.0
  0
LINE
  5
C4
330
1F
100
AcDbEntity
  8
0
  6
Continuous
 62
     7
370
    15
100
AcDbLine
 10
155.0327563387767
 20
112.9925331253619
 30
0.0
 11
150.5716243488208
 21
112.9925331253619
 31
0.0
  0
SPLINE
  5
C5
330
1F
100
AcDbEntity
  8
0
  6
Continuous
 62
     7
370
    15
100
AcDbSpline
210
0.0
220
0.0
230
1.0
 70
     8
 71
     3
 72
     9
 73
     5
 74
     0
 42
0.0000000001
 43
0.0000000001
 40
0.0
 40
0.0
 40
0.0
 40
0.0
 40
0.4987946832917001
 40
0.9999999999999998
 40
0.9999999999999998
 40
0.9999999999999998
 40
0.9999999999999998
 10
155.3021916849033
 20
109.2441944558234
 30
0.0
 10
155.2888963406755
 20
109.8696734437924
 30
0.0
 10
155.2622413969218
 20
111.1236543079051
 30
0.0
 10
155.1093741937545
 20
112.3685731718715
 30
0.0
 10
155.0327563387767
 20
112.9925331253619
 30
0.0
  0
LINE
  5
C6
330
1F
100
AcDbEntity
  8
0
  6
Continuous
 62
     7
370
    15
100
AcDbLine
 10
155.3021916849033
 20
109.2441944558234
 30
0.0
 11
155.3021916849033
 21
109.2353170890422
 31
0.0
  0
SPLINE
  5
C7
330
1F
100
AcDbEntity
  8
0
  6
Continuous
 62
     7
370
    15
100
AcDbSpline
210
0.0
220
0.0
230
1.0
 70
     8
 71
     3
 72
     9
 73
     5
 74
     0
 42
0.0000000001
 43
0.0000000001
 40
0.0
 40
0.0
 40
0.0
 40
0.0
 40
0.4989660535872205
 40
1.0
 40
1.0
 40
1.0
 40
1.0
 10
155.0327563387767
 20
105.4869802821488
 30
0.0
 10
155.1090676012526
 20
106.1081448856765
 30
0.0
 10
155.2620063872225
 20
107.3530484198186
 30
0.0
 10
155.2887781319767
 20
108.6070298329118
 30
0.0
 10
155.3021916849033
 20
109.2353170890422
 30
0.0
  0
SPLINE
  5
C8
330
1F
100
AcDbEntity
  8
0
  6
Continuous
 62
     7
370
    15
100
AcDbSpline
210
0.0
220
0.0
230
1.0
 70
     8
 71
     3
 72
     9
 73
     5
 74
     0
 42
0.0000000001
 43
0.0000000001
 40
0.0
 40
0.0
 40
0.0
 40
0.0
 40
0.4989629516604426
 40
1.0
 40
1.0
 40
1.0
 40
1.0
 10
150.5716243488208
 20
112.9925331253619
 30
0.0
 10
150.4952312342437
 20
113.3034808562653
 30
0.0
 10
150.3421274530454
 20
113.9266688702623
 30
0.0
 10
150.3155202148061
 20
114.5544028767506
 30
0.0
 10
150.3021890026943
 20
114.8689208705039
 30
0.0
  0
LINE
  5
C9
330
1F
100
AcDbEntity
  8
0
  6
Continuous
 62
     7
370
    15
100
AcDbLine
 10
150.3021890026943
 20
109.2441944558234
 30
0.0
 11
150.3021890026943
 21
114.8689208705039
 31
0.0
  0
SPLINE
  5
CA
330
1F
100
AcDbEntity
  8
0
  6
Continuous
 62
     7
370
    15
100
AcDbSpline
210
0.0
220
0.0
230
1.0
 70
     8
 71
     3
 72
     9
 73
     5
 74
     0
 42
0.0000000001
 43
0.0000000001
 40
0.0
 40
0.0
 40
0.0
 40
0.0
 40
0.4989629516604426
 40
1.0
 40
1.0
 40
1.0
 40
1.0
 10
155.0327563387767
 20
112.9925331253619
 30
0.0
 10
155.1091494533538
 20
113.3034808562653
 30
0.0
 10
155.2622532345521
 20
113.9266688702623
 30
0.0
 10
155.2888604727914
 20
114.5544028767506
 30
0.0
 10
155.3021916849033
 20
114.8689208705039
 30
0.0
  0
LINE
  5
CB
330
1F
100
AcDbEntity
  8
0
  6
Continuous
 62
     7
370
    15
100
AcDbLine
 10
155.3021916849033
 20
114.8689208705039
 30
0.0
 11
155.3021916849033
 21
109.2441944558234
 31
0.0
  0
SPLINE
  5
CC
330
1F
100
AcDbEntity
  8
0
  6
Continuous
 62
     7
370
    15
100
AcDbSpline
210
0.0
220
0.0
230
1.0
 70
     8
 71
     3
 72
     9
 73
     5
 74
     0
 42
0.0000000001
 43
0.0000000001
 40
0.0
 40
0.0
 40
0.0
 40
0.0
 40
0.4987944154917543
 40
1.0
 40
1.0
 40
1.0
 40
1.0
 10
155.3021916849033
 20
103.6128109473796
 30
0.0
 10
155.2888963174952
 20
103.9255505242095
 30
0.0
 10
155.262241312958
 20
104.552541458985
 30
0.0
 10
155.1093741929916
 20
105.1750003898648
 30
0.0
 10
155.0327563387767
 20
105.4869802821488
 30
0.0
  0
LINE
  5
CD
330
1F
100
AcDbEntity
  8
0
  6
Continuous
 62
     7
370
    15
100
AcDbLine
 10
155.3021916849033
 20
109.2353170890422
 30
0.0
 11
155.3021916849033
 21
103.6128109473796
 31
0.0
  0
SPLINE
  5
CE
330
1F
100
AcDbEntity
  8
0
  6
Continuous
 62
     7
370
    15
100
AcDbSpline
210
0.0
220
0.0
230
1.0
 70
     8
 71
     3
 72
     9
 73
     5
 74
     0
 42
0.0000000001
 43
0.0000000001
 40
0.0
 40
0.0
 40
0.0
 40
0.0
 40
0.4987943622926064
 40
1.0
 40
1.0
 40
1.0
 40
1.0
 10
150.3021890026943
 20
103.6128109473796
 30
0.0
 10
150.3154843747072
 20
103.925550540667
 30
0.0
 10
150.3421393913192
 20
104.5525415753089
 30
0.0
 10
150.4950064947575
 20
105.1750004066433
 30
0.0
 10
150.5716243488208
 20
105.4869802821488
 30
0.0
  0
LINE
  5
CF
330
1F
100
AcDbEntity
  8
0
  6
Continuous
 62
     7
370
    15
100
AcDbLine
 10
150.3021890026943
 20
103.6128109473796
 30
0.0
 11
150.3021890026943
 21
109.2353170890422
 31
0.0
  0
LINE
  5
D0
330
1F
100
AcDbEntity
  8
0
  6
Continuous
 62
     7
370
    15
100
AcDbLine
 10
150.5716243488208
 20
101.7342029292197
 30
0.0
 11
155.0327563387767
 21
101.7342029292197
 31
0.0
  0
SPLINE
  5
D1
330
1F
100
AcDbEntity
  8
0
  6
Continuous
 62
     7
370
    15
100
AcDbSpline
210
0.0
220
0.0
230
1.0
 70
     8
 71
     3
 72
     9
 73
     5
 74
     0
 42
0.0000000001
 43
0.0000000001
 40
0.0
 40
0.0
 40
0.0
 40
0.0
 40
0.4989660368335231
 40
1.0
 40
1.0
 40
1.0
 40
1.0
 10
150.5716243488208
 20
101.7342029292197
 30
0.0
 10
150.4953130862974
 20
102.044785624111
 30
0.0
 10
150.3423742950969
 20
102.6672381999661
 30
0.0
 10
150.3156025541579
 20
103.2942287192463
 30
0.0
 10
150.3021890026943
 20
103.608372263989
 30
0.0
  0
SPLINE
  5
D2
330
1F
100
AcDbEntity
  8
0
  6
Continuous
 62
     7
370
    15
100
AcDbSpline
210
0.0
220
0.0
230
1.0
 70
     8
 71
     3
 72
     9
 73
     5
 74
     0
 42
0.0000000001
 43
0.0000000001
 40
0.0
 40
0.0
 40
0.0
 40
0.0
 40
0.4989660570529061
 40
1.0
 40
1.0
 40
1.0
 40
1.0
 10
155.0327563387767
 20
101.7342029292197
 30
0.0
 10
155.1090676012428
 20
102.0447856177908
 30
0.0
 10
155.2620063861307
 20
102.6672381557561
 30
0.0
 10
155.2887781316741
 20
103.294228712935
 30
0.0
 10
155.3021916849033
 20
103.608372263989
 30
0.0
  0
LINE
  5
D3
330
1F
100
AcDbEntity
  8
0
  6
Continuous
 62
     7
370
    15
100
AcDbLine
 10
155.3021916849033
 20
103.6128109473796
 30
0.0
 11
155.3021916849033
 21
103.608372263989
 31
0.0
  0
LINE
  5
D4
330
1F
100
AcDbEntity
  8
0
  6
Continuous
 62
     7
370
    15
100
AcDbLine
 10
150.3021890026943
 20
103.6128109473796
 30
0.0
 11
150.3021890026943
 21
103.608372263989
 31
0.0
  0
SPLINE
  5
D5
330
1F
100
AcDbEntity
  8
0
  6
Continuous
 62
     7
370
    15
100
AcDbSpline
210
0.0
220
0.0
230
1.0
 70
     8
 71
     3
 72
     9
 73
     5
 74
     0
 42
0.0000000001
 43
0.0000000001
 40
0.0
 40
0.0
 40
0.0
 40
0.0
 40
0.498790976756469
 40
1.0
 40
1.0
 40
1.0
 40
1.0
 10
150.3021890026943
 20
114.8689208705039
 30
0.0
 10
150.3153985074691
 20
115.1820293664724
 30
0.0
 10
150.341881554257
 20
115.8097642505405
 30
0.0
 10
150.4949250289412
 20
116.4329581899721
 30
0.0
 10
150.5716317994014
 20
116.7453086156459
 30
0.0
  0
LINE
  5
D6
330
1F
100
AcDbEntity
  8
0
  6
Continuous
 62
     7
370
    15
100
AcDbLine
 10
150.5716317994014
 20
116.7453086156459
 30
0.0
 11
155.0327563387767
 21
116.7453086156459
 31
0.0
  0
SPLINE
  5
D7
330
1F
100
AcDbEntity
  8
0
  6
Continuous
 62
     7
370
    15
100
AcDbSpline
210
0.0
220
0.0
230
1.0
 70
     8
 71
     3
 72
     9
 73
     5
 74
     0
 42
0.0000000001
 43
0.0000000001
 40
0.0
 40
0.0
 40
0.0
 40
0.0
 40
0.4987910696250267
 40
0.9999999999999998
 40
0.9999999999999998
 40
0.9999999999999998
 40
0.9999999999999998
 10
155.3021916849033
 20
114.8689208705039
 30
0.0
 10
155.2889815717851
 20
115.1820293377094
 30
0.0
 10
155.2624973102924
 20
115.809764047236
 30
0.0
 10
155.109460003581
 20
116.4329581606471
 30
0.0
 10
155.0327563387767
 20
116.7453086156459
 30
0.0
  0
LINE
  5
D8
330
1F
100
AcDbEntity
  8
0
  6
Continuous
 62
     7
370
    15
100
AcDbLine
 10
150.3021890026943
 20
114.8689208705039
 30
0.0
 11
150.3021890026943
 21
115.7397559065433
 31
0.0
  0
LINE
  5
D9
330
1F
100
AcDbEntity
  8
0
  6
Continuous
 62
     7
370
    15
100
AcDbLine
 10
155.3021916849033
 20
114.8689208705039
 30
0.0
 11
155.3021916849033
 21
115.7397559065433
 31
0.0
  0
LINE
  5
DA
330
1F
100
AcDbEntity
  8
0
  6
Continuous
 62
     7
370
    15
100
AcDbLine
 10
155.3021916849033
 20
103.608372263989
 30
0.0
 11
155.3021916849033
 21
102.7397556383224
 31
0.0
  0
LINE
  5
DB
330
1F
100
AcDbEntity
  8
0
  6
Continuous
 62
     7
370
    15
100
AcDbLine
 10
150.3021890026943
 20
102.7397556383224
 30
0.0
 11
150.3021890026943
 21
103.608372263989
 31
0.0
  0
CIRCLE
  5
DC
330
1F
100
AcDbEntity
  8
0
  6
Continuous
 62
     7
370
    15
100
AcDbCircle
 10
256.2810726319503
 20
108.3209125040682
 30
0.0
 40
4.000000000000033
  0
LINE
  5
DD
330
1F
100
AcDbEntity
  8
0
  6
Continuous
 62
     7
370
    15
100
AcDbLine
 10
221.8098063682631
 20
106.4501280117841
 30
0.0
 11
218.6354144438595
 21
106.5311772901626
 31
0.0
  0
LINE
  5
DE
330
1F
100
AcDbEntity
  8
0
  6
Continuous
 62
     7
370
    15
100
AcDbLine
 10
218.7757932776079
 20
112.0293853957267
 30
0.0
 11
221.9501853184269
 21
111.948334254703
 31
0.0
  0
LINE
  5
DF
330
1F
100
AcDbEntity
  8
0
  6
Continuous
 62
     7
370
    15
100
AcDbLine
 10
221.9501853184269
 20
111.948334254703
 30
0.0
 11
223.4671917473391
 21
109.1587064940543
 31
0.0
  0
LINE
  5
E0
330
1F
100
AcDbEntity
  8
0
  6
Continuous
 62
     7
370
    15
100
AcDbLine
 10
218.6354144438595
 20
106.5311772901626
 30
0.0
 11
217.1184078985319
 21
109.3208050508113
 31
0.0
  0
LINE
  5
E1
330
1F
100
AcDbEntity
  8
0
  6
Continuous
 62
     7
370
    15
100
AcDbLine
 10
217.1184078985319
 20
109.3208050508113
 30
0.0
 11
218.7757932776079
 21
112.0293853957267
 31
0.0
  0
LINE
  5
E2
330
1F
100
AcDbEntity
  8
0
  6
Continuous
 62
     7
370
    15
100
AcDbLine
 10
223.4671917473391
 20
109.1587064940543
 30
0.0
 11
221.8098063682631
 21
106.4501280117841
 31
0.0
  0
CIRCLE
  5
E3
330
1F
100
AcDbEntity
  8
0
  6
Continuous
 62
     7
370
    15
100
AcDbCircle
 10
220.292800555886
 20
109.239755787334
 30
0.0
 40
4.250000000000004
  0
CIRCLE
  5
E4
330
1F
100
AcDbEntity
  8
0
  6
Continuous
 62
     7
370
    15
100
AcDbCircle
 10
240.0489171944115
 20
99.43231701031432
 30
0.0
 40
2.500000000000021
  0
LWPOLYLINE
  5
E5
330
1F
100
AcDbEntity
  8
0
  6
Continuous
 62
     7
370
    15
100
AcDbPolyline
 90
        9
 70
   128
 43
0.0
 10
263.0990842086688
 20
125.9694589454741
 10
263.1170959872619
 20
126.3611136157126
 10
263.1349364025012
 20
126.7489982921691
 10
263.1524303657428
 20
127.1293727833838
 10
263.1694102389232
 20
127.4985751289935
 10
263.1857121092693
 20
127.8530551273437
 10
263.2011795145885
 20
128.1893929619403
 10
263.2156671685592
 20
128.5043513555141
 10
263.2290297848598
 20
128.794897921762
  0
LWPOLYLINE
  5
E6
330
1F
100
AcDbEntity
  8
0
  6
Continuous
 62
     7
370
    15
100
AcDbPolyline
 90
        9
 70
   128
 43
0.0
 10
248.2448672605173
 20
129.4840319234939
 10
248.2315046442167
 20
129.1934853572459
 10
248.2170188528911
 20
128.8785269636722
 10
248.2015514475719
 20
128.5421891290755
 10
248.1852477145807
 20
128.1877091307254
 10
248.1682678414003
 20
127.8185030598254
 10
248.1507738781587
 20
127.4381285686107
 10
248.1329353255645
 20
127.0502476174445
 10
248.1149235469715
 20
126.658592947206
  0
ARC
  5
E7
330
1F
100
AcDbEntity
  8
0
  6
Continuous
 62
     7
370
    15
100
AcDbCircle
 10
242.8012190193602
 20
119.9524879168069
 30
0.0
 40
5.000000000000014
100
AcDbArc
 50
299.4649055262082
 51
357.3667810223078
  0
LINE
  5
E8
330
1F
100
AcDbEntity
  8
0
  6
Continuous
 62
     7
370
    15
100
AcDbLine
 10
262.4403858286754
 20
111.6470029730411
 30
0.0
 11
263.0990842086688
 21
125.9694589454741
 31
0.0
  0
LINE
  5
E9
330
1F
100
AcDbEntity
  8
0
  6
Continuous
 62
     7
370
    15
100
AcDbLine
 10
248.1149235469715
 20
126.658592947206
 30
0.0
 11
247.7959399772302
 21
119.722776689014
 31
0.0
  0
LINE
  5
EA
330
1F
100
AcDbEntity
  8
0
  6
Continuous
 62
     7
370
    15
100
AcDbLine
 10
263.2290297848598
 20
128.794897921762
 30
0.0
 11
263.5292844576255
 21
135.3235324997516
 31
0.0
  0
LINE
  5
EB
330
1F
100
AcDbEntity
  8
0
  6
Continuous
 62
     7
370
    15
100
AcDbLine
 10
248.5451237959281
 20
136.0126665014834
 30
0.0
 11
248.2448672605173
 21
129.4840319234939
 31
0.0
  0
LWPOLYLINE
  5
EC
330
1F
100
AcDbEntity
  8
0
  6
Continuous
 62
     7
370
    15
100
AcDbPolyline
 90
        9
 70
   128
 43
0.0
 10
263.5292844576255
 20
135.3235324997516
 10
263.5326260430232
 20
135.396168209991
 10
263.5362470251934
 20
135.4749096710296
 10
263.5401138765232
 20
135.5589931983562
 10
263.5441893441097
 20
135.6476141292663
 10
263.5484361750499
 20
135.7399156469913
 10
263.5528096658603
 20
135.8350074071498
 10
263.5572688383476
 20
135.9319804389091
 10
263.5617689890281
 20
136.0298922438235
  0
LWPOLYLINE
  5
ED
330
1F
100
AcDbEntity
  8
0
  6
Continuous
 62
     7
370
    15
100
AcDbPolyline
 90
        9
 70
   128
 43
0.0
 10
248.5776101899759
 20
136.7190262455554
 10
248.573106314005
 20
136.6211107153506
 10
248.5686471415178
 20
136.5241414088817
 10
248.5642736507074
 20
136.4290459234328
 10
248.5600286824123
 20
136.3367444057078
 10
248.5559532148258
 20
136.248127200088
 10
248.5520845008508
 20
136.1640399474711
 10
248.5484635186807
 20
136.0853022117229
 10
248.5451237959281
 20
136.0126665014834
  0
LINE
  5
EE
330
1F
100
AcDbEntity
  8
0
  6
Continuous
 62
     7
370
    15
100
AcDbLine
 10
263.7455412847415
 20
140.0256684202762
 30
0.0
 11
263.5617689890281
 21
136.0298922438235
 31
0.0
  0
LINE
  5
EF
330
1F
100
AcDbEntity
  8
0
  6
Continuous
 62
     7
370
    15
100
AcDbLine
 10
248.5776101899759
 20
136.7190262455554
 30
0.0
 11
248.761378760399
 21
140.714802422008
 31
0.0
  0
LINE
  5
F0
330
1F
100
AcDbEntity
  8
0
  6
Continuous
 62
     7
370
    15
100
AcDbLine
 10
259.6431472999469
 20
102.1811688471646
 30
0.0
 11
243.4109901738779
 21
93.29257217832523
 31
0.0
  0
ARC
  5
F1
330
1F
100
AcDbEntity
  8
0
  6
Continuous
 62
     7
370
    15
100
AcDbCircle
 10
240.0489171944191
 20
99.43231701030796
 30
0.0
 40
6.999999999999976
100
AcDbArc
 50
243.5990290161488
 51
298.7047522819905
  0
LINE
  5
F2
330
1F
100
AcDbEntity
  8
0
  6
Continuous
 62
     7
370
    15
100
AcDbLine
 10
236.9363648546354
 20
93.16238818355518
 30
0.0
 11
217.180247950317
 21
102.9698258418651
 31
0.0
  0
LINE
  5
F3
330
1F
100
AcDbEntity
  8
0
  6
Continuous
 62
     7
370
    15
100
AcDbLine
 10
220.4714645128191
 20
116.2374770421596
 30
0.0
 11
256.4597377282993
 21
115.3186304647536
 31
0.0
  0
ARC
  5
F4
330
1F
100
AcDbEntity
  8
0
  6
Continuous
 62
     7
370
    15
100
AcDbCircle
 10
220.2928005558971
 20
109.2397557873338
 30
0.0
 40
7.0
100
AcDbArc
 50
88.53745667160543
 51
243.5990290161491
  0
ARC
  5
F5
330
1F
100
AcDbEntity
  8
0
  6
Continuous
 62
     7
370
    15
100
AcDbCircle
 10
256.2810726319606
 20
108.3209125040568
 30
0.0
 40
7.0
100
AcDbArc
 50
298.7047522819912
 51
88.53745667160522
  0
LINE
  5
F6
330
1F
100
AcDbEntity
  8
0
  6
Continuous
 62
     7
370
    15
100
AcDbLine
 10
155.8021926981822
 20
115.2397548932643
 30
0.0
 11
155.8021926981822
 21
103.2397566516013
 31
0.0
  0
SPLINE
  5
F7
330
1F
100
AcDbEntity
  8
0
  6
Continuous
 62
     7
370
    15
100
AcDbSpline
210
0.0
220
0.0
230
1.0
 70
     8
 71
     3
 72
     9
 73
     5
 74
     0
 42
0.0000000001
 43
0.0000000001
 40
0.0
 40
0.0
 40
0.0
 40
0.0
 40
0.4989630484915912
 40
1.0
 40
1.0
 40
1.0
 40
1.0
 10
212.748771133782
 20
115.590610184154
 30
0.0
 10
212.6194865339074
 20
116.1168295847553
 30
0.0
 10
212.3603799722785
 20
117.1714555779866
 30
0.0
 10
212.3153582633285
 20
118.2337751158921
 30
0.0
 10
212.2928007235245
 20
118.7660364586921
 30
0.0
  0
SPLINE
  5
F8
330
1F
100
AcDbEntity
  8
0
  6
Continuous
 62
     7
370
    15
100
AcDbSpline
210
0.0
220
0.0
230
1.0
 70
     8
 71
     3
 72
     9
 73
     5
 74
     0
 42
0.0000000001
 43
0.0000000001
 40
0.0
 40
0.0
 40
0.0
 40
0.0
 40
0.4987908215849631
 40
1.0
 40
1.0
 40
1.0
 40
1.0
 10
212.2928007235245
 20
109.239757635078
 30
0.0
 10
212.3151574370074
 20
110.2995067700548
 30
0.0
 10
212.3599792591329
 20
112.4241431689551
 30
0.0
 10
212.618965068865
 20
114.5334208503919
 30
0.0
 10
212.748771133782
 20
115.590610184154
 30
0.0
  0
SPLINE
  5
F9
330
1F
100
AcDbEntity
  8
0
  6
Continuous
 62
     7
370
    15
100
AcDbSpline
210
0.0
220
0.0
230
1.0
 70
     8
 71
     3
 72
     9
 73
     5
 74
     0
 42
0.0000000001
 43
0.0000000001
 40
0.0
 40
0.0
 40
0.0
 40
0.0
 40
0.4989630804042062
 40
1.0
 40
1.0
 40
1.0
 40
1.0
 10
212.748771133782
 20
102.8889032233567
 30
0.0
 10
212.6194865340547
 20
103.9413427665375
 30
0.0
 10
212.3603799892927
 20
106.0505961051376
 30
0.0
 10
212.3153582680505
 20
108.1752350719121
 30
0.0
 10
212.2928007235245
 20
109.239757635078
 30
0.0
  0
SPLINE
  5
FA
330
1F
100
AcDbEntity
  8
0
  6
Continuous
 62
     7
370
    15
100
AcDbSpline
210
0.0
220
0.0
230
1.0
 70
     8
 71
     3
 72
     9
 73
     5
 74
     0
 42
0.0000000001
 43
0.0000000001
 40
0.0
 40
0.0
 40
0.0
 40
0.0
 40
0.4987908216921284
 40
1.0
 40
1.0
 40
1.0
 40
1.0
 10
212.2928007235245
 20
99.71347694881874
 30
0.0
 10
212.3151574369916
 20
100.2433515162509
 30
0.0
 10
212.359979259076
 20
101.3056697153603
 30
0.0
 10
212.6189650688645
 20
102.3603085564184
 30
0.0
 10
212.748771133782
 20
102.8889032233567
 30
0.0
  0
SPLINE
  5
FB
330
1F
100
AcDbEntity
  8
0
  6
Continuous
 62
     7
370
    15
100
AcDbSpline
210
0.0
220
0.0
230
1.0
 70
     8
 71
     3
 72
     9
 73
     5
 74
     0
 42
0.0000000001
 43
0.0000000001
 40
0.0
 40
0.0
 40
0.0
 40
0.0
 40
0.4146337172213163
 40
1.0
 40
1.0
 40
1.0
 40
1.0
 10
227.9334241253749
 20
116.0469582457156
 30
0.0
 10
228.0232453411149
 20
116.421322799012
 30
0.0
 10
228.2398732032723
 20
117.3242029502097
 30
0.0
 10
228.2732584311058
 20
118.2336669170825
 30
0.0
 10
228.2928010178224
 20
118.7660364586921
 30
0.0
  0
LINE
  5
FC
330
1F
100
AcDbEntity
  8
0
  6
Continuous
 62
     7
370
    15
100
AcDbLine
 10
217.3488802005962
 20
115.590610184154
 30
0.0
 11
212.748771133782
 21
115.590610184154
 31
0.0
  0
SPLINE
  5
FD
330
1F
100
AcDbEntity
  8
0
  6
Continuous
 62
     7
370
    15
100
AcDbSpline
210
0.0
220
0.0
230
1.0
 70
     8
 71
     3
 72
     9
 73
     5
 74
     0
 42
0.0000000001
 43
0.0000000001
 40
0.0
 40
0.0
 40
0.0
 40
0.0
 40
0.4987906735491184
 40
0.9999999999999998
 40
0.9999999999999998
 40
0.9999999999999998
 40
0.9999999999999998
 10
212.2928007235245
 20
118.7660364586921
 30
0.0
 10
212.31515745872
 20
119.295910173947
 30
0.0
 10
212.3599793376789
 20
120.3582269800825
 30
0.0
 10
212.6189650695503
 20
121.412867212628
 30
0.0
 10
212.748771133782
 20
121.9414627332301
 30
0.0
  0
LINE
  5
FE
330
1F
100
AcDbEntity
  8
0
  6
Continuous
 62
     7
370
    15
100
AcDbLine
 10
227.8368301419035
 20
121.9414627332301
 30
0.0
 11
212.748771133782
 21
121.9414627332301
 31
0.0
  0
SPLINE
  5
FF
330
1F
100
AcDbEntity
  8
0
  6
Continuous
 62
     7
370
    15
100
AcDbSpline
210
0.0
220
0.0
230
1.0
 70
     8
 71
     3
 72
     9
 73
     5
 74
     0
 42
0.0000000001
 43
0.0000000001
 40
0.0
 40
0.0
 40
0.0
 40
0.0
 40
0.4987906773504245
 40
1.0
 40
1.0
 40
1.0
 40
1.0
 10
228.2928010178224
 20
118.7660364586921
 30
0.0
 10
228.2704440892526
 20
119.2959101719545
 30
0.0
 10
228.2256218229495
 20
120.3582269659996
 30
0.0
 10
227.9666361670652
 20
121.4128672105967
 30
0.0
 10
227.8368301419035
 20
121.9414627332301
 30
0.0
  0
LINE
  5
100
330
1F
100
AcDbEntity
  8
0
  6
Continuous
 62
     7
370
    15
100
AcDbLine
 10
227.8368301419035
 20
96.5380506742807
 30
0.0
 11
228.0554879186169
 21
97.57108112462478
 31
0.0
  0
LINE
  5
101
330
1F
100
AcDbEntity
  8
0
  6
Continuous
 62
     7
370
    15
100
AcDbLine
 10
212.748771133782
 20
96.5380506742807
 30
0.0
 11
227.8368301419035
 21
96.5380506742807
 31
0.0
  0
SPLINE
  5
102
330
1F
100
AcDbEntity
  8
0
  6
Continuous
 62
     7
370
    15
100
AcDbSpline
210
0.0
220
0.0
230
1.0
 70
     8
 71
     3
 72
     9
 73
     5
 74
     0
 42
0.0000000001
 43
0.0000000001
 40
0.0
 40
0.0
 40
0.0
 40
0.0
 40
0.498963115434509
 40
1.0
 40
1.0
 40
1.0
 40
1.0
 10
212.748771133782
 20
96.5380506742807
 30
0.0
 10
212.6194865342163
 20
97.06427003942886
 30
0.0
 10
212.3603800079691
 20
98.11889582011392
 30
0.0
 10
212.315358273234
 20
99.18121557061519
 30
0.0
 10
212.2928007235245
 20
99.71347694881874
 30
0.0
  0
LINE
  5
103
330
1F
100
AcDbEntity
  8
0
  6
Continuous
 62
     7
370
    15
100
AcDbLine
 10
212.748771133782
 20
102.8889032233567
 30
0.0
 11
217.3432601345197
 21
102.8889032233567
 31
0.0
  0
LINE
  5
104
330
1F
100
AcDbEntity
  8
0
  6
Continuous
 62
     7
370
    15
100
AcDbLine
 10
228.2928010178224
 20
116.0377828557105
 30
0.0
 11
228.2928010178224
 21
118.7660364586921
 31
0.0
  0
LINE
  5
105
330
1F
100
AcDbEntity
  8
0
  6
Continuous
 62
     7
370
    15
100
AcDbLine
 10
196.2928013605491
 20
117.6897553879828
 30
0.0
 11
196.2928013605491
 21
100.7897561568828
 31
0.0
  0
LINE
  5
106
330
1F
100
AcDbEntity
  8
0
  6
Continuous
 62
     7
370
    15
100
AcDbLine
 10
197.7928006750957
 20
119.1897547025294
 30
0.0
 11
197.7928006750957
 21
99.28975497969108
 31
0.0
  0
LINE
  5
107
330
1F
100
AcDbEntity
  8
0
  6
Continuous
 62
     7
370
    15
100
AcDbLine
 10
228.2928010178224
 20
118.7660364586921
 30
0.0
 11
228.2928010178224
 21
120.2397575754733
 31
0.0
  0
LINE
  5
108
330
1F
100
AcDbEntity
  8
0
  6
Continuous
 62
     7
370
    15
100
AcDbLine
 10
226.2928006899969
 20
79.23975597732383
 30
0.0
 11
231.2928005782382
 21
79.23975597732383
 31
0.0
  0
LINE
  5
109
330
1F
100
AcDbEntity
  8
0
  6
Continuous
 62
     7
370
    15
100
AcDbLine
 10
231.2928005782382
 20
79.23975597732383
 30
0.0
 11
231.2928005782382
 21
75.23975578733402
 31
0.0
  0
LINE
  5
10A
330
1F
100
AcDbEntity
  8
0
  6
Continuous
 62
     7
370
    15
100
AcDbLine
 10
231.2928005782382
 20
75.23975578733402
 30
0.0
 11
226.2928006899969
 21
75.23975578733402
 31
0.0
  0
LINE
  5
10B
330
1F
100
AcDbEntity
  8
0
  6
Continuous
 62
     7
370
    15
100
AcDbLine
 10
208.2928005335347
 20
101.2961050648303
 30
0.0
 11
208.2928005335347
 21
104.8316383887143
 31
0.0
  0
LINE
  5
10C
330
1F
100
AcDbEntity
  8
0
  6
Continuous
 62
     7
370
    15
100
AcDbLine
 10
212.2928007235245
 20
104.8316383887143
 30
0.0
 11
212.2928007235245
 21
101.2961050648303
 31
0.0
  0
ARC
  5
10D
330
1F
100
AcDbEntity
  8
0
  6
Continuous
 62
     7
370
    15
100
AcDbCircle
 10
215.2928005558864
 20
82.23975578733403
 30
0.0
 40
3.000000000000014
100
AcDbArc
 50
180.0
 51
270.0000000000008
  0
LINE
  5
10E
330
1F
100
AcDbEntity
  8
0
  6
Continuous
 62
     7
370
    15
100
AcDbLine
 10
215.2928007496015
 20
75.23975578733402
 30
0.0
 11
226.2928006899969
 21
75.23975578733402
 31
0.0
  0
LINE
  5
10F
330
1F
100
AcDbEntity
  8
0
  6
Continuous
 62
     7
370
    15
100
AcDbLine
 10
208.2928005335347
 20
101.2961050648303
 30
0.0
 11
208.2928005335347
 21
82.23975600340086
 31
0.0
  0
LINE
  5
110
330
1F
100
AcDbEntity
  8
0
  6
Continuous
 62
     7
370
    15
100
AcDbLine
 10
212.2928007235245
 20
82.23975600340086
 30
0.0
 11
212.2928007235245
 21
101.2961050648303
 31
0.0
  0
LINE
  5
111
330
1F
100
AcDbEntity
  8
0
  6
Continuous
 62
     7
370
    15
100
AcDbLine
 10
226.2928006899969
 20
79.23975597732383
 30
0.0
 11
215.2928007496015
 21
79.23975597732383
 31
0.0
  0
ARC
  5
112
330
1F
100
AcDbEntity
  8
0
  6
Continuous
 62
     7
370
    15
100
AcDbCircle
 10
215.2928005558864
 20
82.23975578733401
 30
0.0
 40
7.0
100
AcDbArc
 50
180.0
 51
270.0000000000008
  0
LINE
  5
113
330
1F
100
AcDbEntity
  8
0
  6
Continuous
 62
     7
370
    15
100
AcDbLine
 10
208.2928005335347
 20
104.8316383887143
 30
0.0
 11
208.2928005335347
 21
120.5534642715068
 31
0.0
  0
LINE
  5
114
330
1F
100
AcDbEntity
  8
0
  6
Continuous
 62
     7
370
    15
100
AcDbLine
 10
212.2928007235245
 20
104.8316383887143
 30
0.0
 11
212.2928007235245
 21
120.5534642715068
 31
0.0
  0
LINE
  5
115
330
1F
100
AcDbEntity
  8
0
  6
Continuous
 62
     7
370
    15
100
AcDbLine
 10
208.2928005335347
 20
125.239756532392
 30
0.0
 11
208.2928005335347
 21
120.5534642715068
 31
0.0
  0
LINE
  5
116
330
1F
100
AcDbEntity
  8
0
  6
Continuous
 62
     7
370
    15
100
AcDbLine
 10
212.2928007235245
 20
125.239756532392
 30
0.0
 11
212.2928007235245
 21
120.5534642715068
 31
0.0
  0
SPLINE
  5
117
330
1F
100
AcDbEntity
  8
0
  6
Continuous
 62
     7
370
    15
100
AcDbSpline
210
0.0
220
0.0
230
1.0
 70
     8
 71
     3
 72
    13
 73
     9
 74
     0
 42
0.0000000001
 43
0.0000000001
 40
0.0
 40
0.0
 40
0.0
 40
0.0
 40
0.2226503452382426
 40
0.3165661389947702
 40
0.4737171858694535
 40
0.640541695867355
 40
0.8225045548361462
 40
1.0
 40
1.0
 40
1.0
 40
1.0
 10
40.22202978995301
 20
221.5801855702014
 30
0.0
 10
39.92562036262183
 20
221.227012915224
 30
0.0
 10
39.50418293852317
 20
220.7248690552398
 30
0.0
 10
38.9484172092893
 20
219.9169242092017
 30
0.0
 10
38.49508904866411
 20
219.1798843625297
 30
0.0
 10
38.01472888024017
 20
218.2490363295588
 30
0.0
 10
37.58338071227788
 20
217.2471950800927
 30
0.0
 10
37.36330699558596
 20
216.536336444882
 30
0.0
 10
37.25463769551971
 20
216.1853244680973
 30
0.0
  0
SPLINE
  5
118
330
1F
100
AcDbEntity
  8
0
  6
Continuous
 62
     7
370
    15
100
AcDbSpline
210
0.0
220
0.0
230
1.0
 70
     8
 71
     3
 72
    31
 73
    27
 74
     0
 42
0.0000000001
 43
0.0000000001
 40
0.0
 40
0.0
 40
0.0
 40
0.0
 40
0.0026132777675094
 40
0.0481691779496649
 40
0.0939156316649652
 40
0.1398131578219817
 40
0.1858329871103537
 40
0.2319581414574875
 40
0.2781787479260407
 40
0.3244911427290271
 40
0.3708979002673261
 40
0.4174081809416859
 40
0.4640396663251467
 40
0.5108207826519573
 40
0.5577962932904952
 40
0.6050368386075022
 40
0.6526560103763286
 40
0.7008446000195664
 40
0.7445165200541631
 40
0.788045020892824
 40
0.8312316040207107
 40
0.8734812564430777
 40
0.9122787929574263
 40
0.9385501222327132
 40
0.9673443663073765
 40
1.0
 40
1.0
 40
1.0
 40
1.0
 10
64.14457190003851
 20
216.1828955788227
 30
0.0
 10
64.13847671340135
 20
216.208199134843
 30
0.0
 10
64.02612733615097
 20
216.6746063066542
 30
0.0
 10
63.68861047620285
 20
217.551598504221
 30
0.0
 10
63.12544679506348
 20
218.7966540621228
 30
0.0
 10
62.42700373893277
 20
219.9799509571666
 30
0.0
 10
61.61753541689863
 20
221.0934862880636
 30
0.0
 10
60.69946299889533
 20
222.1242128044698
 30
0.0
 10
59.68253347808417
 20
223.0616669815086
 30
0.0
 10
58.57578845662632
 20
223.8959357790607
 30
0.0
 10
57.38956991091217
 20
224.6182807439681
 30
0.0
 10
56.13476093620338
 20
225.2209763742603
 30
0.0
 10
54.82280942775925
 20
225.697430784256
 30
0.0
 10
53.46543137880606
 20
226.0420665854878
 30
0.0
 10
52.0743818433073
 20
226.2502353651169
 30
0.0
 10
50.66108048881424
 20
226.3181063151262
 30
0.0
 10
49.23605047558661
 20
226.2421034784963
 30
0.0
 10
47.86128497449976
 20
226.0264990175071
 30
0.0
 10
46.55422058095967
 20
225.6877295831301
 30
0.0
 10
45.33120161452078
 20
225.2458589191449
 30
0.0
 10
44.16709652451531
 20
224.6989216889485
 30
0.0
 10
43.0985177592142
 20
224.0720519684663
 30
0.0
 10
42.22549219259458
 20
223.453181111763
 30
0.0
 10
41.50270392978677
 20
222.8599046938644
 30
0.0
 10
40.85777709260629
 20
222.2692975199359
 30
0.0
 10
40.44264100298875
 20
221.8193148948779
 30
0.0
 10
40.22202978995301
 20
221.5801855702014
 30
0.0
  0
SPLINE
  5
119
330
1F
100
AcDbEntity
  8
0
  6
Continuous
 62
     7
370
    15
100
AcDbSpline
210
0.0
220
0.0
230
1.0
 70
     8
 71
     3
 72
    28
 73
    24
 74
     0
 42
0.0000000001
 43
0.0000000001
 40
0.0
 40
0.0
 40
0.0
 40
0.0
 40
0.020662628169613
 40
0.0690558999734605
 40
0.1174938238974833
 40
0.1660048009286375
 40
0.2146286585818023
 40
0.2634042084688286
 40
0.3056204468617292
 40
0.3426820995562348
 40
0.3760058205028503
 40
0.4087329635348002
 40
0.4461411676476434
 40
0.5041836173181706
 40
0.5621671987380915
 40
0.6257875806497469
 40
0.6907885892200456
 40
0.7451350564577924
 40
0.8020493267103272
 40
0.859098454980775
 40
0.9157109654138512
 40
0.9708892395743825
 40
0.9999999999999998
 40
0.9999999999999998
 40
0.9999999999999998
 40
0.9999999999999998
 10
36.71590856429794
 20
145.3649705428691
 30
0.0
 10
36.71195346988232
 20
145.2470081062203
 30
0.0
 10
36.69873527701217
 20
144.8527696696099
 30
0.0
 10
36.82083171413379
 20
144.1872321930897
 30
0.0
 10
37.07492316270824
 20
143.3966978282823
 30
0.0
 10
37.46375165943117
 20
142.6594407712495
 30
0.0
 10
37.96606098799518
 20
141.9959625211775
 30
0.0
 10
38.54157558670894
 20
141.4514855325953
 30
0.0
 10
39.12981512406523
 20
141.0435581268752
 30
0.0
 10
39.67122731439483
 20
140.7628904766816
 30
0.0
 10
40.15624480276132
 20
140.5735963177897
 30
0.0
 10
40.5945445556452
 20
140.4446157227079
 30
0.0
 10
41.04963045390277
 20
140.3445758422944
 30
0.0
 10
41.50148261735629
 20
140.2744515127614
 30
0.0
 10
42.0199474743331
 20
140.2149123083653
 30
0.0
 10
42.60408079339842
 20
140.1644000930824
 30
0.0
 10
43.24898703347106
 20
140.1213526005866
 30
0.0
 10
43.94023959865417
 20
140.0845173870042
 30
0.0
 10
44.66187077278534
 20
140.0531892681889
 30
0.0
 10
45.4524250135288
 20
140.0254118728583
 30
0.0
 10
46.28896509108743
 20
140.0021775360599
 30
0.0
 10
47.0197031210971
 20
139.9856946522362
 30
0.0
 10
47.4777799726695
 20
139.9784852859881
 30
0.0
 10
47.63598519530751
 20
139.9759953994365
 30
0.0
  0
SPLINE
  5
11A
330
1F
100
AcDbEntity
  8
0
  6
Continuous
 62
     7
370
    15
100
AcDbSpline
210
0.0
220
0.0
230
1.0
 70
     8
 71
     3
 72
    30
 73
    26
 74
     0
 42
0.0000000001
 43
0.0000000001
 40
0.0
 40
0.0
 40
0.0
 40
0.0
 40
0.0026691869255517
 40
0.0514082101006163
 40
0.1015848055205502
 40
0.1526494809266632
 40
0.2041679448833439
 40
0.2558517334953229
 40
0.3075298344903905
 40
0.3591764799013198
 40
0.4110306971529036
 40
0.4640277626789871
 40
0.5218716499172901
 40
0.5695924990289014
 40
0.6028134593636906
 40
0.6323746914235647
 40
0.6631823623162304
 40
0.6973097970968524
 40
0.7367018056459443
 40
0.7809376555799626
 40
0.8278563123545421
 40
0.8757677713734137
 40
0.9239839212466224
 40
0.9722946357592379
 40
0.9999999999999998
 40
0.9999999999999998
 40
0.9999999999999998
 40
0.9999999999999998
 10
53.76251217131176
 20
139.9755856175037
 30
0.0
 10
53.77715770710121
 20
139.9757928759692
 30
0.0
 10
54.05922891526319
 20
139.9797846483857
 30
0.0
 10
54.59591339229988
 20
139.9906583379166
 30
0.0
 10
55.36620660527383
 20
140.008742277987
 30
0.0
 10
56.11006189964294
 20
140.0309216044782
 30
0.0
 10
56.81739951555154
 20
140.0565650745875
 30
0.0
 10
57.47791518578614
 20
140.0856223098189
 30
0.0
 10
58.08644650598996
 20
140.1180097483321
 30
0.0
 10
58.64224586774858
 20
140.1539341436935
 30
0.0
 10
59.15164314895405
 20
140.194367734488
 30
0.0
 10
59.63767040668965
 20
140.2428873174004
 30
0.0
 10
60.09079853842969
 20
140.3021268641471
 30
0.0
 10
60.52715497775523
 20
140.3802978286939
 30
0.0
 10
60.94844759416783
 20
140.4839249681893
 30
0.0
 10
61.36072700829772
 20
140.6164442550288
 30
0.0
 10
61.80930945337379
 20
140.8024981587363
 30
0.0
 10
62.30920131136743
 20
141.0706584237715
 30
0.0
 10
62.84838200388011
 20
141.4485448376598
 30
0.0
 10
63.38951824669023
 20
141.9530839593229
 30
0.0
 10
63.87949103191208
 20
142.5763810509174
 30
0.0
 10
64.27699764995293
 20
143.2921876876501
 30
0.0
 10
64.54931170658496
 20
144.0716453043326
 30
0.0
 10
64.69066742646671
 20
144.7724478512028
 30
0.0
 10
64.68464961597629
 20
145.2068691972014
 30
0.0
 10
64.6824563216851
 20
145.3652015108676
 30
0.0
  0
LINE
  5
11B
330
1F
100
AcDbEntity
  8
0
  6
Continuous
 62
     7
370
    15
100
AcDbLine
 10
36.6991801482127
 20
151.32196304985
 30
0.0
 11
36.6991801482127
 21
145.3649556417079
 31
0.0
  0
LINE
  5
11C
330
1F
100
AcDbEntity
  8
0
  6
Continuous
 62
     7
370
    15
100
AcDbLine
 10
64.69918101248005
 20
145.3649556417079
 30
0.0
 11
64.69918101248005
 21
151.32196304985
 31
0.0
  0
SPLINE
  5
11D
330
1F
100
AcDbEntity
  8
0
  6
Continuous
 62
     7
370
    15
100
AcDbSpline
210
0.0
220
0.0
230
1.0
 70
     8
 71
     3
 72
    12
 73
     8
 74
     0
 42
0.0000000001
 43
0.0000000001
 40
0.0
 40
0.0
 40
0.0
 40
0.0
 40
0.139921700099526
 40
0.3835177146640102
 40
0.6314202076824629
 40
0.8815917185916202
 40
1.0
 40
1.0
 40
1.0
 40
1.0
 10
37.63960081305959
 20
153.88743636795
 30
0.0
 10
37.55602814060356
 20
153.7890236582068
 30
0.0
 10
37.32696002375031
 20
153.519279812129
 30
0.0
 10
37.04537192476429
 20
152.9975981019754
 30
0.0
 10
36.81493518923291
 20
152.3466790484515
 30
0.0
 10
36.69973485554405
 20
151.7765441046873
 30
0.0
 10
36.71276971376533
 20
151.4324973945326
 30
0.0
 10
36.71695723351696
 20
151.3219705004306
 30
0.0
  0
SPLINE
  5
11E
330
1F
100
AcDbEntity
  8
0
  6
Continuous
 62
     7
370
    15
100
AcDbSpline
210
0.0
220
0.0
230
1.0
 70
     8
 71
     3
 72
    12
 73
     8
 74
     0
 42
0.0000000001
 43
0.0000000001
 40
0.0
 40
0.0
 40
0.0
 40
0.0
 40
0.2569438485324291
 40
0.5090042438231923
 40
0.746931634187515
 40
0.9724854579380059
 40
1.0
 40
1.0
 40
1.0
 40
1.0
 10
64.69918101248005
 20
151.32196304985
 30
0.0
 10
64.68694603229618
 20
151.559040627725
 30
0.0
 10
64.66270860893597
 20
152.0286899069077
 30
0.0
 10
64.47702845612477
 20
152.6977889168891
 30
0.0
 10
64.1967950963778
 20
153.292536635054
 30
0.0
 10
63.95823970847814
 20
153.6808684227455
 30
0.0
 10
63.80222040964508
 20
153.849681107703
 30
0.0
 10
63.78525740620354
 20
153.8680350560756
 30
0.0
  0
SPLINE
  5
11F
330
1F
100
AcDbEntity
  8
0
  6
Continuous
 62
     7
370
    15
100
AcDbSpline
210
0.0
220
0.0
230
1.0
 70
     8
 71
     3
 72
    12
 73
     8
 74
     0
 42
0.0000000001
 43
0.0000000001
 40
0.0
 40
0.0
 40
0.0
 40
0.0
 40
0.1384075902940712
 40
0.382406038355655
 40
0.6307180794013343
 40
0.8813028868752564
 40
1.0
 40
1.0
 40
1.0
 40
1.0
 10
63.76178621467808
 20
158.862338044128
 30
0.0
 10
63.84429908514873
 20
158.9595405981971
 30
0.0
 10
64.07227372037644
 20
159.2281013291558
 30
0.0
 10
64.35295658064216
 20
159.7484472392924
 30
0.0
 10
64.58343753218173
 20
160.3993330205286
 30
0.0
 10
64.69863492008231
 20
160.969562091489
 30
0.0
 10
64.68559241334152
 20
161.3136957894375
 30
0.0
 10
64.68140020188549
 20
161.4243095893474
 30
0.0
  0
SPLINE
  5
120
330
1F
100
AcDbEntity
  8
0
  6
Continuous
 62
     7
370
    15
100
AcDbSpline
210
0.0
220
0.0
230
1.0
 70
     8
 71
     3
 72
    12
 73
     8
 74
     0
 42
0.0000000001
 43
0.0000000001
 40
0.0
 40
0.0
 40
0.0
 40
0.0
 40
0.2523737116342301
 40
0.4999532009394695
 40
0.7336485513929003
 40
0.9551902107601865
 40
0.9999999999999998
 40
0.9999999999999998
 40
0.9999999999999998
 40
0.9999999999999998
 10
36.6991801482127
 20
161.4240562696071
 30
0.0
 10
36.7114011337243
 20
161.186965329426
 30
0.0
 10
36.73561094854849
 20
160.7172873519149
 30
0.0
 10
36.92149347174564
 20
160.0483784088042
 30
0.0
 10
37.20100767710532
 20
159.4529471701329
 30
0.0
 10
37.45022696163243
 20
159.0520608492986
 30
0.0
 10
37.61809399896474
 20
158.8718214493716
 30
0.0
 10
37.64633520659664
 20
158.8414987701984
 30
0.0
  0
LINE
  5
121
330
1F
100
AcDbEntity
  8
0
  6
Continuous
 62
     7
370
    15
100
AcDbLine
 10
36.6991801482127
 20
169.3029558438869
 30
0.0
 11
36.6991801482127
 21
161.4240562696071
 31
0.0
  0
LINE
  5
122
330
1F
100
AcDbEntity
  8
0
  6
Continuous
 62
     7
370
    15
100
AcDbLine
 10
64.69918101248005
 20
161.4240562696071
 30
0.0
 11
64.69918101248005
 21
169.3029558438869
 31
0.0
  0
SPLINE
  5
123
330
1F
100
AcDbEntity
  8
0
  6
Continuous
 62
     7
370
    15
100
AcDbSpline
210
0.0
220
0.0
230
1.0
 70
     8
 71
     3
 72
    12
 73
     8
 74
     0
 42
0.0000000001
 43
0.0000000001
 40
0.0
 40
0.0
 40
0.0
 40
0.0
 40
0.139921698078837
 40
0.3835177091254122
 40
0.6314203679060551
 40
0.8815917203016216
 40
1.0
 40
1.0
 40
1.0
 40
1.0
 10
37.63960081305959
 20
171.8684291619869
 30
0.0
 10
37.55602814257388
 20
171.7700164595441
 30
0.0
 10
37.32696003112121
 20
171.5002726334764
 30
0.0
 10
37.04537179239387
 20
170.9785905454588
 30
0.0
 10
36.81493535805646
 20
170.3276724706571
 30
0.0
 10
36.69973483818486
 20
169.7575366748953
 30
0.0
 10
36.71276970821256
 20
169.4134901693031
 30
0.0
 10
36.71695723351696
 20
169.3029632944675
 30
0.0
  0
SPLINE
  5
124
330
1F
100
AcDbEntity
  8
0
  6
Continuous
 62
     7
370
    15
100
AcDbSpline
210
0.0
220
0.0
230
1.0
 70
     8
 71
     3
 72
    12
 73
     8
 74
     0
 42
0.0000000001
 43
0.0000000001
 40
0.0
 40
0.0
 40
0.0
 40
0.0
 40
0.2569438485324291
 40
0.5090042438231923
 40
0.746931634187515
 40
0.9724854579380059
 40
1.0
 40
1.0
 40
1.0
 40
1.0
 10
64.69918101248005
 20
169.3029558438869
 30
0.0
 10
64.68694603229618
 20
169.5400334217618
 30
0.0
 10
64.66270860893597
 20
170.0096827009445
 30
0.0
 10
64.47702845612477
 20
170.6787817109259
 30
0.0
 10
64.1967950963778
 20
171.2735294290909
 30
0.0
 10
63.95823970847814
 20
171.6618612167825
 30
0.0
 10
63.80222040964508
 20
171.8306739017399
 30
0.0
 10
63.78525740620354
 20
171.8490278501125
 30
0.0
  0
SPLINE
  5
125
330
1F
100
AcDbEntity
  8
0
  6
Continuous
 62
     7
370
    15
100
AcDbSpline
210
0.0
220
0.0
230
1.0
 70
     8
 71
     3
 72
    12
 73
     8
 74
     0
 42
0.0000000001
 43
0.0000000001
 40
0.0
 40
0.0
 40
0.0
 40
0.0
 40
0.1123920849539488
 40
0.3634822258086752
 40
0.6198414463388984
 40
0.87894342613931
 40
1.0
 40
1.0
 40
1.0
 40
1.0
 10
37.62783168968418
 20
158.8322004456134
 30
0.0
 10
37.69067316764376
 20
158.7577884384507
 30
0.0
 10
37.8939059868518
 20
158.5171358871478
 30
0.0
 10
38.15556859998076
 20
158.0275843992468
 30
0.0
 10
38.38909436332477
 20
157.3855785742738
 30
0.0
 10
38.48852590385692
 20
156.8210849489518
 30
0.0
 10
38.49703756336511
 20
156.4812315715715
 30
0.0
 10
38.49974799123266
 20
156.3730096597286
 30
0.0
  0
SPLINE
  5
126
330
1F
100
AcDbEntity
  8
0
  6
Continuous
 62
     7
370
    15
100
AcDbSpline
210
0.0
220
0.0
230
1.0
 70
     8
 71
     3
 72
    16
 73
    12
 74
     0
 42
0.0000000001
 43
0.0000000001
 40
0.0
 40
0.0
 40
0.0
 40
0.0
 40
0.0894620963758561
 40
0.214240072868266
 40
0.3413193320443785
 40
0.4695547254720975
 40
0.607157693631177
 40
0.7361532863728737
 40
0.857637509431694
 40
0.9724561078077343
 40
1.0
 40
1.0
 40
1.0
 40
1.0
 10
63.79674154487112
 20
153.8771918196292
 30
0.0
 10
63.69819818368866
 20
154.0002021372307
 30
0.0
 10
63.46221067908429
 20
154.2947820819682
 30
0.0
 10
63.18525079148768
 20
154.8469748104144
 30
0.0
 10
62.97439291497409
 20
155.5011377506706
 30
0.0
 10
62.88002648336386
 20
156.2095735224561
 30
0.0
 10
62.91541799695096
 20
156.9267881940165
 30
0.0
 10
63.07611231395554
 20
157.6138089480113
 30
0.0
 10
63.33880494764615
 20
158.2160017812818
 30
0.0
 10
63.5807509806626
 20
158.6270295853927
 30
0.0
 10
63.74560572243609
 20
158.8126738043001
 30
0.0
 10
63.77750135180214
 20
158.8485917229267
 30
0.0
  0
SPLINE
  5
127
330
1F
100
AcDbEntity
  8
0
  6
Continuous
 62
     7
370
    15
100
AcDbSpline
210
0.0
220
0.0
230
1.0
 70
     8
 71
     3
 72
    12
 73
     8
 74
     0
 42
0.0000000001
 43
0.0000000001
 40
0.0
 40
0.0
 40
0.0
 40
0.0
 40
0.260857612911451
 40
0.5178426880459512
 40
0.7600462992243832
 40
0.9889681166423322
 40
1.0
 40
1.0
 40
1.0
 40
1.0
 10
38.49974799123266
 20
156.3730096597286
 30
0.0
 10
38.48762160894807
 20
156.1387008363774
 30
0.0
 10
38.46354886547534
 20
155.6735615998305
 30
0.0
 10
38.27909843821952
 20
155.011390321465
 30
0.0
 10
38.0015896231703
 20
154.4267775085503
 30
0.0
 10
37.77506915604062
 20
154.0570758104755
 30
0.0
 10
37.63514837948626
 20
153.9048508306616
 30
0.0
 10
37.62871551480749
 20
153.8978522796245
 30
0.0
  0
SPLINE
  5
128
330
1F
100
AcDbEntity
  8
0
  6
Continuous
 62
     7
370
    15
100
AcDbSpline
210
0.0
220
0.0
230
1.0
 70
     8
 71
     3
 72
    12
 73
     8
 74
     0
 42
0.0000000001
 43
0.0000000001
 40
0.0
 40
0.0
 40
0.0
 40
0.0
 40
0.138407805238081
 40
0.3824060028880682
 40
0.6307181596171551
 40
0.8813029126587725
 40
1.0
 40
1.0
 40
1.0
 40
1.0
 10
63.76178621467808
 20
176.8433308381649
 30
0.0
 10
63.84429905129099
 20
176.940533322313
 30
0.0
 10
64.07227321778993
 20
177.2090934181105
 30
0.0
 10
64.35295695929579
 20
177.7294407813345
 30
0.0
 10
64.58343738020396
 20
178.3803254165744
 30
0.0
 10
64.69863493268738
 20
178.9505549108093
 30
0.0
 10
64.68559241640761
 20
179.2946885896244
 30
0.0
 10
64.68140020188549
 20
179.4053023833843
 30
0.0
  0
SPLINE
  5
129
330
1F
100
AcDbEntity
  8
0
  6
Continuous
 62
     7
370
    15
100
AcDbSpline
210
0.0
220
0.0
230
1.0
 70
     8
 71
     3
 72
    12
 73
     8
 74
     0
 42
0.0000000001
 43
0.0000000001
 40
0.0
 40
0.0
 40
0.0
 40
0.0
 40
0.252373778082836
 40
0.499953332574389
 40
0.7336463795094019
 40
0.9551904667355282
 40
1.0
 40
1.0
 40
1.0
 40
1.0
 10
36.6991801482127
 20
179.405049063644
 30
0.0
 10
36.71140129185751
 20
179.1679581911538
 30
0.0
 10
36.73561141994415
 20
178.698280347739
 30
0.0
 10
36.92149107165984
 20
178.0293725883078
 30
0.0
 10
37.20101277850968
 20
177.4339445466475
 30
0.0
 10
37.45022433163498
 20
177.0330561798388
 30
0.0
 10
37.61809395544247
 20
176.8528142487605
 30
0.0
 10
37.64633520659664
 20
176.8224915642353
 30
0.0
  0
LINE
  5
12A
330
1F
100
AcDbEntity
  8
0
  6
Continuous
 62
     7
370
    15
100
AcDbLine
 10
36.6991801482127
 20
187.2839486379238
 30
0.0
 11
36.6991801482127
 21
179.405049063644
 31
0.0
  0
LINE
  5
12B
330
1F
100
AcDbEntity
  8
0
  6
Continuous
 62
     7
370
    15
100
AcDbLine
 10
64.69918101248005
 20
179.405049063644
 30
0.0
 11
64.69918101248005
 21
187.2839486379238
 31
0.0
  0
SPLINE
  5
12C
330
1F
100
AcDbEntity
  8
0
  6
Continuous
 62
     7
370
    15
100
AcDbSpline
210
0.0
220
0.0
230
1.0
 70
     8
 71
     3
 72
    12
 73
     8
 74
     0
 42
0.0000000001
 43
0.0000000001
 40
0.0
 40
0.0
 40
0.0
 40
0.0
 40
0.1399219360287741
 40
0.3835177384167739
 40
0.6314203854186414
 40
0.8815917259276385
 40
1.0
 40
1.0
 40
1.0
 40
1.0
 10
37.63960081305959
 20
189.8494219560237
 30
0.0
 10
37.55602817510213
 20
189.7510093186433
 30
0.0
 10
37.32696052486335
 20
189.4812661090294
 30
0.0
 10
37.04537154177238
 20
188.9595828990641
 30
0.0
 10
36.81493541070161
 20
188.3086653390421
 30
0.0
 10
36.69973483267551
 20
187.7385294611516
 30
0.0
 10
36.71276970687301
 20
187.3944829614482
 30
0.0
 10
36.71695723351696
 20
187.2839560885044
 30
0.0
  0
SPLINE
  5
12D
330
1F
100
AcDbEntity
  8
0
  6
Continuous
 62
     7
370
    15
100
AcDbSpline
210
0.0
220
0.0
230
1.0
 70
     8
 71
     3
 72
    12
 73
     8
 74
     0
 42
0.0000000001
 43
0.0000000001
 40
0.0
 40
0.0
 40
0.0
 40
0.0
 40
0.2569433585124419
 40
0.509005687306339
 40
0.7469300738913002
 40
0.9724855268503244
 40
1.0
 40
1.0
 40
1.0
 40
1.0
 10
64.69918101248005
 20
187.2839486379238
 30
0.0
 10
64.68694563122312
 20
187.5210260150097
 30
0.0
 10
64.66270729837738
 20
187.9906771239822
 30
0.0
 10
64.47703223045817
 20
188.6597788022382
 30
0.0
 10
64.19679039981061
 20
189.2545242602191
 30
0.0
 10
63.95824117953627
 20
189.6428600766527
 30
0.0
 10
63.80222042125096
 20
189.8116741540922
 30
0.0
 10
63.78525740620354
 20
189.8300280947299
 30
0.0
  0
SPLINE
  5
12E
330
1F
100
AcDbEntity
  8
0
  6
Continuous
 62
     7
370
    15
100
AcDbSpline
210
0.0
220
0.0
230
1.0
 70
     8
 71
     3
 72
    12
 73
     8
 74
     0
 42
0.0000000001
 43
0.0000000001
 40
0.0
 40
0.0
 40
0.0
 40
0.0
 40
0.1123920832998442
 40
0.3634822204592095
 40
0.6198411531125359
 40
0.8789407468700851
 40
0.9999999999999998
 40
0.9999999999999998
 40
0.9999999999999998
 40
0.9999999999999998
 10
37.62783168968418
 20
176.8131932396503
 30
0.0
 10
37.69067316753059
 20
176.7387812234724
 30
0.0
 10
37.89390598637261
 20
176.4981286430142
 30
0.0
 10
38.15556848500027
 20
176.008577812155
 30
0.0
 10
38.38909346293326
 20
175.3665723646268
 30
0.0
 10
38.48852661192034
 20
174.802081043826
 30
0.0
 10
38.4970376904702
 20
174.4622269162387
 30
0.0
 10
38.49974799123266
 20
174.3540024537654
 30
0.0
  0
SPLINE
  5
12F
330
1F
100
AcDbEntity
  8
0
  6
Continuous
 62
     7
370
    15
100
AcDbSpline
210
0.0
220
0.0
230
1.0
 70
     8
 71
     3
 72
    16
 73
    12
 74
     0
 42
0.0000000001
 43
0.0000000001
 40
0.0
 40
0.0
 40
0.0
 40
0.0
 40
0.0894620895406851
 40
0.2142400564996852
 40
0.3413193059665632
 40
0.4695546895967154
 40
0.6071576472425178
 40
0.7361545184095617
 40
0.8576375203086133
 40
0.9724561099121698
 40
1.0
 40
1.0
 40
1.0
 40
1.0
 10
63.79674154487112
 20
171.8581846136661
 30
0.0
 10
63.69819818463302
 20
171.9811949308646
 30
0.0
 10
63.46221068229012
 20
172.2757748746368
 30
0.0
 10
63.18525077241211
 20
172.8279676125926
 30
0.0
 10
62.97439298744809
 20
173.4821305137761
 30
0.0
 10
62.88002620200145
 20
174.1905664365764
 30
0.0
 10
62.91541921756402
 20
174.907782856548
 30
0.0
 10
63.07610933356605
 20
175.5948057252837
 30
0.0
 10
63.33880699275726
 20
176.1969959406678
 30
0.0
 10
63.58075093728077
 20
176.6080224037051
 30
0.0
 10
63.74560571540339
 20
176.7936666022724
 30
0.0
 10
63.77750135180214
 20
176.8295845169635
 30
0.0
  0
SPLINE
  5
130
330
1F
100
AcDbEntity
  8
0
  6
Continuous
 62
     7
370
    15
100
AcDbSpline
210
0.0
220
0.0
230
1.0
 70
     8
 71
     3
 72
    12
 73
     8
 74
     0
 42
0.0000000001
 43
0.0000000001
 40
0.0
 40
0.0
 40
0.0
 40
0.0
 40
0.2608575899094478
 40
0.5178426423834188
 40
0.7600462322047273
 40
0.9889676685352345
 40
0.9999999999999998
 40
0.9999999999999998
 40
0.9999999999999998
 40
0.9999999999999998
 10
38.49974799123266
 20
174.3540024537654
 30
0.0
 10
38.48762168016813
 20
174.1196937097289
 30
0.0
 10
38.46354907807825
 20
173.6545546306337
 30
0.0
 10
38.27909762251443
 20
172.9923822070873
 30
0.0
 10
38.00159255928785
 20
172.4077737089991
 30
0.0
 10
37.7750633848084
 20
172.0380622426328
 30
0.0
 10
37.63514837390117
 20
171.8858436149677
 30
0.0
 10
37.62871551480749
 20
171.8788450736614
 30
0.0
  0
SPLINE
  5
131
330
1F
100
AcDbEntity
  8
0
  6
Continuous
 62
     7
370
    15
100
AcDbSpline
210
0.0
220
0.0
230
1.0
 70
     8
 71
     3
 72
    12
 73
     8
 74
     0
 42
0.0000000001
 43
0.0000000001
 40
0.0
 40
0.0
 40
0.0
 40
0.0
 40
0.1384078058214061
 40
0.3824060044997332
 40
0.6307181622753414
 40
0.8813027612164635
 40
0.9999999999999998
 40
0.9999999999999998
 40
0.9999999999999998
 40
0.9999999999999998
 10
63.76178621467808
 20
194.8243236322017
 30
0.0
 10
63.84429905114544
 20
194.9215261140285
 30
0.0
 10
64.07227321724228
 20
195.1900862034127
 30
0.0
 10
64.35295696358214
 20
195.7104336437357
 30
0.0
 10
64.58343731591866
 20
196.3613178171125
 30
0.0
 10
64.6986349547743
 20
196.9315483095115
 30
0.0
 10
64.68559242585062
 20
197.2756814233386
 30
0.0
 10
64.68140020188549
 20
197.3862951774211
 30
0.0
  0
SPLINE
  5
132
330
1F
100
AcDbEntity
  8
0
  6
Continuous
 62
     7
370
    15
100
AcDbSpline
210
0.0
220
0.0
230
1.0
 70
     8
 71
     3
 72
    12
 73
     8
 74
     0
 42
0.0000000001
 43
0.0000000001
 40
0.0
 40
0.0
 40
0.0
 40
0.0
 40
0.2523742582571829
 40
0.4999542838014412
 40
0.7336477753682499
 40
0.9551922841111766
 40
1.0
 40
1.0
 40
1.0
 40
1.0
 10
36.6991801482127
 20
197.3860418576808
 30
0.0
 10
36.7114013526266
 20
197.1489510457669
 30
0.0
 10
36.73561160109703
 20
196.6792733223536
 30
0.0
 10
36.9214903796065
 20
196.0103646924881
 30
0.0
 10
37.20101516009456
 20
195.4149397147092
 30
0.0
 10
37.45021780331345
 20
195.0140449368334
 30
0.0
 10
37.61809386912734
 20
194.8338119224325
 30
0.0
 10
37.64633520659664
 20
194.8034918088527
 30
0.0
  0
LINE
  5
133
330
1F
100
AcDbEntity
  8
0
  6
Continuous
 62
     7
370
    15
100
AcDbLine
 10
36.6991801482127
 20
205.2301993746372
 30
0.0
 11
36.6991801482127
 21
197.3860418576808
 31
0.0
  0
LINE
  5
134
330
1F
100
AcDbEntity
  8
0
  6
Continuous
 62
     7
370
    15
100
AcDbLine
 10
64.69918101248005
 20
197.3860418576808
 30
0.0
 11
64.69918101248005
 21
205.2301993746372
 31
0.0
  0
SPLINE
  5
135
330
1F
100
AcDbEntity
  8
0
  6
Continuous
 62
     7
370
    15
100
AcDbSpline
210
0.0
220
0.0
230
1.0
 70
     8
 71
     3
 72
    13
 73
     9
 74
     0
 42
0.0000000001
 43
0.0000000001
 40
0.0
 40
0.0
 40
0.0
 40
0.0
 40
0.0286415957671156
 40
0.2840998304192835
 40
0.5242315432948763
 40
0.7512404675718069
 40
0.9665088699892024
 40
1.0
 40
1.0
 40
1.0
 40
1.0
 10
64.6928284611986
 20
205.229648031673
 30
0.0
 10
64.69488641677997
 20
205.2569686724089
 30
0.0
 10
64.71529955424728
 20
205.5279657726793
 30
0.0
 10
64.6323869927589
 20
206.0297199959775
 30
0.0
 10
64.44589839286535
 20
206.6957119582248
 30
0.0
 10
64.15177294929378
 20
207.2776613533009
 30
0.0
 10
63.90388594478224
 20
207.6616229745724
 30
0.0
 10
63.74149980842561
 20
207.830105598432
 30
0.0
 10
63.7196373489187
 20
207.8527888435932
 30
0.0
  0
SPLINE
  5
136
330
1F
100
AcDbEntity
  8
0
  6
Continuous
 62
     7
370
    15
100
AcDbSpline
210
0.0
220
0.0
230
1.0
 70
     8
 71
     3
 72
    12
 73
     8
 74
     0
 42
0.0000000001
 43
0.0000000001
 40
0.0
 40
0.0
 40
0.0
 40
0.0
 40
0.1882924433055481
 40
0.4264245824855172
 40
0.6683989633095195
 40
0.9123743004194514
 40
1.0
 40
1.0
 40
1.0
 40
1.0
 10
37.68319416013219
 20
207.8538021225543
 30
0.0
 10
37.56945306864383
 20
207.7162067592193
 30
0.0
 10
37.31186441241365
 20
207.4045954999883
 30
0.0
 10
37.01296899787795
 20
206.8346539569058
 30
0.0
 10
36.79717145870542
 20
206.1770385567955
 30
0.0
 10
36.69459020679726
 20
205.6307717745039
 30
0.0
 10
36.71136425657891
 20
205.3134427436573
 30
0.0
 10
36.71579680558898
 20
205.2295884270282
 30
0.0
  0
SPLINE
  5
137
330
1F
100
AcDbEntity
  8
0
  6
Continuous
 62
     7
370
    15
100
AcDbSpline
210
0.0
220
0.0
230
1.0
 70
     8
 71
     3
 72
    14
 73
    10
 74
     0
 42
0.0000000001
 43
0.0000000001
 40
0.0
 40
0.0
 40
0.0
 40
0.0
 40
0.0199588545517744
 40
0.2055233230335271
 40
0.3944685570306222
 40
0.5852083722384032
 40
0.7936800269009465
 40
0.9889865740876963
 40
1.0
 40
1.0
 40
1.0
 40
1.0
 10
63.53542733159521
 20
212.7012094635578
 30
0.0
 10
63.55093767686398
 20
212.7197112405856
 30
0.0
 10
63.710653140132
 20
212.910230525494
 30
0.0
 10
63.93544842760802
 20
213.3429237189881
 30
0.0
 10
64.18293610221434
 20
213.9868702346855
 30
0.0
 10
64.31468000912801
 20
214.6999732413067
 30
0.0
 10
64.30460279745966
 20
215.4272036965688
 30
0.0
 10
64.2370238561312
 20
215.9376262390446
 30
0.0
 10
64.14796521633002
 20
216.1731825317996
 30
0.0
 10
64.143211237757
 20
216.1857566017719
 30
0.0
  0
SPLINE
  5
138
330
1F
100
AcDbEntity
  8
0
  6
Continuous
 62
     7
370
    15
100
AcDbSpline
210
0.0
220
0.0
230
1.0
 70
     8
 71
     3
 72
    14
 73
    10
 74
     0
 42
0.0000000001
 43
0.0000000001
 40
0.0
 40
0.0
 40
0.0
 40
0.0
 40
0.0318750710183367
 40
0.2227302612702021
 40
0.4307486953367508
 40
0.6256608265789315
 40
0.8091603336978627
 40
0.9829349527241564
 40
1.0
 40
1.0
 40
1.0
 40
1.0
 10
37.25936788287618
 20
216.1841323752017
 30
0.0
 10
37.24596213194867
 20
216.1476020150197
 30
0.0
 10
37.15228810044963
 20
215.8923424529946
 30
0.0
 10
37.08694355602129
 20
215.3628493882631
 30
0.0
 10
37.08902982641387
 20
214.6361929261941
 30
0.0
 10
37.23162418309807
 20
213.9277184707307
 30
0.0
 10
37.48282517697202
 20
213.3024667586432
 30
0.0
 10
37.70017349495967
 20
212.8952431430718
 30
0.0
 10
37.84753197711512
 20
212.7174368783855
 30
0.0
 10
37.86070889946678
 20
212.701537289104
 30
0.0
  0
SPLINE
  5
139
330
1F
100
AcDbEntity
  8
0
  6
Continuous
 62
     7
370
    15
100
AcDbSpline
210
0.0
220
0.0
230
1.0
 70
     8
 71
     3
 72
    12
 73
     8
 74
     0
 42
0.0000000001
 43
0.0000000001
 40
0.0
 40
0.0
 40
0.0
 40
0.0
 40
0.1123921116394456
 40
0.3634823121110493
 40
0.6198413094051381
 40
0.8789409684945058
 40
0.9999999999999998
 40
0.9999999999999998
 40
0.9999999999999998
 40
0.9999999999999998
 10
37.62783168968418
 20
194.7941860336872
 30
0.0
 10
37.69067316753861
 20
194.7197740166314
 30
0.0
 10
37.8939059864066
 20
194.4791214333343
 30
0.0
 10
38.15556848464897
 20
193.9895706446042
 30
0.0
 10
38.38909346425273
 20
193.3475650143884
 30
0.0
 10
38.48852656868032
 20
192.783074482522
 30
0.0
 10
38.49703768294466
 20
192.4432197494532
 30
0.0
 10
38.49974799123266
 20
192.3349952478023
 30
0.0
  0
SPLINE
  5
13A
330
1F
100
AcDbEntity
  8
0
  6
Continuous
 62
     7
370
    15
100
AcDbSpline
210
0.0
220
0.0
230
1.0
 70
     8
 71
     3
 72
    16
 73
    12
 74
     0
 42
0.0000000001
 43
0.0000000001
 40
0.0
 40
0.0
 40
0.0
 40
0.0
 40
0.0894620980402855
 40
0.2142412411288825
 40
0.3413192433867289
 40
0.4695546392002489
 40
0.6071576099194119
 40
0.7361544933421707
 40
0.8576375067830605
 40
0.9724561072952841
 40
1.0
 40
1.0
 40
1.0
 40
1.0
 10
63.79674154487112
 20
189.839177407703
 30
0.0
 10
63.69819797800631
 20
189.9621875962298
 30
0.0
 10
63.46220869838004
 20
190.2567688327398
 30
0.0
 10
63.18525427892065
 20
190.8089649033501
 30
0.0
 10
62.97439147351713
 20
191.4631249751212
 30
0.0
 10
62.88002655523214
 20
192.1715594064853
 30
0.0
 10
62.91541912663438
 20
192.8887756053114
 30
0.0
 10
63.07610935583255
 20
193.5757985304068
 30
0.0
 10
63.33880698708545
 20
194.1779887318807
 30
0.0
 10
63.58075093754426
 20
194.5890151978732
 30
0.0
 10
63.74560571544609
 20
194.7746593963305
 30
0.0
 10
63.77750135180214
 20
194.8105773110004
 30
0.0
  0
SPLINE
  5
13B
330
1F
100
AcDbEntity
  8
0
  6
Continuous
 62
     7
370
    15
100
AcDbSpline
210
0.0
220
0.0
230
1.0
 70
     8
 71
     3
 72
    12
 73
     8
 74
     0
 42
0.0000000001
 43
0.0000000001
 40
0.0
 40
0.0
 40
0.0
 40
0.0
 40
0.2608583883973982
 40
0.5178414049363939
 40
0.7600479063312812
 40
0.9889676454845009
 40
1.0
 40
1.0
 40
1.0
 40
1.0
 10
38.49974799123266
 20
192.3349952478023
 30
0.0
 10
38.48762209860235
 20
192.1006863690505
 30
0.0
 10
38.46355045837501
 20
191.6355495578201
 30
0.0
 10
38.27909393242684
 20
190.9733795358643
 30
0.0
 10
38.00159714009009
 20
190.3887681824605
 30
0.0
 10
37.77506207345588
 20
190.0190611397804
 30
0.0
 10
37.63514837201761
 20
189.8668438610171
 30
0.0
 10
37.62871551480749
 20
189.8598453182788
 30
0.0
  0
SPLINE
  5
13C
330
1F
100
AcDbEntity
  8
0
  6
Continuous
 62
     7
370
    15
100
AcDbSpline
210
0.0
220
0.0
230
1.0
 70
     8
 71
     3
 72
    16
 73
    12
 74
     0
 42
0.0000000001
 43
0.0000000001
 40
0.0
 40
0.0
 40
0.0
 40
0.0
 40
0.0896355209050296
 40
0.2197396155973029
 40
0.3516893547793934
 40
0.4844932300565842
 40
0.6233402397910192
 40
0.7537157222742844
 40
0.8767356208697737
 40
0.9929836704910115
 40
1.0
 40
1.0
 40
1.0
 40
1.0
 10
37.84884943780162
 20
212.6943549294086
 30
0.0
 10
37.93808784907906
 20
212.5686592726613
 30
0.0
 10
38.15685395868191
 20
212.2605189838894
 30
0.0
 10
38.3989701856546
 20
211.692081894075
 30
0.0
 10
38.57031982657447
 20
211.0217361313532
 30
0.0
 10
38.61982487231167
 20
210.3127914554243
 30
0.0
 10
38.54227792847662
 20
209.6102709592628
 30
0.0
 10
38.34827191932151
 20
208.9487484773541
 30
0.0
 10
38.0601782292415
 20
208.3764873838274
 30
0.0
 10
37.82747370508031
 20
208.0137559141689
 30
0.0
 10
37.68504913791648
 20
207.8643621240418
 30
0.0
 10
37.6769421916888
 20
207.8558584827991
 30
0.0
  0
SPLINE
  5
13D
330
1F
100
AcDbEntity
  8
0
  6
Continuous
 62
     7
370
    15
100
AcDbSpline
210
0.0
220
0.0
230
1.0
 70
     8
 71
     3
 72
    16
 73
    12
 74
     0
 42
0.0000000001
 43
0.0000000001
 40
0.0
 40
0.0
 40
0.0
 40
0.0
 40
0.0457133324121027
 40
0.1731973440032488
 40
0.3037011425700227
 40
0.435828573324918
 40
0.5817293344354795
 40
0.7182826421512888
 40
0.8465178215564646
 40
0.9676408715982372
 40
1.0
 40
1.0
 40
1.0
 40
1.0
 10
63.73074616458872
 20
207.8653356213184
 30
0.0
 10
63.67887572582166
 20
207.9225769007487
 30
0.0
 10
63.48235051637626
 20
208.1394509950567
 30
0.0
 10
63.21480805056772
 20
208.5995590020077
 30
0.0
 10
62.95482454137598
 20
209.2281534986148
 30
0.0
 10
62.80532381309623
 20
209.9314270637923
 30
0.0
 10
62.78591807139267
 20
210.6610651854282
 30
0.0
 10
62.90032360885945
 20
211.3754699414756
 30
0.0
 10
63.12774458267492
 20
212.0095233429015
 30
0.0
 10
63.35127159004841
 20
212.450556815829
 30
0.0
 10
63.51344075057104
 20
212.6558423160134
 30
0.0
 10
63.54763138261297
 20
212.6991233009906
 30
0.0
  0
LINE
  5
13E
330
1F
100
AcDbEntity
  8
0
  6
Continuous
 62
     7
370
    15
100
AcDbLine
 10
37.70138102736928
 20
207.8328808922382
 30
0.0
 11
37.70439478722074
 21
207.837321438274
 31
0.0
  0
LINE
  5
13F
330
1F
100
AcDbEntity
  8
0
  6
Continuous
 62
     7
370
    15
100
AcDbLine
 10
53.69918060642341
 20
140.7148024220081
 30
0.0
 11
47.69918055426933
 21
140.7148024220081
 31
0.0
  0
SPLINE
  5
140
330
1F
100
AcDbEntity
  8
0
  6
Continuous
 62
     7
370
    15
100
AcDbSpline
210
0.0
220
0.0
230
1.0
 70
    24
 71
     3
 72
     9
 73
     5
 74
     0
 42
0.0000000001
 43
0.0000000001
 40
0.0
 40
0.0
 40
0.0
 40
0.0
 40
0.4989639699210196
 40
1.0
 40
1.0
 40
1.0
 40
1.0
 10
44.19918044623591
 20
105.4869765568586
 30
0.0
 10
44.19918044623591
 20
106.1085812757033
 30
0.0
 10
44.19918044623591
 20
107.3543720668562
 30
0.0
 10
44.19918044623591
 20
108.6092493766506
 30
0.0
 10
44.19918044623591
 20
109.2379881221862
 30
0.0
  0
ARC
  5
141
330
1F
100
AcDbEntity
  8
0
  6
Continuous
 62
     7
370
    15
100
AcDbCircle
 10
50.69918058034637
 20
109.239755787334
 30
0.0
 40
6.500001903338984
100
AcDbArc
 50
180.0
 51
239.9802024535838
  0
SPLINE
  5
142
330
1F
100
AcDbEntity
  8
0
  6
Continuous
 62
     7
370
    15
100
AcDbSpline
210
0.0
220
0.0
230
1.0
 70
     8
 71
     3
 72
     9
 73
     5
 74
     0
 42
0.0000000001
 43
0.0000000001
 40
0.0
 40
0.0
 40
0.0
 40
0.0
 40
0.4987925037394254
 40
1.0
 40
1.0
 40
1.0
 40
1.0
 10
47.44723474760212
 20
103.6117119867416
 30
0.0
 10
46.90523930730772
 20
103.9246330539025
 30
0.0
 10
45.81862425950508
 20
104.5519902511639
 30
0.0
 10
44.73986376061215
 20
105.1748130841325
 30
0.0
 10
44.1991809118972
 20
105.4869765568586
 30
0.0
  0
SPLINE
  5
143
330
1F
100
AcDbEntity
  8
0
  6
Continuous
 62
     7
370
    15
100
AcDbSpline
210
0.0
220
0.0
230
1.0
 70
     8
 71
     3
 72
     9
 73
     5
 74
     0
 42
0.0000000001
 43
0.0000000001
 40
0.0
 40
0.0
 40
0.0
 40
0.0
 40
0.4989663091306533
 40
1.0
 40
1.0
 40
1.0
 40
1.0
 10
44.19918044623591
 20
112.9925294000716
 30
0.0
 10
44.73712486229017
 20
113.3031127856298
 30
0.0
 10
45.81524257527068
 20
113.9255664059939
 30
0.0
 10
46.90122424121375
 20
114.5525571239351
 30
0.0
 10
47.44533764351763
 20
114.866700597486
 30
0.0
  0
ARC
  5
144
330
1F
100
AcDbEntity
  8
0
  6
Continuous
 62
     7
370
    15
100
AcDbCircle
 10
50.69918058034637
 20
109.239755787334
 30
0.0
 40
6.499999999999982
100
AcDbArc
 50
120.0391229970787
 51
180.0
  0
SPLINE
  5
145
330
1F
100
AcDbEntity
  8
0
  6
Continuous
 62
     7
370
    15
100
AcDbSpline
210
0.0
220
0.0
230
1.0
 70
    24
 71
     3
 72
     9
 73
     5
 74
     0
 42
0.0000000001
 43
0.0000000001
 40
0.0
 40
0.0
 40
0.0
 40
0.0
 40
0.4987903190745096
 40
1.0
 40
1.0
 40
1.0
 40
1.0
 10
44.19918044623591
 20
109.239757635078
 30
0.0
 10
44.19918044623591
 20
109.865971623302
 30
0.0
 10
44.19918044623591
 20
111.1214370248476
 30
0.0
 10
44.19918044623591
 20
112.3678267857173
 30
0.0
 10
44.19918044623591
 20
112.9925294000716
 30
0.0
  0
ARC
  5
146
330
1F
100
AcDbEntity
  8
0
  6
Continuous
 62
     7
370
    15
100
AcDbCircle
 10
50.69918058034637
 20
109.239755787334
 30
0.0
 40
6.500000000000028
100
AcDbArc
 50
0.0000000000001253
 51
59.96087700312892
  0
ARC
  5
147
330
1F
100
AcDbEntity
  8
0
  6
Continuous
 62
     7
370
    15
100
AcDbCircle
 10
50.69918058034637
 20
109.239755787334
 30
0.0
 40
6.500001902846375
100
AcDbArc
 50
299.9802150243134
 51
0.0000000000001253
  0
ARC
  5
148
330
1F
100
AcDbEntity
  8
0
  6
Continuous
 62
     7
370
    15
100
AcDbCircle
 10
50.69918058034637
 20
109.239755787334
 30
0.0
 40
6.500001903338984
100
AcDbArc
 50
239.9802024535838
 51
299.9802150243134
  0
LINE
  5
149
330
1F
100
AcDbEntity
  8
0
  6
Continuous
 62
     7
370
    15
100
AcDbLine
 10
47.45302501287915
 20
114.8711374182315
 30
0.0
 11
47.44533764351763
 21
114.866700597486
 31
0.0
  0
ARC
  5
14A
330
1F
100
AcDbEntity
  8
0
  6
Continuous
 62
     7
370
    15
100
AcDbCircle
 10
50.69918058034637
 20
109.239755787334
 30
0.0
 40
6.50000000000004
100
AcDbArc
 50
60.03912299707311
 51
119.9608770029214
  0
LINE
  5
14B
330
1F
100
AcDbEntity
  8
0
  6
Continuous
 62
     7
370
    15
100
AcDbLine
 10
53.95302351717511
 20
114.866700597486
 30
0.0
 11
53.94533614781359
 21
114.8711374182315
 31
0.0
  0
SPLINE
  5
14C
330
1F
100
AcDbEntity
  8
0
  6
Continuous
 62
     7
370
    15
100
AcDbSpline
210
0.0
220
0.0
230
1.0
 70
     8
 71
     3
 72
     9
 73
     5
 74
     0
 42
0.0000000001
 43
0.0000000001
 40
0.0
 40
0.0
 40
0.0
 40
0.0
 40
0.498966309197105
 40
1.0
 40
1.0
 40
1.0
 40
1.0
 10
50.69918058034637
 20
116.7453086156459
 30
0.0
 10
51.23712472444928
 20
116.4347252301086
 30
0.0
 10
52.3152418922567
 20
115.812271609869
 30
0.0
 10
53.40122301682757
 20
115.1852808918032
 30
0.0
 10
53.94533614781359
 20
114.8711374182315
 30
0.0
  0
SPLINE
  5
14D
330
1F
100
AcDbEntity
  8
0
  6
Continuous
 62
     7
370
    15
100
AcDbSpline
210
0.0
220
0.0
230
1.0
 70
     8
 71
     3
 72
     9
 73
     5
 74
     0
 42
0.0000000001
 43
0.0000000001
 40
0.0
 40
0.0
 40
0.0
 40
0.0
 40
0.4987943980090174
 40
1.0
 40
1.0
 40
1.0
 40
1.0
 10
47.45302501287915
 20
114.8711374182315
 30
0.0
 10
47.99470512076495
 20
115.1838777761977
 30
0.0
 10
49.0806838527795
 20
115.8108702989978
 30
0.0
 10
50.1588151396734
 20
116.4333288852226
 30
0.0
 10
50.69918058034637
 20
116.7453086156459
 30
0.0
  0
SPLINE
  5
14E
330
1F
100
AcDbEntity
  8
0
  6
Continuous
 62
     7
370
    15
100
AcDbSpline
210
0.0
220
0.0
230
1.0
 70
    24
 71
     3
 72
     9
 73
     5
 74
     0
 42
0.0000000001
 43
0.0000000001
 40
0.0
 40
0.0
 40
0.0
 40
0.0
 40
0.4989634395571119
 40
1.0
 40
1.0
 40
1.0
 40
1.0
 10
57.19918071445682
 20
112.9925294000716
 30
0.0
 10
57.19918071445682
 20
112.3706339351205
 30
0.0
 10
57.19918071445682
 20
111.1242591195566
 30
0.0
 10
57.19918071445682
 20
109.8687923746809
 30
0.0
 10
57.19918071445682
 20
109.239757635078
 30
0.0
  0
SPLINE
  5
14F
330
1F
100
AcDbEntity
  8
0
  6
Continuous
 62
     7
370
    15
100
AcDbSpline
210
0.0
220
0.0
230
1.0
 70
     8
 71
     3
 72
     9
 73
     5
 74
     0
 42
0.0000000001
 43
0.0000000001
 40
0.0
 40
0.0
 40
0.0
 40
0.0
 40
0.4987939050954455
 40
1.0
 40
1.0
 40
1.0
 40
1.0
 10
53.95302351717511
 20
114.866700597486
 30
0.0
 10
54.49470416113508
 20
114.5539619466918
 30
0.0
 10
55.5806850410665
 20
113.9269722268908
 30
0.0
 10
56.6588152717416
 20
113.3045108406822
 30
0.0
 10
57.19918071445682
 20
112.9925294000716
 30
0.0
  0
SPLINE
  5
150
330
1F
100
AcDbEntity
  8
0
  6
Continuous
 62
     7
370
    15
100
AcDbSpline
210
0.0
220
0.0
230
1.0
 70
    24
 71
     3
 72
     9
 73
     5
 74
     0
 42
0.0000000001
 43
0.0000000001
 40
0.0
 40
0.0
 40
0.0
 40
0.0
 40
0.4987910648950509
 40
0.9999999999999998
 40
0.9999999999999998
 40
0.9999999999999998
 40
0.9999999999999998
 10
57.19918071445682
 20
109.239757635078
 30
0.0
 10
57.19918071445682
 20
108.6135411600315
 30
0.0
 10
57.19918071445682
 20
107.3580726500286
 30
0.0
 10
57.19918071445682
 20
106.1116797933013
 30
0.0
 10
57.19918071445682
 20
105.4869765568586
 30
0.0
  0
SPLINE
  5
151
330
1F
100
AcDbEntity
  8
0
  6
Continuous
 62
     7
370
    15
100
AcDbSpline
210
0.0
220
0.0
230
1.0
 70
     8
 71
     3
 72
     9
 73
     5
 74
     0
 42
0.0000000001
 43
0.0000000001
 40
0.0
 40
0.0
 40
0.0
 40
0.0
 40
0.4989616224405678
 40
0.9999999999999998
 40
0.9999999999999998
 40
0.9999999999999998
 40
0.9999999999999998
 10
57.19918071445682
 20
105.4869765568586
 30
0.0
 10
56.66028277555859
 20
105.1758441214413
 30
0.0
 10
55.58024392154347
 20
104.5522842694923
 30
0.0
 10
54.49232604875135
 20
103.9241745660692
 30
0.0
 10
53.94723744284966
 20
103.6094674993367
 30
0.0
  0
SPLINE
  5
152
330
1F
100
AcDbEntity
  8
0
  6
Continuous
 62
     7
370
    15
100
AcDbSpline
210
0.0
220
0.0
230
1.0
 70
     8
 71
     3
 72
     9
 73
     5
 74
     0
 42
0.0000000001
 43
0.0000000001
 40
0.0
 40
0.0
 40
0.0
 40
0.0
 40
0.4987925861601565
 40
1.0
 40
1.0
 40
1.0
 40
1.0
 10
53.94723744284966
 20
103.6094674993367
 30
0.0
 10
53.40524168927403
 20
103.2965456819606
 30
0.0
 10
52.31862619294506
 20
102.6691870843014
 30
0.0
 10
51.23986434134264
 20
102.0463644089622
 30
0.0
 10
50.69918090355192
 20
101.7342010665746
 30
0.0
  0
SPLINE
  5
153
330
1F
100
AcDbEntity
  8
0
  6
Continuous
 62
     7
370
    15
100
AcDbSpline
210
0.0
220
0.0
230
1.0
 70
     8
 71
     3
 72
     9
 73
     5
 74
     0
 42
0.0000000001
 43
0.0000000001
 40
0.0
 40
0.0
 40
0.0
 40
0.0
 40
0.4989617897435455
 40
1.0
 40
1.0
 40
1.0
 40
1.0
 10
50.69918073340069
 20
101.7342010665746
 30
0.0
 10
50.16028233606996
 20
102.0453342253839
 30
0.0
 10
49.0802429254215
 20
102.6688953180462
 30
0.0
 10
47.99232379940513
 20
103.2970050238839
 30
0.0
 10
47.44723474760212
 20
103.6117119867416
 30
0.0
  0
LINE
  5
154
330
1F
100
AcDbEntity
  8
0
  6
Continuous
 62
     7
370
    15
100
AcDbLine
 10
58.40628746119001
 20
127.364952691278
 30
0.0
 11
51.87075341273704
 21
133.8935835439773
 31
0.0
  0
ARC
  5
155
330
1F
100
AcDbEntity
  8
0
  6
Continuous
 62
     7
370
    15
100
AcDbCircle
 10
54.69286227069311
 20
136.719392308147
 30
0.0
 40
3.993681707123474
100
AcDbArc
 50
180.0052517559253
 51
225.0375340071334
  0
LINE
  5
156
330
1F
100
AcDbEntity
  8
0
  6
Continuous
 62
     7
370
    15
100
AcDbLine
 10
50.69918058034638
 20
136.7190262455554
 30
0.0
 11
50.69918058034638
 21
140.7148024220081
 31
0.0
  0
LINE
  5
157
330
1F
100
AcDbEntity
  8
0
  6
Continuous
 62
     7
370
    15
100
AcDbLine
 10
53.69918060642341
 20
136.7190262455554
 30
0.0
 11
53.69918060642341
 21
140.7148024220081
 31
0.0
  0
ARC
  5
158
330
1F
100
AcDbEntity
  8
0
  6
Continuous
 62
     7
370
    15
100
AcDbCircle
 10
54.69758303368666
 20
136.7191112889949
 30
0.0
 40
0.9984024308852578
100
AcDbArc
 50
180.0048804269813
 51
225.0379668507794
  0
LINE
  5
159
330
1F
100
AcDbEntity
  8
0
  6
Continuous
 62
     7
370
    15
100
AcDbLine
 10
53.99207387272873
 20
136.0126665014835
 30
0.0
 11
60.52760745552042
 21
129.4840319234939
 31
0.0
  0
ARC
  5
15A
330
1F
100
AcDbEntity
  8
0
  6
Continuous
 62
     7
370
    15
100
AcDbCircle
 10
57.70551108498069
 20
126.6582280076676
 30
0.0
 40
3.993669452435032
100
AcDbArc
 50
0.0052356599884797
 51
45.0376116177676
  0
ARC
  5
15B
330
1F
100
AcDbEntity
  8
0
  6
Continuous
 62
     7
370
    15
100
AcDbCircle
 10
57.70075143300368
 20
126.658496434122
 30
0.0
 40
0.9984295319870176
100
AcDbArc
 50
0.0055384904142501
 51
45.03734101753283
  0
LINE
  5
15C
330
1F
100
AcDbEntity
  8
0
  6
Continuous
 62
     7
370
    15
100
AcDbLine
 10
61.69918052074173
 20
126.658592947206
 30
0.0
 11
61.69918052074173
 21
120.8587071079822
 31
0.0
  0
LINE
  5
15D
330
1F
100
AcDbEntity
  8
0
  6
Continuous
 62
     7
370
    15
100
AcDbLine
 10
58.69918096032598
 20
123.096161164722
 30
0.0
 11
58.69918096032598
 21
126.658592947206
 31
0.0
  0
ARC
  5
15E
330
1F
100
AcDbEntity
  8
0
  6
Continuous
 62
     7
370
    15
100
AcDbCircle
 10
57.70075536278976
 20
125.9693640618839
 30
0.0
 40
0.9984256020447794
100
AcDbArc
 50
0.0054450018768526
 51
45.03743450607086
  0
LINE
  5
15F
330
1F
100
AcDbEntity
  8
0
  6
Continuous
 62
     7
370
    15
100
AcDbLine
 10
51.87075341273704
 20
133.2044532675357
 30
0.0
 11
58.40628746119001
 21
126.6758186895461
 31
0.0
  0
ARC
  5
160
330
1F
100
AcDbEntity
  8
0
  6
Continuous
 62
     7
370
    15
100
AcDbCircle
 10
54.69285108079983
 20
136.0302573922833
 30
0.0
 40
3.993670517146567
100
AcDbArc
 50
180.005238655913
 51
225.0376005642968
  0
ARC
  5
161
330
1F
100
AcDbEntity
  8
0
  6
Continuous
 62
     7
370
    15
100
AcDbCircle
 10
43.69285007571204
 20
126.6582280076676
 30
0.0
 40
3.993669452435025
100
AcDbArc
 50
134.9623883822323
 51
179.9947643400115
  0
LINE
  5
162
330
1F
100
AcDbEntity
  8
0
  6
Continuous
 62
     7
370
    15
100
AcDbLine
 10
47.40628728796401
 20
136.0126665014835
 30
0.0
 11
40.87075370517232
 21
129.4840319234939
 31
0.0
  0
ARC
  5
163
330
1F
100
AcDbEntity
  8
0
  6
Continuous
 62
     7
370
    15
100
AcDbCircle
 10
46.70077812700608
 20
136.7191112889949
 30
0.0
 40
0.9984024308852578
100
AcDbArc
 50
314.9620331492221
 51
359.9951195730203
  0
LINE
  5
164
330
1F
100
AcDbEntity
  8
0
  6
Continuous
 62
     7
370
    15
100
AcDbLine
 10
47.69918055426933
 20
136.7190262455554
 30
0.0
 11
47.69918055426933
 21
140.7148024220081
 31
0.0
  0
ARC
  5
165
330
1F
100
AcDbEntity
  8
0
  6
Continuous
 62
     7
370
    15
100
AcDbCircle
 10
46.70549888999929
 20
136.7193923081472
 30
0.0
 40
3.993681707123837
100
AcDbArc
 50
314.9624659928698
 51
359.9947482440737
  0
LINE
  5
166
330
1F
100
AcDbEntity
  8
0
  6
Continuous
 62
     7
370
    15
100
AcDbLine
 10
42.99207369950273
 20
127.364952691278
 30
0.0
 11
49.52760774795571
 21
133.8935835439773
 31
0.0
  0
ARC
  5
167
330
1F
100
AcDbEntity
  8
0
  6
Continuous
 62
     7
370
    15
100
AcDbCircle
 10
43.69760972768906
 20
126.658496434122
 30
0.0
 40
0.9984295319870176
100
AcDbArc
 50
134.9626589824671
 51
179.9944615095857
  0
LINE
  5
168
330
1F
100
AcDbEntity
  8
0
  6
Continuous
 62
     7
370
    15
100
AcDbLine
 10
42.69918020036675
 20
123.096161164722
 30
0.0
 11
42.69918020036675
 21
126.658592947206
 31
0.0
  0
LINE
  5
169
330
1F
100
AcDbEntity
  8
0
  6
Continuous
 62
     7
370
    15
100
AcDbLine
 10
39.69918063995102
 20
126.658592947206
 30
0.0
 11
39.69918063995102
 21
120.8587071079822
 31
0.0
  0
ARC
  5
16A
330
1F
100
AcDbEntity
  8
0
  6
Continuous
 62
     7
370
    15
100
AcDbCircle
 10
43.69760579790297
 20
125.9693640618839
 30
0.0
 40
0.9984256020447745
100
AcDbArc
 50
134.9625654939288
 51
179.9945549981231
  0
LINE
  5
16B
330
1F
100
AcDbEntity
  8
0
  6
Continuous
 62
     7
370
    15
100
AcDbLine
 10
49.52760774795571
 20
133.2044532675357
 30
0.0
 11
42.99207369950273
 21
126.6758186895461
 31
0.0
  0
ARC
  5
16C
330
1F
100
AcDbEntity
  8
0
  6
Continuous
 62
     7
370
    15
100
AcDbCircle
 10
46.70551007989256
 20
136.0302573922834
 30
0.0
 40
3.993670517146929
100
AcDbArc
 50
314.9623994357065
 51
359.9947613440861
  0
CIRCLE
  5
16D
330
1F
100
AcDbEntity
  8
0
  6
Continuous
 62
     7
370
    15
100
AcDbCircle
 10
50.69918058034637
 20
109.239755787334
 30
0.0
 40
8.449999999999995
  0
CIRCLE
  5
16E
330
1F
100
AcDbEntity
  8
0
  6
Continuous
 62
     7
370
    15
100
AcDbCircle
 10
50.69918058034637
 20
109.239755787334
 30
0.0
 40
9.950000000000002
  0
ARC
  5
16F
330
1F
100
AcDbEntity
  8
0
  6
Continuous
 62
     7
370
    15
100
AcDbCircle
 10
50.69918058034637
 20
109.239755787334
 30
0.0
 40
15.99999999999999
100
AcDbArc
 50
45.0000000000001
 51
134.9999999999998
  0
LINE
  5
170
330
1F
100
AcDbEntity
  8
0
  6
Continuous
 62
     7
370
    15
100
AcDbLine
 10
77.73471496221282
 20
104.8316383887143
 30
0.0
 11
62.01288907942036
 21
120.5534642715068
 31
0.0
  0
ARC
  5
171
330
1F
100
AcDbEntity
  8
0
  6
Continuous
 62
     7
370
    15
100
AcDbCircle
 10
74.19918058034636
 20
101.2961049734381
 30
0.0
 40
5.00000000000002
100
AcDbArc
 50
0.0
 51
45.0
  0
LINE
  5
172
330
1F
100
AcDbEntity
  8
0
  6
Continuous
 62
     7
370
    15
100
AcDbLine
 10
79.19918059524753
 20
101.2961050648303
 30
0.0
 11
79.19918059524753
 21
82.23975600340088
 31
0.0
  0
LINE
  5
173
330
1F
100
AcDbEntity
  8
0
  6
Continuous
 62
     7
370
    15
100
AcDbLine
 10
22.19918056544521
 20
101.2961050648303
 30
0.0
 11
22.19918056544521
 21
82.23975600340088
 31
0.0
  0
ARC
  5
174
330
1F
100
AcDbEntity
  8
0
  6
Continuous
 62
     7
370
    15
100
AcDbCircle
 10
27.19918058034637
 20
101.2961049734381
 30
0.0
 40
5.000000000000007
100
AcDbArc
 50
134.9999999999998
 51
180.0
  0
LINE
  5
175
330
1F
100
AcDbEntity
  8
0
  6
Continuous
 62
     7
370
    15
100
AcDbLine
 10
23.66364619847991
 20
104.8316383887143
 30
0.0
 11
39.38547208127239
 21
120.5534642715068
 31
0.0
  0
CIRCLE
  5
176
330
1F
100
AcDbEntity
  8
0
  6
Continuous
 62
     7
370
    15
100
AcDbCircle
 10
50.69918058034637
 20
109.239755787334
 30
0.0
 40
10.15000000000001
  0
LINE
  5
177
330
1F
100
AcDbEntity
  8
0
  6
Continuous
 62
     7
370
    15
100
AcDbLine
 10
79.19918059524753
 20
75.23975578733405
 30
0.0
 11
22.19918056544521
 21
75.23975578733405
 31
0.0
  0
LINE
  5
178
330
1F
100
AcDbEntity
  8
0
  6
Continuous
 62
     7
370
    15
100
AcDbLine
 10
79.19918059524753
 20
82.23975600340088
 30
0.0
 11
79.19918059524753
 21
75.23975578733405
 31
0.0
  0
LINE
  5
179
330
1F
100
AcDbEntity
  8
0
  6
Continuous
 62
     7
370
    15
100
AcDbLine
 10
22.19918056544521
 20
75.23975578733405
 30
0.0
 11
22.19918056544521
 21
82.23975600340088
 31
0.0
  0
SPLINE
  5
17A
330
1F
100
AcDbEntity
  8
0
  6
Continuous
 62
     7
370
    15
100
AcDbSpline
210
0.0
220
0.0
230
1.0
 70
     8
 71
     3
 72
    31
 73
    27
 74
     0
 42
0.0000000001
 43
0.0000000001
 40
0.0
 40
0.0
 40
0.0
 40
0.0
 40
0.0462565248575069
 40
0.0657676713898571
 40
0.0984164959045979
 40
0.1330751258440964
 40
0.1708783894186495
 40
0.210898710944765
 40
0.2526152383660476
 40
0.2955764753219402
 40
0.3394362955444053
 40
0.3839405039665653
 40
0.4289083970543581
 40
0.4742141681832882
 40
0.5197708003697602
 40
0.5655185842396052
 40
0.6114168308513961
 40
0.6574378315333714
 40
0.7035641399586377
 40
0.7497854056737419
 40
0.7960988365431106
 40
0.8425064983777906
 40
0.8890180286666144
 40
0.9356504960195161
 40
0.9824324290965293
 40
1.0
 40
1.0
 40
1.0
 40
1.0
 10
381.344484403543
 20
221.5801855702014
 30
0.0
 10
381.0294688744208
 20
221.9168631386923
 30
0.0
 10
380.5815788120817
 20
222.3955523562039
 30
0.0
 10
379.8462560285515
 20
223.0443888228491
 30
0.0
 10
379.1688648090017
 20
223.5826449085343
 30
0.0
 10
378.3030546054891
 20
224.1727358933411
 30
0.0
 10
377.330614668102
 20
224.7311721217608
 30
0.0
 10
376.2512553878885
 20
225.2368154100325
 30
0.0
 10
375.0835524311531
 20
225.6642534923481
 30
0.0
 10
373.8449333226417
 20
225.9944293656845
 30
0.0
 10
372.5535868220321
 20
226.2132024887201
 30
0.0
 10
371.2273623706335
 20
226.3108844279909
 30
0.0
 10
369.8834047525469
 20
226.2813387458003
 30
0.0
 10
368.5380743184192
 20
226.1213528469093
 30
0.0
 10
367.206932044098
 20
225.8302006125251
 30
0.0
 10
365.9047970915147
 20
225.4090741728579
 30
0.0
 10
364.6457682051516
 20
224.8609073523718
 30
0.0
 10
363.443177865608
 20
224.1902159214269
 30
0.0
 10
362.3096066524579
 20
223.4028150586182
 30
0.0
 10
361.2568308208522
 20
222.5057864045295
 30
0.0
 10
360.2955485202162
 20
221.5073047102266
 30
0.0
 10
359.4364497983605
 20
220.4162891978389
 30
0.0
 10
358.6855559960584
 20
219.2434755824633
 30
0.0
 10
358.0618750337013
 20
217.9963026452233
 30
0.0
 10
357.6420682607878
 20
216.969522749374
 30
0.0
 10
357.4791028815029
 20
216.3494734371089
 30
0.0
 10
357.4346129370852
 20
216.1801984686466
 30
0.0
  0
SPLINE
  5
17B
330
1F
100
AcDbEntity
  8
0
  6
Continuous
 62
     7
370
    15
100
AcDbSpline
210
0.0
220
0.0
230
1.0
 70
     8
 71
     3
 72
    13
 73
     9
 74
     0
 42
0.0000000001
 43
0.0000000001
 40
0.0
 40
0.0
 40
0.0
 40
0.0
 40
0.1876418980094411
 40
0.3910077539967686
 40
0.5777588610634199
 40
0.7042128872872615
 40
0.8428127901859399
 40
0.9999999999999998
 40
0.9999999999999998
 40
0.9999999999999998
 40
0.9999999999999998
 10
384.3104161841793
 20
216.1848774332614
 30
0.0
 10
384.1955244624098
 20
216.5559904007673
 30
0.0
 10
383.9561133577553
 20
217.3293147459316
 30
0.0
 10
383.4712787628755
 20
218.4247688181483
 30
0.0
 10
382.9635374951243
 20
219.3663322068683
 30
0.0
 10
382.4610606928006
 20
220.1550571042139
 30
0.0
 10
381.9522703125354
 20
220.8662741711562
 30
0.0
 10
381.5553929836716
 20
221.3324502455049
 30
0.0
 10
381.344484403543
 20
221.5801855702014
 30
0.0
  0
SPLINE
  5
17C
330
1F
100
AcDbEntity
  8
0
  6
Continuous
 62
     7
370
    15
100
AcDbSpline
210
0.0
220
0.0
230
1.0
 70
     8
 71
     3
 72
    13
 73
     9
 74
     0
 42
0.0000000001
 43
0.0000000001
 40
0.0
 40
0.0
 40
0.0
 40
0.0
 40
0.1230296576367398
 40
0.310983891161708
 40
0.5013271589105043
 40
0.6928449017593135
 40
0.8942711633304217
 40
1.0
 40
1.0
 40
1.0
 40
1.0
 10
383.6996920926495
 20
212.7070209164234
 30
0.0
 10
383.787415264301
 20
212.8280031276143
 30
0.0
 10
384.0091544269489
 20
213.133811658014
 30
0.0
 10
384.2559124749305
 20
213.6984820151633
 30
0.0
 10
384.4385487099876
 20
214.3723682184475
 30
0.0
 10
384.4936674736594
 20
215.0850566447159
 30
0.0
 10
384.4502270974818
 20
215.6989118590364
 30
0.0
 10
384.3395398852092
 20
216.0575077542011
 30
0.0
 10
384.3014391658826
 20
216.1809435267063
 30
0.0
  0
SPLINE
  5
17D
330
1F
100
AcDbEntity
  8
0
  6
Continuous
 62
     7
370
    15
100
AcDbSpline
210
0.0
220
0.0
230
1.0
 70
     8
 71
     3
 72
    13
 73
     9
 74
     0
 42
0.0000000001
 43
0.0000000001
 40
0.0
 40
0.0
 40
0.0
 40
0.0
 40
0.1451163698904565
 40
0.3366706438649141
 40
0.5371426426034107
 40
0.7255491284984469
 40
0.9036265484607795
 40
0.9999999999999998
 40
0.9999999999999998
 40
0.9999999999999998
 40
0.9999999999999998
 10
357.4300215167923
 20
216.1809137243839
 30
0.0
 10
357.3827920522621
 20
216.0098453295773
 30
0.0
 10
357.2732194778875
 20
215.6129658688525
 30
0.0
 10
357.2422291446765
 20
214.9520739224755
 30
0.0
 10
357.3204960084363
 20
214.2440828754625
 30
0.0
 10
357.5253059813328
 20
213.5807468382164
 30
0.0
 10
357.7670419460842
 20
213.0662117008512
 30
0.0
 10
357.9659279257719
 20
212.7991798519946
 30
0.0
 10
358.0357667578383
 20
212.7054115910144
 30
0.0
  0
SPLINE
  5
17E
330
1F
100
AcDbEntity
  8
0
  6
Continuous
 62
     7
370
    15
100
AcDbSpline
210
0.0
220
0.0
230
1.0
 70
     8
 71
     3
 72
    16
 73
    12
 74
     0
 42
0.0000000001
 43
0.0000000001
 40
0.0
 40
0.0
 40
0.0
 40
0.0
 40
0.0056403830845846
 40
0.1334355527815004
 40
0.2641123243689388
 40
0.3963184936399677
 40
0.5414811250487938
 40
0.6773834186831819
 40
0.8050806483026203
 40
0.9257153461357013
 40
1.0
 40
1.0
 40
1.0
 40
1.0
 10
358.024286344461
 20
212.7030274052234
 30
0.0
 10
358.0304283305407
 20
212.6956972108831
 30
0.0
 10
358.1757303952097
 20
212.5222854905907
 30
0.0
 10
358.3913999091798
 20
212.1091087343431
 30
0.0
 10
358.6396520719605
 20
211.4760675256571
 30
0.0
 10
358.7709460103949
 20
210.7692598203677
 30
0.0
 10
358.7732840251161
 20
210.0417544098542
 30
0.0
 10
358.6424011799813
 20
209.3341278069865
 30
0.0
 10
358.4042299999474
 20
208.7063272470886
 30
0.0
 10
358.1310659099194
 20
208.2130571823384
 30
0.0
 10
357.9173778266464
 20
207.9594847411548
 30
0.0
 10
357.8359403235837
 20
207.862847127399
 30
0.0
  0
SPLINE
  5
17F
330
1F
100
AcDbEntity
  8
0
  6
Continuous
 62
     7
370
    15
100
AcDbSpline
210
0.0
220
0.0
230
1.0
 70
     8
 71
     3
 72
    15
 73
    11
 74
     0
 42
0.0000000001
 43
0.0000000001
 40
0.0
 40
0.0
 40
0.0
 40
0.0
 40
0.0836738740464808
 40
0.211976607046327
 40
0.3429274208838535
 40
0.475254198428242
 40
0.6190797908932008
 40
0.7538051884225087
 40
0.8805234556945068
 40
1.0
 40
1.0
 40
1.0
 40
1.0
 10
383.8982090873642
 20
207.8593155521961
 30
0.0
 10
383.8068518350788
 20
207.9683996677249
 30
0.0
 10
383.5754104133777
 20
208.2447497346481
 30
0.0
 10
383.2939218474612
 20
208.7751265287692
 30
0.0
 10
383.0668652592513
 20
209.4212594589373
 30
0.0
 10
382.9540626692669
 20
210.1287786010141
 30
0.0
 10
382.9708769231172
 20
210.852806037301
 30
0.0
 10
383.119979658051
 20
211.5488245783557
 30
0.0
 10
383.3639848260275
 20
212.1715799067798
 30
0.0
 10
383.5960409365188
 20
212.5279719064738
 30
0.0
 10
383.7086560724302
 20
212.7009263414951
 30
0.0
  0
SPLINE
  5
180
330
1F
100
AcDbEntity
  8
0
  6
Continuous
 62
     7
370
    15
100
AcDbSpline
210
0.0
220
0.0
230
1.0
 70
     8
 71
     3
 72
    12
 73
     8
 74
     0
 42
0.0000000001
 43
0.0000000001
 40
0.0
 40
0.0
 40
0.0
 40
0.0
 40
0.1813722005687132
 40
0.4284110917939396
 40
0.6612530548496406
 40
0.8818942587028775
 40
1.0
 40
1.0
 40
1.0
 40
1.0
 10
384.8512379972263
 20
205.2312722582431
 30
0.0
 10
384.8507616494371
 20
205.4052100097705
 30
0.0
 10
384.8496364898159
 20
205.8160605249121
 30
0.0
 10
384.6998095664184
 20
206.4372102868102
 30
0.0
 10
384.445501245197
 20
207.0563335503732
 30
0.0
 10
384.166797651532
 20
207.5296291270229
 30
0.0
 10
383.9545779980062
 20
207.76945539218
 30
0.0
 10
383.8805866016074
 20
207.8530719656559
 30
0.0
  0
SPLINE
  5
181
330
1F
100
AcDbEntity
  8
0
  6
Continuous
 62
     7
370
    15
100
AcDbSpline
210
0.0
220
0.0
230
1.0
 70
     8
 71
     3
 72
    13
 73
     9
 74
     0
 42
0.0000000001
 43
0.0000000001
 40
0.0
 40
0.0
 40
0.0
 40
0.0
 40
0.0216708324719006
 40
0.25506349837781
 40
0.4943516164488776
 40
0.7370369846964535
 40
0.9814439961442859
 40
1.0
 40
1.0
 40
1.0
 40
1.0
 10
357.8461606575175
 20
207.8539660353275
 30
0.0
 10
357.8318472004135
 20
207.8394867759587
 30
0.0
 10
357.663379263265
 20
207.6690673629849
 30
0.0
 10
357.4075962668352
 20
207.2669931509674
 30
0.0
 10
357.1029977648143
 20
206.6550322368468
 30
0.0
 10
356.9267803311576
 20
205.9823592389566
 30
0.0
 10
356.8489109912742
 20
205.4977345119048
 30
0.0
 10
356.8704172548409
 20
205.2471098605801
 30
0.0
 10
356.8719348458572
 20
205.2294245142551
 30
0.0
  0
LINE
  5
182
330
1F
100
AcDbEntity
  8
0
  6
Continuous
 62
     7
370
    15
100
AcDbLine
 10
356.867333181016
 20
205.2301993746372
 30
0.0
 11
356.867333181016
 21
197.3860418576808
 31
0.0
  0
LINE
  5
183
330
1F
100
AcDbEntity
  8
0
  6
Continuous
 62
     7
370
    15
100
AcDbLine
 10
384.8673340452834
 20
197.3860418576808
 30
0.0
 11
384.8673340452834
 21
205.2301993746372
 31
0.0
  0
SPLINE
  5
184
330
1F
100
AcDbEntity
  8
0
  6
Continuous
 62
     7
370
    15
100
AcDbSpline
210
0.0
220
0.0
230
1.0
 70
     8
 71
     3
 72
    12
 73
     8
 74
     0
 42
0.0000000001
 43
0.0000000001
 40
0.0
 40
0.0
 40
0.0
 40
0.0
 40
0.0383997307803092
 40
0.2775881514951808
 40
0.5222298522360254
 40
0.7699274724898333
 40
1.0
 40
1.0
 40
1.0
 40
1.0
 10
383.9198092518373
 20
194.8030075211139
 30
0.0
 10
383.9442666403719
 20
194.8287174075296
 30
0.0
 10
384.1210668714087
 20
195.0145718315123
 30
0.0
 10
384.378808746276
 20
195.436614782521
 30
0.0
 10
384.6635406336241
 20
196.0592928630048
 30
0.0
 10
384.8358563916778
 20
196.7211169532158
 30
0.0
 10
384.8571027557919
 20
197.1699190401134
 30
0.0
 10
384.8673340452834
 20
197.3860418576808
 30
0.0
  0
SPLINE
  5
185
330
1F
100
AcDbEntity
  8
0
  6
Continuous
 62
     7
370
    15
100
AcDbSpline
210
0.0
220
0.0
230
1.0
 70
     8
 71
     3
 72
    12
 73
     8
 74
     0
 42
0.0000000001
 43
0.0000000001
 40
0.0
 40
0.0
 40
0.0
 40
0.0
 40
0.1541921176378995
 40
0.4098284544754027
 40
0.6505219116740074
 40
0.8784787846264311
 40
1.0
 40
1.0
 40
1.0
 40
1.0
 10
356.8851102663203
 20
197.3860493082614
 30
0.0
 10
356.8826080635676
 20
197.2422491691896
 30
0.0
 10
356.8759574389921
 20
196.8600416371057
 30
0.0
 10
357.0094685555735
 20
196.2626014239542
 30
0.0
 10
357.2513513693161
 20
195.6344073696179
 30
0.0
 10
357.5219977310932
 20
195.1531995300066
 30
0.0
 10
357.7306199077265
 20
194.9082251207511
 30
0.0
 10
357.8031624255701
 20
194.823042132339
 30
0.0
  0
SPLINE
  5
186
330
1F
100
AcDbEntity
  8
0
  6
Continuous
 62
     7
370
    15
100
AcDbSpline
210
0.0
220
0.0
230
1.0
 70
     8
 71
     3
 72
    12
 73
     8
 74
     0
 42
0.0000000001
 43
0.0000000001
 40
0.0
 40
0.0
 40
0.0
 40
0.0
 40
0.0207439158151476
 40
0.264324043389022
 40
0.5134575779399256
 40
0.7657031413365332
 40
1.0
 40
1.0
 40
1.0
 40
1.0
 10
357.7807650489731
 20
189.8304229755016
 30
0.0
 10
357.7678487470496
 20
189.816728831332
 30
0.0
 10
357.6032660722801
 20
189.6422347006227
 30
0.0
 10
357.3565003698869
 20
189.2327556775219
 30
0.0
 10
357.0709509567972
 20
188.6108672886367
 30
0.0
 10
356.8988513273902
 20
187.9488344282698
 30
0.0
 10
356.8775776320107
 20
187.5000587420952
 30
0.0
 10
356.867333181016
 20
187.2839486379238
 30
0.0
  0
SPLINE
  5
187
330
1F
100
AcDbEntity
  8
0
  6
Continuous
 62
     7
370
    15
100
AcDbSpline
210
0.0
220
0.0
230
1.0
 70
     8
 71
     3
 72
    12
 73
     8
 74
     0
 42
0.0000000001
 43
0.0000000001
 40
0.0
 40
0.0
 40
0.0
 40
0.0
 40
0.1538375966681147
 40
0.4090407261637609
 40
0.649328746078969
 40
0.8768970618363988
 40
1.0
 40
1.0
 40
1.0
 40
1.0
 10
384.8495532346888
 20
187.2842019576641
 30
0.0
 10
384.8520530264283
 20
187.4279152472044
 30
0.0
 10
384.8586997542146
 20
187.8100363254464
 30
0.0
 10
384.72518473144
 20
188.4073824549976
 30
0.0
 10
384.4833530252575
 20
189.0356148387924
 30
0.0
 10
384.2117539210069
 20
189.5181757488461
 30
0.0
 10
384.0020132710293
 20
189.7643619060679
 30
0.0
 10
383.9283839387818
 20
189.850785412273
 30
0.0
  0
LINE
  5
188
330
1F
100
AcDbEntity
  8
0
  6
Continuous
 62
     7
370
    15
100
AcDbLine
 10
356.867333181016
 20
187.2839486379238
 30
0.0
 11
356.867333181016
 21
179.405049063644
 31
0.0
  0
LINE
  5
189
330
1F
100
AcDbEntity
  8
0
  6
Continuous
 62
     7
370
    15
100
AcDbLine
 10
384.8673340452834
 20
179.405049063644
 30
0.0
 11
384.8673340452834
 21
187.2839486379238
 31
0.0
  0
SPLINE
  5
18A
330
1F
100
AcDbEntity
  8
0
  6
Continuous
 62
     7
370
    15
100
AcDbSpline
210
0.0
220
0.0
230
1.0
 70
     8
 71
     3
 72
    12
 73
     8
 74
     0
 42
0.0000000001
 43
0.0000000001
 40
0.0
 40
0.0
 40
0.0
 40
0.0
 40
0.0383997294213408
 40
0.2775883558041366
 40
0.5222298691443345
 40
0.7699274806321114
 40
0.9999999999999998
 40
0.9999999999999998
 40
0.9999999999999998
 40
0.9999999999999998
 10
383.9198092518373
 20
176.8220147270771
 30
0.0
 10
383.9442666421718
 20
176.8477246169583
 30
0.0
 10
384.1210670226044
 20
177.0335792093626
 30
0.0
 10
384.3788083508054
 20
177.45562126982
 30
0.0
 10
384.6635408033174
 20
178.0783004612083
 30
0.0
 10
384.8358563623846
 20
178.7401241065011
 30
0.0
 10
384.8571027462707
 20
179.1889262289545
 30
0.0
 10
384.8673340452834
 20
179.405049063644
 30
0.0
  0
SPLINE
  5
18B
330
1F
100
AcDbEntity
  8
0
  6
Continuous
 62
     7
370
    15
100
AcDbSpline
210
0.0
220
0.0
230
1.0
 70
     8
 71
     3
 72
    12
 73
     8
 74
     0
 42
0.0000000001
 43
0.0000000001
 40
0.0
 40
0.0
 40
0.0
 40
0.0
 40
0.1541920880784181
 40
0.4098283759090223
 40
0.6505242386231119
 40
0.8784788079227201
 40
1.0
 40
1.0
 40
1.0
 40
1.0
 10
356.8851102663203
 20
179.4050565142246
 30
0.0
 10
356.8826080051931
 20
179.261256346627
 30
0.0
 10
356.8759572254635
 20
178.8790487387244
 30
0.0
 10
357.0094705626863
 20
178.2816071132378
 30
0.0
 10
357.2513473230954
 20
177.6534098609593
 30
0.0
 10
357.5219996386771
 20
177.1722054848682
 30
0.0
 10
357.7306200518235
 20
176.9272324126472
 30
0.0
 10
357.8031624255701
 20
176.8420493383022
 30
0.0
  0
SPLINE
  5
18C
330
1F
100
AcDbEntity
  8
0
  6
Continuous
 62
     7
370
    15
100
AcDbSpline
210
0.0
220
0.0
230
1.0
 70
     8
 71
     3
 72
    12
 73
     8
 74
     0
 42
0.0000000001
 43
0.0000000001
 40
0.0
 40
0.0
 40
0.0
 40
0.0
 40
0.1172711010727876
 40
0.3669810418427766
 40
0.6219308165051306
 40
0.8796061873607422
 40
1.0
 40
1.0
 40
1.0
 40
1.0
 10
383.9477181954308
 20
189.8646062392803
 30
0.0
 10
383.8817337543932
 20
189.9426288083501
 30
0.0
 10
383.6752460630872
 20
190.1867878843933
 30
0.0
 10
383.4108379986908
 20
190.6803193831842
 30
0.0
 10
383.1774507737443
 20
191.3224533708497
 30
0.0
 10
383.0779844824048
 20
191.8869137658417
 30
0.0
 10
383.0694757544829
 20
192.2267700868482
 30
0.0
 10
383.0667662022634
 20
192.3349952478023
 30
0.0
  0
SPLINE
  5
18D
330
1F
100
AcDbEntity
  8
0
  6
Continuous
 62
     7
370
    15
100
AcDbSpline
210
0.0
220
0.0
230
1.0
 70
     8
 71
     3
 72
    16
 73
    12
 74
     0
 42
0.0000000001
 43
0.0000000001
 40
0.0
 40
0.0
 40
0.0
 40
0.0
 40
0.0846800801869766
 40
0.2094042738519776
 40
0.3364287582829335
 40
0.4646088786390231
 40
0.6021525360375383
 40
0.7310938157660672
 40
0.8525244643423627
 40
0.9672935726638806
 40
1.0
 40
1.0
 40
1.0
 40
1.0
 10
357.7848787007852
 20
194.8107561249347
 30
0.0
 10
357.8780934140943
 20
194.6941859070396
 30
0.0
 10
358.1086028716868
 20
194.4059209245644
 30
0.0
 10
358.3811212202109
 20
193.8609117582077
 30
0.0
 10
358.5921612093788
 20
193.2068980189858
 30
0.0
 10
358.6864712910065
 20
192.4984275877351
 30
0.0
 10
358.6511192634518
 20
191.7811947111143
 30
0.0
 10
358.490331840213
 20
191.0942676434209
 30
0.0
 10
358.2279544620317
 20
190.4917413321722
 30
0.0
 10
357.9804092127931
 20
190.0735512340655
 30
0.0
 10
357.8092313664613
 20
189.8815011474025
 30
0.0
 10
357.7712683526798
 20
189.8389091868015
 30
0.0
  0
SPLINE
  5
18E
330
1F
100
AcDbEntity
  8
0
  6
Continuous
 62
     7
370
    15
100
AcDbSpline
210
0.0
220
0.0
230
1.0
 70
     8
 71
     3
 72
    12
 73
     8
 74
     0
 42
0.0000000001
 43
0.0000000001
 40
0.0
 40
0.0
 40
0.0
 40
0.0
 40
0.2623911950850848
 40
0.5208870857396595
 40
0.7645146121964203
 40
0.9947797099238584
 40
0.9999999999999998
 40
0.9999999999999998
 40
0.9999999999999998
 40
0.9999999999999998
 10
383.0667662022634
 20
192.3349952478023
 30
0.0
 10
383.0788972997219
 20
192.5692982154248
 30
0.0
 10
383.1029794035439
 20
193.0344258274449
 30
0.0
 10
383.2873617509551
 20
193.6966816535085
 30
0.0
 10
383.5651088838549
 20
194.2809952647546
 30
0.0
 10
383.7883143583711
 20
194.6469221184993
 30
0.0
 10
383.9245863101927
 20
194.7956936590729
 30
0.0
 10
383.9276072157545
 20
194.7989916581722
 30
0.0
  0
SPLINE
  5
18F
330
1F
100
AcDbEntity
  8
0
  6
Continuous
 62
     7
370
    15
100
AcDbSpline
210
0.0
220
0.0
230
1.0
 70
     8
 71
     3
 72
    12
 73
     8
 74
     0
 42
0.0000000001
 43
0.0000000001
 40
0.0
 40
0.0
 40
0.0
 40
0.0
 40
0.0207439205436368
 40
0.2643241036405868
 40
0.513457694980442
 40
0.7657058915089205
 40
1.0
 40
1.0
 40
1.0
 40
1.0
 10
357.7807650489731
 20
171.8494301814647
 30
0.0
 10
357.7678487468968
 20
171.8357360373329
 30
0.0
 10
357.6032660701791
 20
171.6612419071064
 30
0.0
 10
357.3565005086625
 20
171.2517628491054
 30
0.0
 10
357.0709494635954
 20
170.629872469813
 30
0.0
 10
356.8988528060291
 20
169.9678389853687
 30
0.0
 10
356.8775780331129
 20
169.5190634099927
 30
0.0
 10
356.867333181016
 20
169.3029558438869
 30
0.0
  0
SPLINE
  5
190
330
1F
100
AcDbEntity
  8
0
  6
Continuous
 62
     7
370
    15
100
AcDbSpline
210
0.0
220
0.0
230
1.0
 70
     8
 71
     3
 72
    12
 73
     8
 74
     0
 42
0.0000000001
 43
0.0000000001
 40
0.0
 40
0.0
 40
0.0
 40
0.0
 40
0.1538377846619623
 40
0.4090408195655594
 40
0.6493264502147333
 40
0.8768972780358843
 40
1.0
 40
1.0
 40
1.0
 40
1.0
 10
384.8495532346888
 20
169.3032091636272
 30
0.0
 10
384.8520529789844
 20
169.446922377052
 30
0.0
 10
384.858699574017
 20
169.8290428732023
 30
0.0
 10
384.7251867267471
 20
170.4263884113386
 30
0.0
 10
384.4833487101091
 20
171.0546177403699
 30
0.0
 10
384.2117563533337
 20
171.5371810208437
 30
0.0
 10
384.0020134505176
 20
171.7833691406638
 30
0.0
 10
383.9283839387818
 20
171.8697926182361
 30
0.0
  0
LINE
  5
191
330
1F
100
AcDbEntity
  8
0
  6
Continuous
 62
     7
370
    15
100
AcDbLine
 10
356.867333181016
 20
169.3029558438869
 30
0.0
 11
356.867333181016
 21
161.4240562696071
 31
0.0
  0
LINE
  5
192
330
1F
100
AcDbEntity
  8
0
  6
Continuous
 62
     7
370
    15
100
AcDbLine
 10
384.8673340452834
 20
161.4240562696071
 30
0.0
 11
384.8673340452834
 21
169.3029558438869
 31
0.0
  0
SPLINE
  5
193
330
1F
100
AcDbEntity
  8
0
  6
Continuous
 62
     7
370
    15
100
AcDbSpline
210
0.0
220
0.0
230
1.0
 70
     8
 71
     3
 72
    12
 73
     8
 74
     0
 42
0.0000000001
 43
0.0000000001
 40
0.0
 40
0.0
 40
0.0
 40
0.0
 40
0.038397823629596
 40
0.2775862900332629
 40
0.5222278184898635
 40
0.7699276345140156
 40
1.0
 40
1.0
 40
1.0
 40
1.0
 10
383.9198092518373
 20
158.8410219330402
 30
0.0
 10
383.9442667119871
 20
158.8667292659184
 30
0.0
 10
384.1210750564418
 20
159.052573214501
 30
0.0
 10
384.3788053624253
 20
159.4746245154388
 30
0.0
 10
384.6635428908867
 20
160.0973007451957
 30
0.0
 10
384.8358554508823
 20
160.7591296493288
 30
0.0
 10
384.8571024842624
 20
161.2079336180288
 30
0.0
 10
384.8673340452834
 20
161.4240562696071
 30
0.0
  0
SPLINE
  5
194
330
1F
100
AcDbEntity
  8
0
  6
Continuous
 62
     7
370
    15
100
AcDbSpline
210
0.0
220
0.0
230
1.0
 70
     8
 71
     3
 72
    12
 73
     8
 74
     0
 42
0.0000000001
 43
0.0000000001
 40
0.0
 40
0.0
 40
0.0
 40
0.0
 40
0.1541922157649329
 40
0.4098284650036697
 40
0.6505242913813579
 40
0.8784788262680407
 40
0.9999999999999998
 40
0.9999999999999998
 40
0.9999999999999998
 40
0.9999999999999998
 10
356.8851102663203
 20
161.4240637201877
 30
0.0
 10
356.8826079981746
 20
161.2802635810893
 30
0.0
 10
356.8759572038521
 20
160.8980562823509
 30
0.0
 10
357.0094705598522
 20
160.3006142590199
 30
0.0
 10
357.2513473238032
 20
159.6724170819524
 30
0.0
 10
357.5219996385945
 20
159.191212689075
 30
0.0
 10
357.7306200518021
 20
158.9462396181571
 30
0.0
 10
357.8031624255701
 20
158.8610565442653
 30
0.0
  0
SPLINE
  5
195
330
1F
100
AcDbEntity
  8
0
  6
Continuous
 62
     7
370
    15
100
AcDbSpline
210
0.0
220
0.0
230
1.0
 70
     8
 71
     3
 72
    12
 73
     8
 74
     0
 42
0.0000000001
 43
0.0000000001
 40
0.0
 40
0.0
 40
0.0
 40
0.0
 40
0.1172711304800905
 40
0.3669811338681994
 40
0.621930972462632
 40
0.879606407933802
 40
1.0
 40
1.0
 40
1.0
 40
1.0
 10
383.9477181954308
 20
171.8836134452434
 30
0.0
 10
383.8817337543845
 20
171.9616360152636
 30
0.0
 10
383.6752460630514
 20
172.205795094281
 30
0.0
 10
383.410837999041
 20
172.6993265507938
 30
0.0
 10
383.1774507724269
 20
173.3414607210735
 30
0.0
 10
383.0779845256522
 20
173.9059203271542
 30
0.0
 10
383.069475762011
 20
174.2457772536365
 30
0.0
 10
383.0667662022634
 20
174.3540024537654
 30
0.0
  0
SPLINE
  5
196
330
1F
100
AcDbEntity
  8
0
  6
Continuous
 62
     7
370
    15
100
AcDbSpline
210
0.0
220
0.0
230
1.0
 70
     8
 71
     3
 72
    16
 73
    12
 74
     0
 42
0.0000000001
 43
0.0000000001
 40
0.0
 40
0.0
 40
0.0
 40
0.0
 40
0.0846802778299352
 40
0.2094054852364259
 40
0.3364287185361151
 40
0.4646088465699816
 40
0.6021525122071341
 40
0.7310937996590321
 40
0.8525244555088224
 40
0.9672935707048198
 40
1.0
 40
1.0
 40
1.0
 40
1.0
 10
357.7848787007852
 20
176.8297633308979
 30
0.0
 10
357.8780935487577
 20
176.7131933497237
 30
0.0
 10
358.1086041348248
 20
176.42492795786
 30
0.0
 10
358.3811180434878
 20
175.879913808751
 30
0.0
 10
358.5921626574663
 20
175.2259036632366
 30
0.0
 10
358.686470956921
 20
174.5174345870059
 30
0.0
 10
358.6511193494511
 20
173.8002019702837
 30
0.0
 10
358.4903318191602
 20
173.1132748363591
 30
0.0
 10
358.2279544673727
 20
172.5107485414397
 30
0.0
 10
357.9804092124912
 20
172.0925584398419
 30
0.0
 10
357.8092313664065
 20
171.9005083533317
 30
0.0
 10
357.7712683526798
 20
171.8579163927646
 30
0.0
  0
SPLINE
  5
197
330
1F
100
AcDbEntity
  8
0
  6
Continuous
 62
     7
370
    15
100
AcDbSpline
210
0.0
220
0.0
230
1.0
 70
     8
 71
     3
 72
    12
 73
     8
 74
     0
 42
0.0000000001
 43
0.0000000001
 40
0.0
 40
0.0
 40
0.0
 40
0.0
 40
0.2623914182539001
 40
0.520884418461937
 40
0.7645146407158947
 40
0.9947797105560843
 40
1.0
 40
1.0
 40
1.0
 40
1.0
 10
383.0667662022634
 20
174.3540024537654
 30
0.0
 10
383.0788968816798
 20
174.5883054170451
 30
0.0
 10
383.1029780118305
 20
175.0534302430931
 30
0.0
 10
383.2873653552141
 20
175.715685715233
 30
0.0
 10
383.5651064496406
 20
176.3000006572739
 30
0.0
 10
383.7883143627431
 20
176.6659293234568
 30
0.0
 10
383.9245863102875
 20
176.8147008650142
 30
0.0
 10
383.9276072157545
 20
176.8179988641353
 30
0.0
  0
SPLINE
  5
198
330
1F
100
AcDbEntity
  8
0
  6
Continuous
 62
     7
370
    15
100
AcDbSpline
210
0.0
220
0.0
230
1.0
 70
     8
 71
     3
 72
    12
 73
     8
 74
     0
 42
0.0000000001
 43
0.0000000001
 40
0.0
 40
0.0
 40
0.0
 40
0.0
 40
0.0207441933417497
 40
0.2643243085828899
 40
0.513457830519884
 40
0.7657059567778444
 40
1.0
 40
1.0
 40
1.0
 40
1.0
 10
357.7807650489731
 20
153.8684373874279
 30
0.0
 10
357.7678487526256
 20
153.8547432534731
 30
0.0
 10
357.6032681856559
 20
153.6802514123301
 30
0.0
 10
357.3564996227854
 20
153.2707691264963
 30
0.0
 10
357.0709497059947
 20
152.648879929858
 30
0.0
 10
356.8988527501453
 20
151.9868461327547
 30
0.0
 10
356.8775780149489
 20
151.5380705969165
 30
0.0
 10
356.867333181016
 20
151.32196304985
 30
0.0
  0
SPLINE
  5
199
330
1F
100
AcDbEntity
  8
0
  6
Continuous
 62
     7
370
    15
100
AcDbSpline
210
0.0
220
0.0
230
1.0
 70
     8
 71
     3
 72
    12
 73
     8
 74
     0
 42
0.0000000001
 43
0.0000000001
 40
0.0
 40
0.0
 40
0.0
 40
0.0
 40
0.1538377871299563
 40
0.4090409825728738
 40
0.6493264445889357
 40
0.8768972760609678
 40
1.0
 40
1.0
 40
1.0
 40
1.0
 10
384.8495532346888
 20
151.3222163695903
 30
0.0
 10
384.8520529697776
 20
151.4659296123332
 30
0.0
 10
384.8586995428722
 20
151.8480503325865
 30
0.0
 10
384.7251869149207
 20
152.445394989077
 30
0.0
 10
384.4833485710604
 20
153.0736252861272
 30
0.0
 10
384.2117563604396
 20
153.5561882031575
 30
0.0
 10
384.0020134523639
 20
153.802376340482
 30
0.0
 10
383.9283839387818
 20
153.8887998241992
 30
0.0
  0
LINE
  5
19A
330
1F
100
AcDbEntity
  8
0
  6
Continuous
 62
     7
370
    15
100
AcDbLine
 10
356.867333181016
 20
151.32196304985
 30
0.0
 11
356.867333181016
 21
145.3649556417079
 31
0.0
  0
LINE
  5
19B
330
1F
100
AcDbEntity
  8
0
  6
Continuous
 62
     7
370
    15
100
AcDbLine
 10
384.8673340452834
 20
145.3649556417079
 30
0.0
 11
384.8673340452834
 21
151.32196304985
 31
0.0
  0
SPLINE
  5
19C
330
1F
100
AcDbEntity
  8
0
  6
Continuous
 62
     7
370
    15
100
AcDbSpline
210
0.0
220
0.0
230
1.0
 70
     8
 71
     3
 72
    32
 73
    28
 74
     0
 42
0.0000000001
 43
0.0000000001
 40
0.0
 40
0.0
 40
0.0
 40
0.0
 40
0.0174628898685686
 40
0.0584130384932394
 40
0.0994009715224242
 40
0.1404507217316221
 40
0.1815959909680706
 40
0.2228696214268604
 40
0.2585927947549837
 40
0.289954183012995
 40
0.3181525518073627
 40
0.3458460993040346
 40
0.3775007376680636
 40
0.4266159731533217
 40
0.4756813946144035
 40
0.5295166489324115
 40
0.5845201827396796
 40
0.6305078960654522
 40
0.6786684716750702
 40
0.7269431634762764
 40
0.7748483914105839
 40
0.8215399756639747
 40
0.8649715430972062
 40
0.9036514528366945
 40
0.9351774173800128
 40
0.9723556134769085
 40
1.0
 40
1.0
 40
1.0
 40
1.0
 10
356.8840560091658
 20
145.3645309586139
 30
0.0
 10
356.8801080536591
 20
145.2467152527207
 30
0.0
 10
356.8669022166685
 20
144.8526239301938
 30
0.0
 10
356.9889892684815
 20
144.1872323047214
 30
0.0
 10
357.2430749815306
 20
143.3966977983105
 30
0.0
 10
357.631905018658
 20
142.6594407793088
 30
0.0
 10
358.1342139324877
 20
141.9959625189964
 30
0.0
 10
358.7097286398113
 20
141.4514855330992
 30
0.0
 10
359.2979681523743
 20
141.0435581267563
 30
0.0
 10
359.8393803484125
 20
140.7628904767366
 30
0.0
 10
360.3243978345892
 20
140.5735963176828
 30
0.0
 10
360.7626975913567
 20
140.444615723102
 30
0.0
 10
361.2177834714916
 20
140.3445758401917
 30
0.0
 10
361.6696357419492
 20
140.2744515254694
 30
0.0
 10
362.1881001560513
 20
140.2149122597543
 30
0.0
 10
362.7722352908881
 20
140.1644002958834
 30
0.0
 10
363.4171348733647
 20
140.1213518815742
 30
0.0
 10
364.1084088100348
 20
140.0845196270967
 30
0.0
 10
364.8299597886869
 20
140.0531804043825
 30
0.0
 10
365.6208165491875
 20
140.0254448960611
 30
0.0
 10
366.4562451803428
 20
140.0020566679397
 30
0.0
 10
367.3061401456982
 20
139.9835214939946
 30
0.0
 10
368.1301508456914
 20
139.9699392211412
 30
0.0
 10
368.8762879917057
 20
139.9610187907653
 30
0.0
 10
369.5924157510556
 20
139.9551609640458
 30
0.0
 10
370.2417389736525
 20
139.9519876567566
 30
0.0
 10
370.6803027178873
 20
139.9516286440642
 30
0.0
 10
370.8673336131497
 20
139.951475538692
 30
0.0
  0
SPLINE
  5
19D
330
1F
100
AcDbEntity
  8
0
  6
Continuous
 62
     7
370
    15
100
AcDbSpline
210
0.0
220
0.0
230
1.0
 70
     8
 71
     3
 72
    33
 73
    29
 74
     0
 42
0.0000000001
 43
0.0000000001
 40
0.0
 40
0.0
 40
0.0
 40
0.0
 40
0.0561844109951387
 40
0.0791681150253717
 40
0.1170357383592509
 40
0.1559242696090777
 40
0.1971749871646742
 40
0.23964240712372
 40
0.2828614616927798
 40
0.3264645843475333
 40
0.3702076310347441
 40
0.4139458639554187
 40
0.4576574741550721
 40
0.5015447646784893
 40
0.5463993152803647
 40
0.5953560177201002
 40
0.635744994354811
 40
0.6638618576488046
 40
0.6888812764811702
 40
0.7149556302074323
 40
0.7438396964304238
 40
0.7771794827607656
 40
0.8146188985017341
 40
0.8543289323229769
 40
0.8948792333941554
 40
0.9356874123536307
 40
0.976575626959633
 40
1.0
 40
1.0
 40
1.0
 40
1.0
 10
370.8673336131497
 20
139.951475538692
 30
0.0
 10
371.2477319820404
 20
139.9520696093853
 30
0.0
 10
371.7837422612335
 20
139.9529067002463
 30
0.0
 10
372.5673936140385
 20
139.9584260239749
 30
0.0
 10
373.2280845448264
 20
139.9650412970314
 30
0.0
 10
373.9934455357768
 20
139.9759423897658
 30
0.0
 10
374.7655655822784
 20
139.9904343294184
 30
0.0
 10
375.5339451297244
 20
140.0088042150507
 30
0.0
 10
376.2783279168111
 20
140.0309047220204
 30
0.0
 10
376.9855220524947
 20
140.0565696313691
 30
0.0
 10
377.6460764000402
 20
140.0856210873223
 30
0.0
 10
378.2545973486018
 20
140.118010075597
 30
0.0
 10
378.810399489359
 20
140.1539340557122
 30
0.0
 10
379.3197960202193
 20
140.1943677586254
 30
0.0
 10
379.805823487971
 20
140.2428873101569
 30
0.0
 10
380.2589515601945
 20
140.3021268657957
 30
0.0
 10
380.6953080123993
 20
140.3802978284211
 30
0.0
 10
381.1166006265518
 20
140.4839249682467
 30
0.0
 10
381.5288800413987
 20
140.6164442550022
 30
0.0
 10
381.9774624853182
 20
140.8024981587909
 30
0.0
 10
382.4773543478757
 20
141.0706584235459
 30
0.0
 10
383.0165350197118
 20
141.4485448386895
 30
0.0
 10
383.5576713530211
 20
141.9530839548629
 30
0.0
 10
384.0476437703746
 20
142.576381068771
 30
0.0
 10
384.4451518076046
 20
143.292187619421
 30
0.0
 10
384.7174605118116
 20
144.0716455607616
 30
0.0
 10
384.8588007237169
 20
144.7722850028611
 30
0.0
 10
384.8527915410683
 20
145.2065417816025
 30
0.0
 10
384.8506028352304
 20
145.3647097725482
 30
0.0
  0
SPLINE
  5
19E
330
1F
100
AcDbEntity
  8
0
  6
Continuous
 62
     7
370
    15
100
AcDbSpline
210
0.0
220
0.0
230
1.0
 70
     8
 71
     3
 72
    12
 73
     8
 74
     0
 42
0.0000000001
 43
0.0000000001
 40
0.0
 40
0.0
 40
0.0
 40
0.0
 40
0.1172707175879032
 40
0.3669810377319271
 40
0.6219283634309622
 40
0.8796064137987535
 40
1.0
 40
1.0
 40
1.0
 40
1.0
 10
383.9477181954308
 20
153.9026206512065
 30
0.0
 10
383.881733691319
 20
153.9806432966092
 30
0.0
 10
383.6752451297134
 20
154.2248034072096
 30
0.0
 10
383.4108403281614
 20
154.7183314374972
 30
0.0
 10
383.1774481517726
 20
155.3604644272977
 30
0.0
 10
383.0779849243754
 20
155.9249252802088
 30
0.0
 10
383.0694758440317
 20
156.2647844859214
 30
0.0
 10
383.0667662022634
 20
156.3730096597286
 30
0.0
  0
SPLINE
  5
19F
330
1F
100
AcDbEntity
  8
0
  6
Continuous
 62
     7
370
    15
100
AcDbSpline
210
0.0
220
0.0
230
1.0
 70
     8
 71
     3
 72
    16
 73
    12
 74
     0
 42
0.0000000001
 43
0.0000000001
 40
0.0
 40
0.0
 40
0.0
 40
0.0
 40
0.0846801990305882
 40
0.2094054478759285
 40
0.3364284259049116
 40
0.4646097477632824
 40
0.6021520865955335
 40
0.7310931225164433
 40
0.8525236653687727
 40
0.9672928464256505
 40
0.9999999999999998
 40
0.9999999999999998
 40
0.9999999999999998
 40
0.9999999999999998
 10
357.7848787007852
 20
158.848770536861
 30
0.0
 10
357.8780935755473
 20
158.7322004969626
 30
0.0
 10
358.1086044012386
 20
158.443934743064
 30
0.0
 10
358.3811175697147
 20
157.8989219967884
 30
0.0
 10
358.5921637203583
 20
157.2449082276714
 30
0.0
 10
358.6864704154777
 20
156.5364384773119
 30
0.0
 10
358.6511191755868
 20
155.819207700167
 30
0.0
 10
358.4903313726659
 20
155.1322821757777
 30
0.0
 10
358.2279552905235
 20
154.5297532420382
 30
0.0
 10
357.980405916776
 20
154.1115695901624
 30
0.0
 10
357.8092312897679
 20
153.9195107623439
 30
0.0
 10
357.7712683526798
 20
153.8769161481472
 30
0.0
  0
SPLINE
  5
1A0
330
1F
100
AcDbEntity
  8
0
  6
Continuous
 62
     7
370
    15
100
AcDbSpline
210
0.0
220
0.0
230
1.0
 70
     8
 71
     3
 72
    12
 73
     8
 74
     0
 42
0.0000000001
 43
0.0000000001
 40
0.0
 40
0.0
 40
0.0
 40
0.0
 40
0.262391478967591
 40
0.5208845389872794
 40
0.7645123979611941
 40
0.9947797093481828
 40
1.0
 40
1.0
 40
1.0
 40
1.0
 10
383.0667662022634
 20
156.3730096597286
 30
0.0
 10
383.0788970249282
 20
156.6073125288526
 30
0.0
 10
383.1029784394473
 20
157.0724371679882
 30
0.0
 10
383.2873631309908
 20
157.7346919035684
 30
0.0
 10
383.565110920015
 20
158.3190021242929
 30
0.0
 10
383.7883130771795
 20
158.6849351617606
 30
0.0
 10
383.9245863098702
 20
158.8337080712986
 30
0.0
 10
383.9276072157545
 20
158.8370060700984
 30
0.0
  0
LINE
  5
1A1
330
1F
100
AcDbEntity
  8
0
  6
Continuous
 62
     7
370
    15
100
AcDbLine
 10
384.8673340452834
 20
104.3209122646661
 30
0.0
 11
386.3673333598299
 21
104.3209122646661
 31
0.0
  0
LINE
  5
1A2
330
1F
100
AcDbEntity
  8
0
  6
Continuous
 62
     7
370
    15
100
AcDbLine
 10
386.3673333598299
 20
112.3209117133231
 30
0.0
 11
384.8673340452834
 21
112.3209117133231
 31
0.0
  0
LINE
  5
1A3
330
1F
100
AcDbEntity
  8
0
  6
Continuous
 62
     7
370
    15
100
AcDbLine
 10
377.0173334104939
 20
105.8209115792127
 30
0.0
 11
378.8673339931293
 21
105.8209115792127
 31
0.0
  0
LINE
  5
1A4
330
1F
100
AcDbEntity
  8
0
  6
Continuous
 62
     7
370
    15
100
AcDbLine
 10
378.8673339931293
 20
110.8209123987766
 30
0.0
 11
377.0173334104939
 21
110.8209123987766
 31
0.0
  0
LINE
  5
1A5
330
1F
100
AcDbEntity
  8
0
  6
Continuous
 62
     7
370
    15
100
AcDbLine
 10
356.867333181016
 20
112.3209117133231
 30
0.0
 11
355.3673338664694
 21
112.3209117133231
 31
0.0
  0
LINE
  5
1A6
330
1F
100
AcDbEntity
  8
0
  6
Continuous
 62
     7
370
    15
100
AcDbLine
 10
355.3673338664694
 20
104.3209122646661
 30
0.0
 11
356.867333181016
 21
104.3209122646661
 31
0.0
  0
LINE
  5
1A7
330
1F
100
AcDbEntity
  8
0
  6
Continuous
 62
     7
370
    15
100
AcDbLine
 10
364.7173338158055
 20
110.8209123987766
 30
0.0
 11
362.8673332331701
 21
110.8209123987766
 31
0.0
  0
LINE
  5
1A8
330
1F
100
AcDbEntity
  8
0
  6
Continuous
 62
     7
370
    15
100
AcDbLine
 10
362.8673332331701
 20
105.8209115792127
 30
0.0
 11
364.7173338158055
 21
105.8209115792127
 31
0.0
  0
LINE
  5
1A9
330
1F
100
AcDbEntity
  8
0
  6
Continuous
 62
     7
370
    15
100
AcDbLine
 10
376.8673336653038
 20
111.7397552508922
 30
0.0
 11
376.3216894639655
 21
111.7397552508922
 31
0.0
  0
LINE
  5
1AA
330
1F
100
AcDbEntity
  8
0
  6
Continuous
 62
     7
370
    15
100
AcDbLine
 10
365.4129777623339
 20
111.7397552508922
 30
0.0
 11
364.8673335609956
 21
111.7397552508922
 31
0.0
  0
LINE
  5
1AB
330
1F
100
AcDbEntity
  8
0
  6
Continuous
 62
     7
370
    15
100
AcDbLine
 10
364.8673335609956
 20
106.7397562939735
 30
0.0
 11
365.4129777623339
 21
106.7397562939735
 31
0.0
  0
LINE
  5
1AC
330
1F
100
AcDbEntity
  8
0
  6
Continuous
 62
     7
370
    15
100
AcDbLine
 10
376.3216894639655
 20
106.7397562939735
 30
0.0
 11
376.8673336653038
 21
106.7397562939735
 31
0.0
  0
LINE
  5
1AD
330
1F
100
AcDbEntity
  8
0
  6
Continuous
 62
     7
370
    15
100
AcDbLine
 10
356.867333181016
 20
113.4897550720783
 30
0.0
 11
355.8673339484258
 21
113.4897550720783
 31
0.0
  0
LINE
  5
1AE
330
1F
100
AcDbEntity
  8
0
  6
Continuous
 62
     7
370
    15
100
AcDbLine
 10
385.8673332778736
 20
113.4897550720783
 30
0.0
 11
384.8673340452834
 21
113.4897550720783
 31
0.0
  0
LINE
  5
1AF
330
1F
100
AcDbEntity
  8
0
  6
Continuous
 62
     7
370
    15
100
AcDbLine
 10
359.8673336727543
 20
96.43231762238464
 30
0.0
 11
381.867333553545
 21
96.43231762238464
 31
0.0
  0
LINE
  5
1B0
330
1F
100
AcDbEntity
  8
0
  6
Continuous
 62
     7
370
    15
100
AcDbLine
 10
378.8673339931293
 20
102.4323167432161
 30
0.0
 11
362.8673332331701
 21
102.4323167432161
 31
0.0
  0
LINE
  5
1B1
330
1F
100
AcDbEntity
  8
0
  6
Continuous
 62
     7
370
    15
100
AcDbLine
 10
384.8673340452834
 20
96.93231677301845
 30
0.0
 11
386.6673328502102
 21
96.93231677301845
 31
0.0
  0
LINE
  5
1B2
330
1F
100
AcDbEntity
  8
0
  6
Continuous
 62
     7
370
    15
100
AcDbLine
 10
386.6673328502102
 20
101.9323175925822
 30
0.0
 11
384.8673340452834
 21
101.9323175925822
 31
0.0
  0
LINE
  5
1B3
330
1F
100
AcDbEntity
  8
0
  6
Continuous
 62
     7
370
    15
100
AcDbLine
 10
355.0673343760891
 20
96.93231677301845
 30
0.0
 11
356.867333181016
 21
96.93231677301845
 31
0.0
  0
LINE
  5
1B4
330
1F
100
AcDbEntity
  8
0
  6
Continuous
 62
     7
370
    15
100
AcDbLine
 10
356.867333181016
 20
101.9323175925822
 30
0.0
 11
355.0673343760891
 21
101.9323175925822
 31
0.0
  0
LINE
  5
1B5
330
1F
100
AcDbEntity
  8
0
  6
Continuous
 62
     7
370
    15
100
AcDbLine
 10
359.8673336727543
 20
102.3209119368406
 30
0.0
 11
362.8673332331701
 21
102.3209119368406
 31
0.0
  0
LINE
  5
1B6
330
1F
100
AcDbEntity
  8
0
  6
Continuous
 62
     7
370
    15
100
AcDbLine
 10
364.8673335609956
 20
115.2397548932643
 30
0.0
 11
363.2248488774522
 21
115.2397548932643
 31
0.0
  0
LINE
  5
1B7
330
1F
100
AcDbEntity
  8
0
  6
Continuous
 62
     7
370
    15
100
AcDbLine
 10
378.8673339931293
 20
102.3209119368406
 30
0.0
 11
381.867333553545
 21
102.3209119368406
 31
0.0
  0
LINE
  5
1B8
330
1F
100
AcDbEntity
  8
0
  6
Continuous
 62
     7
370
    15
100
AcDbLine
 10
378.5098183488472
 20
115.2397548932643
 30
0.0
 11
376.8673336653038
 21
115.2397548932643
 31
0.0
  0
LINE
  5
1B9
330
1F
100
AcDbEntity
  8
0
  6
Continuous
 62
     7
370
    15
100
AcDbLine
 10
381.867333553545
 20
92.43231696673353
 30
0.0
 11
384.8673340452834
 21
92.43231696673353
 31
0.0
  0
LINE
  5
1BA
330
1F
100
AcDbEntity
  8
0
  6
Continuous
 62
     7
370
    15
100
AcDbLine
 10
384.8673340452834
 20
116.2397569198222
 30
0.0
 11
381.867333553545
 21
116.2397569198222
 31
0.0
  0
LINE
  5
1BB
330
1F
100
AcDbEntity
  8
0
  6
Continuous
 62
     7
370
    15
100
AcDbLine
 10
356.867333181016
 20
92.43231696673353
 30
0.0
 11
359.8673336727543
 21
92.43231696673353
 31
0.0
  0
LINE
  5
1BC
330
1F
100
AcDbEntity
  8
0
  6
Continuous
 62
     7
370
    15
100
AcDbLine
 10
359.8673336727543
 20
116.2397569198222
 30
0.0
 11
356.867333181016
 21
116.2397569198222
 31
0.0
  0
LINE
  5
1BD
330
1F
100
AcDbEntity
  8
0
  6
Continuous
 62
     7
370
    15
100
AcDbLine
 10
383.8649785665794
 20
207.8331044096561
 30
0.0
 11
383.8620756341143
 21
207.8373810429187
 31
0.0
  0
LWPOLYLINE
  5
1BE
330
1F
100
AcDbEntity
  8
0
  6
Continuous
 62
     7
370
    15
100
AcDbPolyline
 90
       32
 70
   128
 43
0.0
 10
356.867333181016
 20
145.3649556417079
 10
356.944026663713
 20
145.2977216024013
 10
357.1732670588418
 20
145.2312326211543
 10
357.5525425894185
 20
145.1661965031238
 10
358.0776967627926
 20
145.1033434052081
 10
358.7429777307435
 20
145.0433587808223
 10
359.5410960314794
 20
144.9868982810588
 10
360.4633056147023
 20
144.9345803041072
 10
361.4995053557678
 20
144.8869710940929
 10
362.6383396385236
 20
144.8446070928188
 10
363.8673333970829
 20
144.8079353351207
 10
365.1730206383391
 20
144.7773730535121
 10
366.541095781885
 20
144.7532480735393
 10
367.9565698893739
 20
144.7358211655231
 10
369.4039351593702
 20
144.725286044559
 10
370.8673336131498
 20
144.7217693705173
 10
372.3307320669292
 20
144.725286044559
 10
373.7780973369254
 20
144.7358211655231
 10
375.1935714444144
 20
144.7532480735393
 10
376.5616465879603
 20
144.7773730535121
 10
377.8673338292165
 20
144.8079353351207
 10
379.0963275877758
 20
144.8446070928188
 10
380.2351618705316
 20
144.8869710940929
 10
381.2713616115971
 20
144.9345803041072
 10
382.19357119482
 20
144.9868982810588
 10
382.9916894955559
 20
145.0433587808223
 10
383.6569704635067
 20
145.1033434052081
 10
384.1821246368809
 20
145.1661965031238
 10
384.5614001674576
 20
145.2312326211543
 10
384.7906405625863
 20
145.2977216024013
 10
384.8673340452834
 20
145.3649556417079
 10
384.8673340452834
 20
145.3649556417079
  0
LINE
  5
1BF
330
1F
100
AcDbEntity
  8
0
  6
Continuous
 62
     7
370
    15
100
AcDbLine
 10
386.3673333598299
 20
109.0920088965507
 30
0.0
 11
386.3673333598299
 21
104.3209122646661
 31
0.0
  0
LINE
  5
1C0
330
1F
100
AcDbEntity
  8
0
  6
Continuous
 62
     7
370
    15
100
AcDbLine
 10
386.3673333598299
 20
112.3209117133231
 30
0.0
 11
386.3673333598299
 21
109.0920088965507
 31
0.0
  0
LINE
  5
1C1
330
1F
100
AcDbEntity
  8
0
  6
Continuous
 62
     7
370
    15
100
AcDbLine
 10
377.0173334104939
 20
108.8028481382938
 30
0.0
 11
377.0173334104939
 21
105.8209115792127
 31
0.0
  0
LINE
  5
1C2
330
1F
100
AcDbEntity
  8
0
  6
Continuous
 62
     7
370
    15
100
AcDbLine
 10
377.0173334104939
 20
110.8209123987766
 30
0.0
 11
377.0173334104939
 21
108.8028481382938
 31
0.0
  0
LINE
  5
1C3
330
1F
100
AcDbEntity
  8
0
  6
Continuous
 62
     7
370
    15
100
AcDbLine
 10
355.3673338664694
 20
104.3209122646661
 30
0.0
 11
355.3673338664694
 21
112.3209117133231
 31
0.0
  0
LINE
  5
1C4
330
1F
100
AcDbEntity
  8
0
  6
Continuous
 62
     7
370
    15
100
AcDbLine
 10
364.7173338158055
 20
105.8209115792127
 30
0.0
 11
364.7173338158055
 21
110.8209123987766
 31
0.0
  0
LINE
  5
1C5
330
1F
100
AcDbEntity
  8
0
  6
Continuous
 62
     7
370
    15
100
AcDbLine
 10
352.3973331375046
 20
111.9483342547031
 30
0.0
 11
355.3673338664694
 21
111.9483342547031
 31
0.0
  0
LINE
  5
1C6
330
1F
100
AcDbEntity
  8
0
  6
Continuous
 62
     7
370
    15
100
AcDbLine
 10
355.3673338664694
 20
109.1587064940543
 30
0.0
 11
352.3973331375046
 21
109.1587064940543
 31
0.0
  0
LINE
  5
1C7
330
1F
100
AcDbEntity
  8
0
  6
Continuous
 62
     7
370
    15
100
AcDbLine
 10
352.3973331375046
 20
111.9483342547031
 30
0.0
 11
352.3973331375046
 21
109.1587064940543
 31
0.0
  0
LINE
  5
1C8
330
1F
100
AcDbEntity
  8
0
  6
Continuous
 62
     7
370
    15
100
AcDbLine
 10
355.3673338664694
 20
106.4501280117841
 30
0.0
 11
352.3973331375046
 21
106.4501280117841
 31
0.0
  0
LINE
  5
1C9
330
1F
100
AcDbEntity
  8
0
  6
Continuous
 62
     7
370
    15
100
AcDbLine
 10
352.3973331375046
 20
109.1587064940543
 30
0.0
 11
352.3973331375046
 21
106.4501280117841
 31
0.0
  0
LINE
  5
1CA
330
1F
100
AcDbEntity
  8
0
  6
Continuous
 62
     7
370
    15
100
AcDbLine
 10
355.3673338664694
 20
112.0293853957267
 30
0.0
 11
352.3973331375046
 21
112.0293853957267
 31
0.0
  0
LINE
  5
1CB
330
1F
100
AcDbEntity
  8
0
  6
Continuous
 62
     7
370
    15
100
AcDbLine
 10
352.3973331375046
 20
112.0293853957267
 30
0.0
 11
352.3973331375046
 21
111.9483342547031
 31
0.0
  0
LINE
  5
1CC
330
1F
100
AcDbEntity
  8
0
  6
Continuous
 62
     7
370
    15
100
AcDbLine
 10
386.3673333598299
 20
109.1587064940543
 30
0.0
 11
389.3373340887947
 21
109.1587064940543
 31
0.0
  0
LINE
  5
1CD
330
1F
100
AcDbEntity
  8
0
  6
Continuous
 62
     7
370
    15
100
AcDbLine
 10
386.3673333598299
 20
111.9483342547031
 30
0.0
 11
389.3373340887947
 21
111.9483342547031
 31
0.0
  0
LINE
  5
1CE
330
1F
100
AcDbEntity
  8
0
  6
Continuous
 62
     7
370
    15
100
AcDbLine
 10
389.3373340887947
 20
109.1587064940543
 30
0.0
 11
389.3373340887947
 21
111.9483342547031
 31
0.0
  0
LINE
  5
1CF
330
1F
100
AcDbEntity
  8
0
  6
Continuous
 62
     7
370
    15
100
AcDbLine
 10
389.3373340887947
 20
106.4501280117841
 30
0.0
 11
386.3673333598299
 21
106.4501280117841
 31
0.0
  0
LINE
  5
1D0
330
1F
100
AcDbEntity
  8
0
  6
Continuous
 62
     7
370
    15
100
AcDbLine
 10
389.3373340887947
 20
106.4501280117841
 30
0.0
 11
389.3373340887947
 21
109.1587064940543
 31
0.0
  0
LINE
  5
1D1
330
1F
100
AcDbEntity
  8
0
  6
Continuous
 62
     7
370
    15
100
AcDbLine
 10
386.3673333598299
 20
112.0293853957267
 30
0.0
 11
389.3373340887947
 21
112.0293853957267
 31
0.0
  0
LINE
  5
1D2
330
1F
100
AcDbEntity
  8
0
  6
Continuous
 62
     7
370
    15
100
AcDbLine
 10
389.3373340887947
 20
111.9483342547031
 30
0.0
 11
389.3373340887947
 21
112.0293853957267
 31
0.0
  0
LINE
  5
1D3
330
1F
100
AcDbEntity
  8
0
  6
Continuous
 62
     7
370
    15
100
AcDbLine
 10
355.8673339484258
 20
112.3209117133231
 30
0.0
 11
355.8673339484258
 21
113.4897550720783
 31
0.0
  0
LINE
  5
1D4
330
1F
100
AcDbEntity
  8
0
  6
Continuous
 62
     7
370
    15
100
AcDbLine
 10
385.8673332778736
 20
113.4897550720783
 30
0.0
 11
385.8673332778736
 21
112.3209117133231
 31
0.0
  0
LINE
  5
1D5
330
1F
100
AcDbEntity
  8
0
  6
Continuous
 62
     7
370
    15
100
AcDbLine
 10
386.6673328502102
 20
99.07725510784111
 30
0.0
 11
386.6673328502102
 21
101.9323175925822
 31
0.0
  0
LINE
  5
1D6
330
1F
100
AcDbEntity
  8
0
  6
Continuous
 62
     7
370
    15
100
AcDbLine
 10
386.6673328502102
 20
96.93231677301845
 30
0.0
 11
386.6673328502102
 21
99.07725510784111
 31
0.0
  0
LINE
  5
1D7
330
1F
100
AcDbEntity
  8
0
  6
Continuous
 62
     7
370
    15
100
AcDbLine
 10
355.0673343760891
 20
99.07725510784111
 30
0.0
 11
355.0673343760891
 21
96.93231677301845
 31
0.0
  0
LINE
  5
1D8
330
1F
100
AcDbEntity
  8
0
  6
Continuous
 62
     7
370
    15
100
AcDbLine
 10
355.0673343760891
 20
101.9323175925822
 30
0.0
 11
355.0673343760891
 21
99.07725510784111
 31
0.0
  0
ARC
  5
1D9
330
1F
100
AcDbEntity
  8
0
  6
Continuous
 62
     7
370
    15
100
AcDbCircle
 10
366.8736631126961
 20
136.0302573922833
 30
0.0
 40
3.993670517146677
100
AcDbArc
 50
314.9623994357052
 51
359.9947613440878
  0
LINE
  5
1DA
330
1F
100
AcDbEntity
  8
0
  6
Continuous
 62
     7
370
    15
100
AcDbLine
 10
369.695760780759
 20
133.2044532675357
 30
0.0
 11
363.1602267323061
 21
126.6758186895461
 31
0.0
  0
ARC
  5
1DB
330
1F
100
AcDbEntity
  8
0
  6
Continuous
 62
     7
370
    15
100
AcDbCircle
 10
363.8657588307064
 20
125.9693640618839
 30
0.0
 40
0.9984256020448572
100
AcDbArc
 50
134.9625654939325
 51
179.9945549981231
  0
LINE
  5
1DC
330
1F
100
AcDbEntity
  8
0
  6
Continuous
 62
     7
370
    15
100
AcDbLine
 10
362.8673332331701
 20
125.9694589454742
 30
0.0
 11
362.8673332331701
 21
108.0452582020374
 31
0.0
  0
LINE
  5
1DD
330
1F
100
AcDbEntity
  8
0
  6
Continuous
 62
     7
370
    15
100
AcDbLine
 10
359.8673336727543
 20
111.6470029730411
 30
0.0
 11
359.8673336727543
 21
125.9694589454742
 31
0.0
  0
ARC
  5
1DE
330
1F
100
AcDbEntity
  8
0
  6
Continuous
 62
     7
370
    15
100
AcDbCircle
 10
363.8609991788153
 20
125.9690956353926
 30
0.0
 40
3.993665522586339
100
AcDbArc
 50
134.9623650101136
 51
179.9947877121299
  0
LINE
  5
1DF
330
1F
100
AcDbEntity
  8
0
  6
Continuous
 62
     7
370
    15
100
AcDbLine
 10
361.0389067379756
 20
128.794897921762
 30
0.0
 11
367.5744403207673
 21
135.3235324997516
 31
0.0
  0
ARC
  5
1E0
330
1F
100
AcDbEntity
  8
0
  6
Continuous
 62
     7
370
    15
100
AcDbCircle
 10
366.8689142055852
 20
136.0299843173608
 30
0.0
 40
0.9984193857329954
100
AcDbArc
 50
314.9624364989542
 51
359.9947162232898
  0
LINE
  5
1E1
330
1F
100
AcDbEntity
  8
0
  6
Continuous
 62
     7
370
    15
100
AcDbLine
 10
367.8673335870727
 20
139.9749523181529
 30
0.0
 11
367.8673335870727
 21
136.0298922438236
 31
0.0
  0
LINE
  5
1E2
330
1F
100
AcDbEntity
  8
0
  6
Continuous
 62
     7
370
    15
100
AcDbLine
 10
370.8673336131497
 20
139.951475538692
 30
0.0
 11
370.8673336131497
 21
136.0298922438236
 31
0.0
  0
ARC
  5
1E3
330
1F
100
AcDbEntity
  8
0
  6
Continuous
 62
     7
370
    15
100
AcDbCircle
 10
366.8689311598094
 20
136.7191112889949
 30
0.0
 40
0.9984024308853088
100
AcDbArc
 50
314.962033149225
 51
359.9951195730203
  0
LINE
  5
1E4
330
1F
100
AcDbEntity
  8
0
  6
Continuous
 62
     7
370
    15
100
AcDbLine
 10
367.5744403207673
 20
136.0126665014835
 30
0.0
 11
361.0389067379756
 21
129.4840319234939
 31
0.0
  0
LINE
  5
1E5
330
1F
100
AcDbEntity
  8
0
  6
Continuous
 62
     7
370
    15
100
AcDbLine
 10
359.8673336727543
 20
125.9694589454742
 30
0.0
 11
359.8673336727543
 21
126.658592947206
 31
0.0
  0
ARC
  5
1E6
330
1F
100
AcDbEntity
  8
0
  6
Continuous
 62
     7
370
    15
100
AcDbCircle
 10
363.8610031085154
 20
126.6582280076676
 30
0.0
 40
3.993669452435032
100
AcDbArc
 50
134.9623883822324
 51
179.9947643400115
  0
LINE
  5
1E7
330
1F
100
AcDbEntity
  8
0
  6
Continuous
 62
     7
370
    15
100
AcDbLine
 10
362.8673332331701
 20
108.0452582020374
 30
0.0
 11
362.8673332331701
 21
102.3209119368406
 31
0.0
  0
ELLIPSE
  5
1E8
330
1F
100
AcDbEntity
  8
0
  6
Continuous
 62
     7
370
    15
100
AcDbEllipse
 10
365.109974300269
 20
119.952487916807
 30
0.0
 11
3.615836978079641
 21
3.615836978079599
 31
0.0
210
0.0
220
0.0
230
1.0
 40
0.9550662890749388
 41
3.549393229840215
 42
3.663213435319097
  0
SPLINE
  5
1E9
330
1F
100
AcDbEntity
  8
0
  6
Continuous
 62
     7
370
    15
100
AcDbSpline
210
0.0
220
0.0
230
1.0
 70
     8
 71
     3
 72
    10
 73
     6
 74
     0
 42
0.0000000001
 43
0.0000000001
 40
0.0
 40
0.0
 40
0.0
 40
0.0
 40
0.4188288330828169
 40
0.8362844926298999
 40
0.9999999999999998
 40
0.9999999999999998
 40
0.9999999999999998
 40
0.9999999999999998
 10
363.1602276636286
 20
115.2635930258842
 30
0.0
 10
363.0874954743479
 20
115.2990291876446
 30
0.0
 10
362.942269555772
 20
115.3697853300534
 30
0.0
 10
362.8744216315867
 20
115.4951171609185
 30
0.0
 10
362.8688911624273
 20
115.5763246197641
 30
0.0
 10
362.8673332331701
 20
115.5992007035823
 30
0.0
  0
ARC
  5
1EA
330
1F
100
AcDbEntity
  8
0
  6
Continuous
 62
     7
370
    15
100
AcDbCircle
 10
363.1196715777303
 20
101.9099128496084
 30
0.0
 40
0.9717959307379759
100
AcDbArc
 50
87.60822811117142
 51
105.0499994104691
  0
LINE
  5
1EB
330
1F
100
AcDbEntity
  8
0
  6
Continuous
 62
     7
370
    15
100
AcDbLine
 10
363.6957609614356
 20
102.9054658640237
 30
0.0
 11
363.1602267323061
 21
102.8808621842475
 31
0.0
  0
ARC
  5
1EC
330
1F
100
AcDbEntity
  8
0
  6
Continuous
 62
     7
370
    15
100
AcDbCircle
 10
364.6301563176041
 20
115.4197278521099
 30
0.0
 40
0.4624434047133371
100
AcDbArc
 50
267.376769185952
 51
300.8557508661145
  0
LINE
  5
1ED
330
1F
100
AcDbEntity
  8
0
  6
Continuous
 62
     7
370
    15
100
AcDbLine
 10
364.8673335609956
 20
115.0227381069274
 30
0.0
 11
364.8673335609956
 21
103.0354095775695
 31
0.0
  0
ARC
  5
1EE
330
1F
100
AcDbEntity
  8
0
  6
Continuous
 62
     7
370
    15
100
AcDbCircle
 10
363.857928687328
 20
106.7897830380018
 30
0.0
 40
3.887700898909542
100
AcDbArc
 50
267.6093266623749
 51
285.0487358590925
  0
LINE
  5
1EF
330
1F
100
AcDbEntity
  8
0
  6
Continuous
 62
     7
370
    15
100
AcDbLine
 10
364.8673335609956
 20
115.2334218997569
 30
0.0
 11
364.8673335609956
 21
115.0227381069274
 31
0.0
  0
LINE
  5
1F0
330
1F
100
AcDbEntity
  8
0
  6
Continuous
 62
     7
370
    15
100
AcDbLine
 10
364.8673335609956
 20
115.2397548932643
 30
0.0
 11
364.8673335609956
 21
115.2334218997569
 31
0.0
  0
ARC
  5
1F1
330
1F
100
AcDbEntity
  8
0
  6
Continuous
 62
     7
370
    15
100
AcDbCircle
 10
374.8657530207143
 20
136.0299843173608
 30
0.0
 40
0.9984193857329954
100
AcDbArc
 50
180.0052837767118
 51
225.0375635010473
  0
LINE
  5
1F2
330
1F
100
AcDbEntity
  8
0
  6
Continuous
 62
     7
370
    15
100
AcDbLine
 10
380.6957604883237
 20
128.794897921762
 30
0.0
 11
374.1602269055321
 21
135.3235324997516
 31
0.0
  0
ARC
  5
1F3
330
1F
100
AcDbEntity
  8
0
  6
Continuous
 62
     7
370
    15
100
AcDbCircle
 10
377.8736680474842
 20
125.9690956353926
 30
0.0
 40
3.993665522586339
100
AcDbArc
 50
0.0052122878700337
 51
45.03763498988637
  0
LINE
  5
1F4
330
1F
100
AcDbEntity
  8
0
  6
Continuous
 62
     7
370
    15
100
AcDbLine
 10
381.867333553545
 20
111.6470029730411
 30
0.0
 11
381.867333553545
 21
125.9694589454742
 31
0.0
  0
LINE
  5
1F5
330
1F
100
AcDbEntity
  8
0
  6
Continuous
 62
     7
370
    15
100
AcDbLine
 10
378.8673339931293
 20
125.9694589454742
 30
0.0
 11
378.8673339931293
 21
108.0452582020374
 31
0.0
  0
ARC
  5
1F6
330
1F
100
AcDbEntity
  8
0
  6
Continuous
 62
     7
370
    15
100
AcDbCircle
 10
377.8689083955931
 20
125.9693640618839
 30
0.0
 40
0.9984256020448006
100
AcDbArc
 50
0.0054450018768524
 51
45.03743450606971
  0
LINE
  5
1F7
330
1F
100
AcDbEntity
  8
0
  6
Continuous
 62
     7
370
    15
100
AcDbLine
 10
372.0389064455404
 20
133.2044532675357
 30
0.0
 11
378.5744404939933
 21
126.6758186895461
 31
0.0
  0
ARC
  5
1F8
330
1F
100
AcDbEntity
  8
0
  6
Continuous
 62
     7
370
    15
100
AcDbCircle
 10
374.8610041136037
 20
136.0302573922835
 30
0.0
 40
3.993670517147105
100
AcDbArc
 50
180.0052386559166
 51
225.0376005642943
  0
LINE
  5
1F9
330
1F
100
AcDbEntity
  8
0
  6
Continuous
 62
     7
370
    15
100
AcDbLine
 10
373.8673336392267
 20
139.9746840972514
 30
0.0
 11
373.8673336392267
 21
136.0298922438236
 31
0.0
  0
ARC
  5
1FA
330
1F
100
AcDbEntity
  8
0
  6
Continuous
 62
     7
370
    15
100
AcDbCircle
 10
374.86573606649
 20
136.7191112889949
 30
0.0
 40
0.9984024308852278
100
AcDbArc
 50
180.0048804269813
 51
225.0379668507811
  0
LINE
  5
1FB
330
1F
100
AcDbEntity
  8
0
  6
Continuous
 62
     7
370
    15
100
AcDbLine
 10
374.1602269055321
 20
136.0126665014835
 30
0.0
 11
380.6957604883237
 21
129.4840319234939
 31
0.0
  0
ARC
  5
1FC
330
1F
100
AcDbEntity
  8
0
  6
Continuous
 62
     7
370
    15
100
AcDbCircle
 10
377.873664117784
 20
126.6582280076676
 30
0.0
 40
3.993669452435032
100
AcDbArc
 50
0.0052356599884797
 51
45.0376116177676
  0
LINE
  5
1FD
330
1F
100
AcDbEntity
  8
0
  6
Continuous
 62
     7
370
    15
100
AcDbLine
 10
381.867333553545
 20
125.9694589454742
 30
0.0
 11
381.867333553545
 21
126.658592947206
 31
0.0
  0
LINE
  5
1FE
330
1F
100
AcDbEntity
  8
0
  6
Continuous
 62
     7
370
    15
100
AcDbLine
 10
378.8673339931293
 20
108.0452582020374
 30
0.0
 11
378.8673339931293
 21
102.3209119368406
 31
0.0
  0
SPLINE
  5
1FF
330
1F
100
AcDbEntity
  8
0
  6
Continuous
 62
     7
370
    15
100
AcDbSpline
210
0.0
220
0.0
230
1.0
 70
     8
 71
     3
 72
    10
 73
     6
 74
     0
 42
0.0000000001
 43
0.0000000001
 40
0.0
 40
0.0
 40
0.0
 40
0.0
 40
0.4188288330828169
 40
0.8362844926298999
 40
0.9999999999999998
 40
0.9999999999999998
 40
0.9999999999999998
 40
0.9999999999999998
 10
378.5744395626708
 20
115.2635930258842
 30
0.0
 10
378.6471717519515
 20
115.2990291876446
 30
0.0
 10
378.7923976705275
 20
115.3697853300534
 30
0.0
 10
378.8602455947128
 20
115.4951171609185
 30
0.0
 10
378.8657760638721
 20
115.5763246197641
 30
0.0
 10
378.8673339931293
 20
115.5992007035823
 30
0.0
  0
ELLIPSE
  5
200
330
1F
100
AcDbEntity
  8
0
  6
Continuous
 62
     7
370
    15
100
AcDbEllipse
 10
376.6246929260304
 20
119.952487916807
 30
0.0
 11
3.615836978079642
 21
-3.61583697807957
 31
0.0
210
0.0
220
0.0
230
1.0
 40
0.9550662890749425
 41
5.76156452545032
 42
5.8753847309292
  0
SPLINE
  5
201
330
1F
100
AcDbEntity
  8
0
  6
Continuous
 62
     7
370
    15
100
AcDbSpline
210
0.0
220
0.0
230
1.0
 70
     8
 71
     3
 72
     9
 73
     5
 74
     0
 42
0.0000000001
 43
0.0000000001
 40
0.0
 40
0.0
 40
0.0
 40
0.0
 40
0.6667465195858725
 40
1.0
 40
1.0
 40
1.0
 40
1.0
 10
377.2543154245241
 20
114.97172025629
 30
0.0
 10
377.3939621620712
 20
114.9779930742043
 30
0.0
 10
377.6034071811974
 20
114.9874011741794
 30
0.0
 10
377.9300510565474
 20
115.069416542385
 30
0.0
 10
378.0389062648638
 20
115.096748449287
 30
0.0
  0
ARC
  5
202
330
1F
100
AcDbEntity
  8
0
  6
Continuous
 62
     7
370
    15
100
AcDbCircle
 10
378.6149956485691
 20
101.9099128496084
 30
0.0
 40
0.9717959307379759
100
AcDbArc
 50
74.9500005895309
 51
92.39177188882859
  0
LINE
  5
203
330
1F
100
AcDbEntity
  8
0
  6
Continuous
 62
     7
370
    15
100
AcDbLine
 10
378.0389062648638
 20
102.9054658640237
 30
0.0
 11
378.5744404939933
 21
102.8808621842475
 31
0.0
  0
LINE
  5
204
330
1F
100
AcDbEntity
  8
0
  6
Continuous
 62
     7
370
    15
100
AcDbLine
 10
376.8673336653038
 20
115.0227381069274
 30
0.0
 11
376.8673336653038
 21
103.0354095775695
 31
0.0
  0
ARC
  5
205
330
1F
100
AcDbEntity
  8
0
  6
Continuous
 62
     7
370
    15
100
AcDbCircle
 10
377.1045109086953
 20
115.4197278521099
 30
0.0
 40
0.4624434047133371
100
AcDbArc
 50
239.144249133887
 51
272.6232308140495
  0
ARC
  5
206
330
1F
100
AcDbEntity
  8
0
  6
Continuous
 62
     7
370
    15
100
AcDbCircle
 10
377.8767385389715
 20
106.7897830380018
 30
0.0
 40
3.887700898909557
100
AcDbArc
 50
254.9512641409083
 51
272.3906733376259
  0
LINE
  5
207
330
1F
100
AcDbEntity
  8
0
  6
Continuous
 62
     7
370
    15
100
AcDbLine
 10
376.8673336653038
 20
115.2334218997569
 30
0.0
 11
376.8673336653038
 21
115.0227381069274
 31
0.0
  0
LINE
  5
208
330
1F
100
AcDbEntity
  8
0
  6
Continuous
 62
     7
370
    15
100
AcDbLine
 10
376.8673336653038
 20
115.2397548932643
 30
0.0
 11
376.8673336653038
 21
115.2334218997569
 31
0.0
  0
LINE
  5
209
330
1F
100
AcDbEntity
  8
0
  6
Continuous
 62
     7
370
    15
100
AcDbLine
 10
384.8673340452834
 20
115.3186304647537
 30
0.0
 11
384.8673340452834
 21
102.1811688471647
 31
0.0
  0
LINE
  5
20A
330
1F
100
AcDbEntity
  8
0
  6
Continuous
 62
     7
370
    15
100
AcDbLine
 10
381.867333553545
 20
111.6470029730411
 30
0.0
 11
381.867333553545
 21
102.1811688471647
 31
0.0
  0
LINE
  5
20B
330
1F
100
AcDbEntity
  8
0
  6
Continuous
 62
     7
370
    15
100
AcDbLine
 10
381.867333553545
 20
102.1811688471647
 30
0.0
 11
381.867333553545
 21
93.29257217832525
 31
0.0
  0
LINE
  5
20C
330
1F
100
AcDbEntity
  8
0
  6
Continuous
 62
     7
370
    15
100
AcDbLine
 10
384.8673340452834
 20
102.1811688471647
 30
0.0
 11
384.8673340452834
 21
93.29257217832525
 31
0.0
  0
LINE
  5
20D
330
1F
100
AcDbEntity
  8
0
  6
Continuous
 62
     7
370
    15
100
AcDbLine
 10
384.8673340452834
 20
116.2374770421596
 30
0.0
 11
384.8673340452834
 21
115.3186304647537
 31
0.0
  0
LINE
  5
20E
330
1F
100
AcDbEntity
  8
0
  6
Continuous
 62
     7
370
    15
100
AcDbLine
 10
381.867333553545
 20
93.29257217832525
 30
0.0
 11
381.867333553545
 21
92.43231696673353
 31
0.0
  0
LINE
  5
20F
330
1F
100
AcDbEntity
  8
0
  6
Continuous
 62
     7
370
    15
100
AcDbLine
 10
384.8673340452834
 20
93.29257217832525
 30
0.0
 11
384.8673340452834
 21
92.43231696673353
 31
0.0
  0
LINE
  5
210
330
1F
100
AcDbEntity
  8
0
  6
Continuous
 62
     7
370
    15
100
AcDbLine
 10
384.8673340452834
 20
116.2397569198222
 30
0.0
 11
384.8673340452834
 21
116.2374770421596
 31
0.0
  0
LINE
  5
211
330
1F
100
AcDbEntity
  8
0
  6
Continuous
 62
     7
370
    15
100
AcDbLine
 10
356.867333181016
 20
115.3186304647537
 30
0.0
 11
356.867333181016
 21
102.1811688471647
 31
0.0
  0
LINE
  5
212
330
1F
100
AcDbEntity
  8
0
  6
Continuous
 62
     7
370
    15
100
AcDbLine
 10
359.8673336727543
 20
111.6470029730411
 30
0.0
 11
359.8673336727543
 21
102.1811688471647
 31
0.0
  0
LINE
  5
213
330
1F
100
AcDbEntity
  8
0
  6
Continuous
 62
     7
370
    15
100
AcDbLine
 10
356.867333181016
 20
102.1811688471647
 30
0.0
 11
356.867333181016
 21
93.29257217832525
 31
0.0
  0
LINE
  5
214
330
1F
100
AcDbEntity
  8
0
  6
Continuous
 62
     7
370
    15
100
AcDbLine
 10
359.8673336727543
 20
102.1811688471647
 30
0.0
 11
359.8673336727543
 21
93.29257217832525
 31
0.0
  0
LINE
  5
215
330
1F
100
AcDbEntity
  8
0
  6
Continuous
 62
     7
370
    15
100
AcDbLine
 10
356.867333181016
 20
116.2374770421596
 30
0.0
 11
356.867333181016
 21
115.3186304647537
 31
0.0
  0
LINE
  5
216
330
1F
100
AcDbEntity
  8
0
  6
Continuous
 62
     7
370
    15
100
AcDbLine
 10
356.867333181016
 20
93.29257217832525
 30
0.0
 11
356.867333181016
 21
92.43231696673353
 31
0.0
  0
LINE
  5
217
330
1F
100
AcDbEntity
  8
0
  6
Continuous
 62
     7
370
    15
100
AcDbLine
 10
359.8673336727543
 20
93.29257217832525
 30
0.0
 11
359.8673336727543
 21
92.43231696673353
 31
0.0
  0
LINE
  5
218
330
1F
100
AcDbEntity
  8
0
  6
Continuous
 62
     7
370
    15
100
AcDbLine
 10
356.867333181016
 20
116.2397569198222
 30
0.0
 11
356.867333181016
 21
116.2374770421596
 31
0.0
  0
CIRCLE
  5
219
330
1F
100
AcDbEntity
  8
0
  6
Continuous
 62
     7
370
    15
100
AcDbCircle
 10
370.8673336131497
 20
109.239755787334
 30
0.0
 40
5.499999999983629
  0
CIRCLE
  5
21A
330
1F
100
AcDbEntity
  8
0
  6
Continuous
 62
     7
370
    15
100
AcDbCircle
 10
370.8673336131497
 20
109.239755787334
 30
0.0
 40
6.0
  0
ARC
  5
21B
330
1F
100
AcDbEntity
  8
0
  6
Continuous
 62
     7
370
    15
100
AcDbCircle
 10
370.8673336131497
 20
109.239755787334
 30
0.0
 40
11.00000000000001
100
AcDbArc
 50
119.9999999999999
 51
136.6582417727785
  0
ARC
  5
21C
330
1F
100
AcDbEntity
  8
0
  6
Continuous
 62
     7
370
    15
100
AcDbCircle
 10
370.8673336131497
 20
109.239755787334
 30
0.0
 40
11.00000000000001
100
AcDbArc
 50
60.00000000000005
 51
119.9999999999999
  0
ARC
  5
21D
330
1F
100
AcDbEntity
  8
0
  6
Continuous
 62
     7
370
    15
100
AcDbCircle
 10
370.8673336131497
 20
109.239755787334
 30
0.0
 40
11.00000000000005
100
AcDbArc
 50
43.34175822722357
 51
60.00000000000005
  0
ARC
  5
21E
330
1F
100
AcDbEntity
  8
0
  6
Continuous
 62
     7
370
    15
100
AcDbCircle
 10
370.8673336131497
 20
109.239755787334
 30
0.0
 40
6.500000000073242
100
AcDbArc
 50
202.6198649495888
 51
337.3801350504095
  0
ARC
  5
21F
330
1F
100
AcDbEntity
  8
0
  6
Continuous
 62
     7
370
    15
100
AcDbCircle
 10
370.8673336131497
 20
109.239755787334
 30
0.0
 40
6.500000000073248
100
AcDbArc
 50
22.61986494959132
 51
157.3801350504119
  0
LINE
  5
220
330
1F
100
AcDbEntity
  8
0
  6
Continuous
 62
     7
370
    15
100
AcDbLine
 10
376.3673335833474
 20
118.7660364586921
 30
0.0
 11
378.8673339931293
 21
117.3226578313918
 31
0.0
  0
SPLINE
  5
221
330
1F
100
AcDbEntity
  8
0
  6
Continuous
 62
     7
370
    15
100
AcDbSpline
210
0.0
220
0.0
230
1.0
 70
     8
 71
     3
 72
     9
 73
     5
 74
     0
 42
0.0000000001
 43
0.0000000001
 40
0.0
 40
0.0
 40
0.0
 40
0.0
 40
0.4987906773504245
 40
1.0
 40
1.0
 40
1.0
 40
1.0
 10
365.367333642952
 20
118.7660364586921
 30
0.0
 10
366.2851035009882
 20
119.2959101719546
 30
0.0
 10
368.1250935002225
 20
120.3582269659997
 30
0.0
 10
369.9517808725652
 20
121.4128672105967
 30
0.0
 10
370.8673336131497
 20
121.9414627332301
 30
0.0
  0
SPLINE
  5
222
330
1F
100
AcDbEntity
  8
0
  6
Continuous
 62
     7
370
    15
100
AcDbSpline
210
0.0
220
0.0
230
1.0
 70
     8
 71
     3
 72
     9
 73
     5
 74
     0
 42
0.0000000001
 43
0.0000000001
 40
0.0
 40
0.0
 40
0.0
 40
0.0
 40
0.4989631102056221
 40
1.0
 40
1.0
 40
1.0
 40
1.0
 10
370.8673336131497
 20
121.9414627332301
 30
0.0
 10
371.7787730005868
 20
121.4152433653128
 30
0.0
 10
373.6054398799508
 20
120.3606175680258
 30
0.0
 10
375.4454304372614
 20
119.2982978341303
 30
0.0
 10
376.3673335833474
 20
118.7660364586921
 30
0.0
  0
LINE
  5
223
330
1F
100
AcDbEntity
  8
0
  6
Continuous
 62
     7
370
    15
100
AcDbLine
 10
362.8673332331701
 20
117.3226578313918
 30
0.0
 11
365.367333642952
 21
118.7660364586921
 31
0.0
  0
LINE
  5
224
330
1F
100
AcDbEntity
  8
0
  6
Continuous
 62
     7
370
    15
100
AcDbLine
 10
394.367332808487
 20
79.23975597732385
 30
0.0
 11
399.3673336280508
 21
79.23975597732385
 31
0.0
  0
LINE
  5
225
330
1F
100
AcDbEntity
  8
0
  6
Continuous
 62
     7
370
    15
100
AcDbLine
 10
399.3673336280508
 20
79.23975597732385
 30
0.0
 11
399.3673336280508
 21
75.23975578733405
 31
0.0
  0
LINE
  5
226
330
1F
100
AcDbEntity
  8
0
  6
Continuous
 62
     7
370
    15
100
AcDbLine
 10
399.3673336280508
 20
75.23975578733405
 30
0.0
 11
394.367332808487
 21
75.23975578733405
 31
0.0
  0
LINE
  5
227
330
1F
100
AcDbEntity
  8
0
  6
Continuous
 62
     7
370
    15
100
AcDbLine
 10
347.3673344178124
 20
79.23975597732385
 30
0.0
 11
394.367332808487
 21
79.23975597732385
 31
0.0
  0
LINE
  5
228
330
1F
100
AcDbEntity
  8
0
  6
Continuous
 62
     7
370
    15
100
AcDbLine
 10
347.3673344178124
 20
75.23975578733405
 30
0.0
 11
394.367332808487
 21
75.23975578733405
 31
0.0
  0
LINE
  5
229
330
1F
100
AcDbEntity
  8
0
  6
Continuous
 62
     7
370
    15
100
AcDbLine
 10
342.3673335982485
 20
75.23975578733405
 30
0.0
 11
342.3673335982485
 21
79.23975597732385
 31
0.0
  0
LINE
  5
22A
330
1F
100
AcDbEntity
  8
0
  6
Continuous
 62
     7
370
    15
100
AcDbLine
 10
342.3673335982485
 20
79.23975597732385
 30
0.0
 11
347.3673344178124
 21
79.23975597732385
 31
0.0
  0
LINE
  5
22B
330
1F
100
AcDbEntity
  8
0
  6
Continuous
 62
     7
370
    15
100
AcDbLine
 10
347.3673344178124
 20
75.23975578733405
 30
0.0
 11
342.3673335982485
 21
75.23975578733405
 31
0.0
  0
LINE
  5
22C
330
1F
100
AcDbEntity
  8
0
  6
Continuous
 62
     7
370
    15
100
AcDbLine
 10
342.3673335982485
 20
79.23975597732385
 30
0.0
 11
342.3673335982485
 21
82.23975600340088
 31
0.0
  0
LINE
  5
22D
330
1F
100
AcDbEntity
  8
0
  6
Continuous
 62
     7
370
    15
100
AcDbLine
 10
399.3673336280508
 20
82.23975600340088
 30
0.0
 11
399.3673336280508
 21
79.23975597732385
 31
0.0
  0
ARC
  5
22E
330
1F
100
AcDbEntity
  8
0
  6
Continuous
 62
     7
370
    15
100
AcDbCircle
 10
347.3673336131497
 20
101.2961049734381
 30
0.0
 40
5.0
100
AcDbArc
 50
134.9999999999996
 51
180.0
  0
LINE
  5
22F
330
1F
100
AcDbEntity
  8
0
  6
Continuous
 62
     7
370
    15
100
AcDbLine
 10
343.8317992312832
 20
104.8316383887143
 30
0.0
 11
359.5536251140757
 21
120.5534642715068
 31
0.0
  0
LINE
  5
230
330
1F
100
AcDbEntity
  8
0
  6
Continuous
 62
     7
370
    15
100
AcDbLine
 10
382.1810421122237
 20
120.5534642715068
 30
0.0
 11
381.867333553545
 21
120.8587071079822
 31
0.0
  0
ARC
  5
231
330
1F
100
AcDbEntity
  8
0
  6
Continuous
 62
     7
370
    15
100
AcDbCircle
 10
370.8673336131497
 20
109.239755787334
 30
0.0
 40
16.00000000000002
100
AcDbArc
 50
60.00000000000074
 51
120.0000000000007
  0
LINE
  5
232
330
1F
100
AcDbEntity
  8
0
  6
Continuous
 62
     7
370
    15
100
AcDbLine
 10
359.8673336727543
 20
120.8587071079822
 30
0.0
 11
359.5536251140757
 21
120.5534642715068
 31
0.0
  0
LINE
  5
233
330
1F
100
AcDbEntity
  8
0
  6
Continuous
 62
     7
370
    15
100
AcDbLine
 10
397.9028679950161
 20
104.8316383887143
 30
0.0
 11
382.1810421122237
 21
120.5534642715068
 31
0.0
  0
ARC
  5
234
330
1F
100
AcDbEntity
  8
0
  6
Continuous
 62
     7
370
    15
100
AcDbCircle
 10
394.3673336131498
 20
101.2961049734381
 30
0.0
 40
5.0
100
AcDbArc
 50
0.0
 51
45.00000000000034
  0
LINE
  5
235
330
1F
100
AcDbEntity
  8
0
  6
Continuous
 62
     7
370
    15
100
AcDbLine
 10
342.3673335982485
 20
82.23975600340088
 30
0.0
 11
342.3673335982485
 21
101.2961050648303
 31
0.0
  0
LINE
  5
236
330
1F
100
AcDbEntity
  8
0
  6
Continuous
 62
     7
370
    15
100
AcDbLine
 10
399.3673336280508
 20
82.23975600340088
 30
0.0
 11
399.3673336280508
 21
101.2961050648303
 31
0.0
  0
SPLINE
  5
237
330
1F
100
AcDbEntity
  8
0
  6
Continuous
 62
     7
370
    15
100
AcDbSpline
210
0.0
220
0.0
230
1.0
 70
    11
 71
     3
 72
    71
 73
    67
 74
     0
 42
0.0000000001
 43
0.0000000001
 40
0.0
 40
0.0
 40
0.0
 40
0.0
 40
0.0098977423339854
 40
0.0256940627232026
 40
0.041669527378325
 40
0.0577144364297503
 40
0.0735290477613128
 40
0.0894257001395877
 40
0.1054804795132591
 40
0.1213947706776338
 40
0.1372009151227019
 40
0.1532193033625808
 40
0.1692295140736941
 40
0.1850409617446092
 40
0.2009979782602262
 40
0.2170538479233767
 40
0.232889960726069
 40
0.2487636992958351
 40
0.2648166350770988
 40
0.2807685279816413
 40
0.2965686495875805
 40
0.3125752364620247
 40
0.3286073286433169
 40
0.3444195268936121
 40
0.3603565205728342
 40
0.3764174270606537
 40
0.3922829742560906
 40
0.4081276120230774
 40
0.4241681648092176
 40
0.4401465905630979
 40
0.4559437629976176
 40
0.4719289130087302
 40
0.487982970375109
 40
0.5038621028236595
 40
0.5198151367860113
 40
0.535792960018747
 40
0.5516419232764772
 40
0.5676423569859637
 40
0.5835628891548782
 40
0.5993694308629545
 40
0.6153787997475233
 40
0.6313979532186106
 40
0.6472072176145942
 40
0.6631514300656736
 40
0.6792082922832945
 40
0.695056735989085
 40
0.7109143559145831
 40
0.7269603849439863
 40
0.7429268756916416
 40
0.7587249115050544
 40
0.7747217362365503
 40
0.7907613656415409
 40
0.8065744917949135
 40
0.8224990877751132
 40
0.8385605208896762
 40
0.8544469164686818
 40
0.8702768926909545
 40
0.8863116988941268
 40
0.9023046357849787
 40
0.9181067183884785
 40
0.9340829437645062
 40
0.9501317192290594
 40
0.9659497847280393
 40
0.9818450969291127
 40
0.9968861709564823
 40
1.0
 40
1.0
 40
1.0
 40
1.0
 10
256.8916590613739
 20
248.6298051895906
 30
0.0
 10
257.1685579036457
 20
248.5770155626794
 30
0.0
 10
257.8873739711125
 20
248.4399762319694
 30
0.0
 10
259.0715459188524
 20
248.3327505277869
 30
0.0
 10
260.4347791448461
 20
248.3364617863935
 30
0.0
 10
261.7917237399258
 20
248.4793777284734
 30
0.0
 10
263.1247514058882
 20
248.7582952408519
 30
0.0
 10
264.4240930184777
 20
249.1673135830646
 30
0.0
 10
265.679167779196
 20
249.7046004701693
 30
0.0
 10
266.8706412361424
 20
250.3659331182057
 30
0.0
 10
267.9896717078197
 20
251.1415695640225
 30
0.0
 10
269.0290834815207
 20
252.0255664702033
 30
0.0
 10
269.9737589195323
 20
253.0105905151534
 30
0.0
 10
270.8133686519464
 20
254.0842352986089
 30
0.0
 10
271.5441210586116
 20
255.2363639719779
 30
0.0
 10
272.1562978908107
 20
256.4566778771817
 30
0.0
 10
272.6403688824015
 20
257.7306425625536
 30
0.0
 10
272.9966038829063
 20
259.0459441646438
 30
0.0
 10
273.2214636140974
 20
260.3934975494295
 30
0.0
 10
273.307766087271
 20
261.754872847349
 30
0.0
 10
273.2582140519967
 20
263.1165918770487
 30
0.0
 10
273.0747014175648
 20
264.4691882834714
 30
0.0
 10
272.7554664016336
 20
265.7967603644817
 30
0.0
 10
272.3045413319495
 20
267.0832692189287
 30
0.0
 10
271.7290608582388
 20
268.3199111070462
 30
0.0
 10
271.0322635310366
 20
269.4943854589173
 30
0.0
 10
270.2210823987373
 20
270.5895261923976
 30
0.0
 10
269.3062558818366
 20
271.5986382769709
 30
0.0
 10
268.2937574411633
 20
272.5146426589012
 30
0.0
 10
267.1944005611984
 20
273.3220322469847
 30
0.0
 10
266.0213493767915
 20
274.0144382877244
 30
0.0
 10
264.7839380590133
 20
274.5890539863719
 30
0.0
 10
263.4925912037362
 20
275.036729940416
 30
0.0
 10
262.1636553930371
 20
275.3512344523926
 30
0.0
 10
260.8122979592907
 20
275.5325545251224
 30
0.0
 10
259.4503240606804
 20
275.5764783805105
 30
0.0
 10
258.0895891086605
 20
275.4838613833384
 30
0.0
 10
256.7461723872262
 20
275.2573526532128
 30
0.0
 10
255.433787104366
 20
274.895978700774
 30
0.0
 10
254.1637599873641
 20
274.405739000079
 30
0.0
 10
252.9455317508974
 20
273.7914846044327
 30
0.0
 10
251.7955271274703
 20
273.0569348352529
 30
0.0
 10
250.7270162811957
 20
272.2113381405289
 30
0.0
 10
249.7460018017881
 20
271.2640052298687
 30
0.0
 10
248.8636939811566
 20
270.222338628761
 30
0.0
 10
248.0934197466933
 20
269.0983163434002
 30
0.0
 10
247.437902660864
 20
267.9041406757209
 30
0.0
 10
246.9022531768655
 20
266.6477138853863
 30
0.0
 10
246.4977495714133
 20
265.3448463931188
 30
0.0
 10
246.2255369110123
 20
264.0096352679583
 30
0.0
 10
246.0856248138618
 20
262.6519656826934
 30
0.0
 10
246.0832379066522
 20
261.2865492317185
 30
0.0
 10
246.2187251803374
 20
259.9300859367298
 30
0.0
 10
246.486956448845
 20
258.5929559192896
 30
0.0
 10
246.887621744046
 20
257.28704347988
 30
0.0
 10
247.4182081664424
 20
256.0313465084357
 30
0.0
 10
248.0698742528227
 20
254.8350968282008
 30
0.0
 10
248.8381199499261
 20
253.7063865934966
 30
0.0
 10
249.7165611715727
 20
252.6621958675967
 30
0.0
 10
250.6938913661053
 20
251.7126750227845
 30
0.0
 10
251.7610538895325
 20
250.8628499142464
 30
0.0
 10
252.9086951927776
 20
250.1243648028557
 30
0.0
 10
254.1231266637325
 20
249.5071081991876
 30
0.0
 10
255.3656352859225
 20
249.0237797987842
 30
0.0
 10
256.2998650514446
 20
248.7581953826971
 30
0.0
 10
256.8050180069854
 20
248.6486020370024
 30
0.0
 10
256.8916590613739
 20
248.6298051895906
 30
0.0
  0
LINE
  5
238
330
1F
100
AcDbEntity
  8
0
  6
Continuous
 62
     7
370
    15
100
AcDbLine
 10
259.2364163798706
 20
275.9474651189854
 30
0.0
 11
258.8756555420772
 21
275.9474651189854
 31
0.0
  0
LINE
  5
239
330
1F
100
AcDbEntity
  8
0
  6
Continuous
 62
     7
370
    15
100
AcDbLine
 10
258.8756555420772
 20
247.947464254718
 30
0.0
 11
259.2364163798706
 21
247.947464254718
 31
0.0
  0
LINE
  5
23A
330
1F
100
AcDbEntity
  8
0
  6
Continuous
 62
     7
370
    15
100
AcDbLine
 10
258.4110559625045
 20
275.9474651189854
 30
0.0
 11
258.0486969751731
 21
275.9474651189854
 31
0.0
  0
LINE
  5
23B
330
1F
100
AcDbEntity
  8
0
  6
Continuous
 62
     7
370
    15
100
AcDbLine
 10
258.0486969751731
 20
247.947464254718
 30
0.0
 11
258.4110559625045
 21
247.947464254718
 31
0.0
  0
LINE
  5
23C
330
1F
100
AcDbEntity
  8
0
  6
Continuous
 62
     7
370
    15
100
AcDbLine
 10
257.5840936703102
 20
275.9474651189854
 30
0.0
 11
257.2217384082691
 21
275.9474651189854
 31
0.0
  0
LINE
  5
23D
330
1F
100
AcDbEntity
  8
0
  6
Continuous
 62
     7
370
    15
100
AcDbLine
 10
257.2217384082691
 20
247.947464254718
 30
0.0
 11
257.5840936703102
 21
247.947464254718
 31
0.0
  0
LINE
  5
23E
330
1F
100
AcDbEntity
  8
0
  6
Continuous
 62
     7
370
    15
100
AcDbLine
 10
256.7571351034061
 20
275.9474651189854
 30
0.0
 11
256.4831698042766
 21
275.9474651189854
 31
0.0
  0
LINE
  5
23F
330
1F
100
AcDbEntity
  8
0
  6
Continuous
 62
     7
370
    15
100
AcDbLine
 10
256.4831698042766
 20
247.947464254718
 30
0.0
 11
256.7571351034061
 21
247.947464254718
 31
0.0
  0
SPLINE
  5
240
330
1F
100
AcDbEntity
  8
0
  6
Continuous
 62
     7
370
    15
100
AcDbSpline
210
0.0
220
0.0
230
1.0
 70
     8
 71
     3
 72
    18
 73
    14
 74
     0
 42
0.0000000001
 43
0.0000000001
 40
0.0
 40
0.0
 40
0.0
 40
0.0
 40
0.092976729256203
 40
0.1951732158258382
 40
0.2970411472461917
 40
0.3984048308244911
 40
0.4989357740989703
 40
0.5979383414455252
 40
0.6936409465651991
 40
0.7837139262645967
 40
0.847188220612854
 40
0.9128957759501801
 40
1.0
 40
1.0
 40
1.0
 40
1.0
 10
247.8839313340799
 20
272.984248143654
 30
0.0
 10
247.5778130750521
 20
272.7358199905833
 30
0.0
 10
246.9352212618594
 20
272.2143290549011
 30
0.0
 10
246.0562582147093
 20
271.3093285756905
 30
0.0
 10
245.235205674327
 20
270.3070185313004
 30
0.0
 10
244.5159164728119
 20
269.2370016698308
 30
0.0
 10
243.9029467158996
 20
268.116839125149
 30
0.0
 10
243.4035275035903
 20
266.9676969037774
 30
0.0
 10
243.0216738866532
 20
265.8211855317869
 30
0.0
 10
242.7727879487556
 20
264.793175938351
 30
0.0
 10
242.6186423368789
 20
263.8764268964612
 30
0.0
 10
242.515443735291
 20
262.96462668839
 30
0.0
 10
242.5009399108979
 20
262.3167568791511
 30
0.0
 10
242.4926725876943
 20
261.9474646868517
 30
0.0
  0
SPLINE
  5
241
330
1F
100
AcDbEntity
  8
0
  6
Continuous
 62
     7
370
    15
100
AcDbSpline
210
0.0
220
0.0
230
1.0
 70
     8
 71
     3
 72
    19
 73
    15
 74
     0
 42
0.0000000001
 43
0.0000000001
 40
0.0
 40
0.0
 40
0.0
 40
0.0
 40
0.1153044224430825
 40
0.1623404424273435
 40
0.2404612971025154
 40
0.3218250035401471
 40
0.4093473492375734
 40
0.5009802679937991
 40
0.5959080156874377
 40
0.6934841094423883
 40
0.7932540343709969
 40
0.8948860438544354
 40
0.9981359800584938
 40
1.0
 40
1.0
 40
1.0
 40
1.0
 10
242.4926725876943
 20
261.9474646868517
 30
0.0
 10
242.5056037647529
 20
261.4768991196638
 30
0.0
 10
242.5238099441891
 20
260.814376202071
 30
0.0
 10
242.6454782648078
 20
259.840614300161
 30
0.0
 10
242.7921496611625
 20
259.0105720413068
 30
0.0
 10
243.0376334729036
 20
258.0325518030384
 30
0.0
 10
243.3715205033697
 20
257.0227363445878
 30
0.0
 10
243.8049680532078
 20
255.9910574289983
 30
0.0
 10
244.3397703493723
 20
254.9614333949552
 30
0.0
 10
244.9775198658108
 20
253.952991621489
 30
0.0
 10
245.7142157998701
 20
252.9786150995473
 30
0.0
 10
246.5575073791026
 20
252.0664211110357
 30
0.0
 10
247.1619167816117
 20
251.473392068292
 30
0.0
 10
247.5026425049882
 20
251.213339336587
 30
0.0
 10
247.508684704961
 20
251.2087277369906
 30
0.0
  0
LINE
  5
242
330
1F
100
AcDbEntity
  8
0
  6
Continuous
 62
     7
370
    15
100
AcDbLine
 10
150.3021890026943
 20
265.9474648768415
 30
0.0
 11
135.3021884066478
 21
265.9474648768415
 31
0.0
  0
LINE
  5
243
330
1F
100
AcDbEntity
  8
0
  6
Continuous
 62
     7
370
    15
100
AcDbLine
 10
135.3021884066478
 20
257.9474644968619
 30
0.0
 11
150.3021890026943
 21
257.9474644968619
 31
0.0
  0
LINE
  5
244
330
1F
100
AcDbEntity
  8
0
  6
Continuous
 62
     7
370
    15
100
AcDbLine
 10
260.2810734612361
 20
275.9474651189854
 30
0.0
 11
260.2810734612361
 21
277.4474644335319
 31
0.0
  0
LINE
  5
245
330
1F
100
AcDbEntity
  8
0
  6
Continuous
 62
     7
370
    15
100
AcDbLine
 10
252.281072149934
 20
277.4474644335319
 30
0.0
 11
252.281072149934
 21
275.9474651189854
 31
0.0
  0
LINE
  5
246
330
1F
100
AcDbEntity
  8
0
  6
Continuous
 62
     7
370
    15
100
AcDbLine
 10
252.281072149934
 20
247.947464254718
 30
0.0
 11
252.281072149934
 21
246.4474649401714
 31
0.0
  0
LINE
  5
247
330
1F
100
AcDbEntity
  8
0
  6
Continuous
 62
     7
370
    15
100
AcDbLine
 10
260.2810734612361
 20
246.4474649401714
 30
0.0
 11
260.2810734612361
 21
247.947464254718
 31
0.0
  0
LINE
  5
248
330
1F
100
AcDbEntity
  8
0
  6
Continuous
 62
     7
370
    15
100
AcDbLine
 10
232.8021904183046
 20
252.9474650742819
 30
0.0
 11
232.8021904183046
 21
251.4474648284127
 31
0.0
  0
LINE
  5
249
330
1F
100
AcDbEntity
  8
0
  6
Continuous
 62
     7
370
    15
100
AcDbLine
 10
239.8021897030488
 20
251.4474648284127
 30
0.0
 11
239.8021897030488
 21
252.9474650742819
 31
0.0
  0
LINE
  5
24A
330
1F
100
AcDbEntity
  8
0
  6
Continuous
 62
     7
370
    15
100
AcDbLine
 10
233.8021905822174
 20
272.947464627247
 30
0.0
 11
233.8021905822174
 21
270.9474642994215
 31
0.0
  0
LINE
  5
24B
330
1F
100
AcDbEntity
  8
0
  6
Continuous
 62
     7
370
    15
100
AcDbLine
 10
238.8021914017812
 20
270.9474642994215
 30
0.0
 11
238.8021914017812
 21
272.947464627247
 31
0.0
  0
LINE
  5
24C
330
1F
100
AcDbEntity
  8
0
  6
Continuous
 62
     7
370
    15
100
AcDbLine
 10
216.0428006397054
 20
247.947464254718
 30
0.0
 11
216.0428006397054
 21
246.9474650221278
 31
0.0
  0
LINE
  5
24D
330
1F
100
AcDbEntity
  8
0
  6
Continuous
 62
     7
370
    15
100
AcDbLine
 10
224.5428004031495
 20
246.9474650221278
 30
0.0
 11
224.5428004031495
 21
247.947464254718
 31
0.0
  0
LINE
  5
24E
330
1F
100
AcDbEntity
  8
0
  6
Continuous
 62
     7
370
    15
100
AcDbLine
 10
224.5428004031495
 20
275.9474651189854
 30
0.0
 11
224.5428004031495
 21
276.9474643515756
 31
0.0
  0
LINE
  5
24F
330
1F
100
AcDbEntity
  8
0
  6
Continuous
 62
     7
370
    15
100
AcDbLine
 10
216.0428006397054
 20
276.9474643515756
 30
0.0
 11
216.0428006397054
 21
275.9474651189854
 31
0.0
  0
LINE
  5
250
330
1F
100
AcDbEntity
  8
0
  6
Continuous
 62
     7
370
    15
100
AcDbLine
 10
243.0489180338994
 20
250.9474647464563
 30
0.0
 11
243.0489180338994
 21
251.2933300109913
 31
0.0
  0
LINE
  5
251
330
1F
100
AcDbEntity
  8
0
  6
Continuous
 62
     7
370
    15
100
AcDbLine
 10
243.0489180338994
 20
255.4203975247552
 30
0.0
 11
243.0489180338994
 21
256.194191076826
 31
0.0
  0
LINE
  5
252
330
1F
100
AcDbEntity
  8
0
  6
Continuous
 62
     7
370
    15
100
AcDbLine
 10
243.0489180338994
 20
267.7007382968773
 30
0.0
 11
243.0489180338994
 21
268.4745318489482
 31
0.0
  0
LINE
  5
253
330
1F
100
AcDbEntity
  8
0
  6
Continuous
 62
     7
370
    15
100
AcDbLine
 10
243.0489180338994
 20
272.6015993627121
 30
0.0
 11
243.0489180338994
 21
272.947464627247
 31
0.0
  0
LINE
  5
254
330
1F
100
AcDbEntity
  8
0
  6
Continuous
 62
     7
370
    15
100
AcDbLine
 10
237.0489170504228
 20
251.4474648284127
 30
0.0
 11
237.0489170504228
 21
250.9474647464563
 31
0.0
  0
LINE
  5
255
330
1F
100
AcDbEntity
  8
0
  6
Continuous
 62
     7
370
    15
100
AcDbLine
 10
242.5489170206205
 20
275.9474651189854
 30
0.0
 11
242.5489170206205
 21
277.7474639239122
 31
0.0
  0
LINE
  5
256
330
1F
100
AcDbEntity
  8
0
  6
Continuous
 62
     7
370
    15
100
AcDbLine
 10
237.5489180637018
 20
277.7474639239122
 30
0.0
 11
237.5489180637018
 21
275.9474651189854
 31
0.0
  0
LINE
  5
257
330
1F
100
AcDbEntity
  8
0
  6
Continuous
 62
     7
370
    15
100
AcDbLine
 10
242.5489170206205
 20
246.1474654497911
 30
0.0
 11
242.5489170206205
 21
247.947464254718
 31
0.0
  0
LINE
  5
258
330
1F
100
AcDbEntity
  8
0
  6
Continuous
 62
     7
370
    15
100
AcDbLine
 10
237.5489180637018
 20
247.947464254718
 30
0.0
 11
237.5489180637018
 21
246.1474654497911
 31
0.0
  0
LINE
  5
259
330
1F
100
AcDbEntity
  8
0
  6
Continuous
 62
     7
370
    15
100
AcDbLine
 10
230.3021909398452
 20
255.9474646346976
 30
0.0
 11
230.3021909398452
 21
252.9474650742819
 31
0.0
  0
LINE
  5
25A
330
1F
100
AcDbEntity
  8
0
  6
Continuous
 62
     7
370
    15
100
AcDbLine
 10
230.3021909398452
 20
270.9474642994215
 30
0.0
 11
230.3021909398452
 21
267.9474647390057
 31
0.0
  0
LINE
  5
25B
330
1F
100
AcDbEntity
  8
0
  6
Continuous
 62
     7
370
    15
100
AcDbLine
 10
213.292800421776
 20
275.9474651189854
 30
0.0
 11
213.292800421776
 21
272.947464627247
 31
0.0
  0
LINE
  5
25C
330
1F
100
AcDbEntity
  8
0
  6
Continuous
 62
     7
370
    15
100
AcDbLine
 10
263.2810720903293
 20
275.2974662231614
 30
0.0
 11
263.2810720903293
 21
275.9474651189854
 31
0.0
  0
LINE
  5
25D
330
1F
100
AcDbEntity
  8
0
  6
Continuous
 62
     7
370
    15
100
AcDbLine
 10
213.292800421776
 20
250.9474647464563
 30
0.0
 11
213.292800421776
 21
247.947464254718
 31
0.0
  0
LINE
  5
25E
330
1F
100
AcDbEntity
  8
0
  6
Continuous
 62
     7
370
    15
100
AcDbLine
 10
263.2810720903293
 20
247.947464254718
 30
0.0
 11
263.2810720903293
 21
248.5914058285167
 31
0.0
  0
LINE
  5
25F
330
1F
100
AcDbEntity
  8
0
  6
Continuous
 62
     7
370
    15
100
AcDbLine
 10
242.8021901947872
 20
255.9474646346976
 30
0.0
 11
243.3021912080661
 21
256.447464716654
 31
0.0
  0
LINE
  5
260
330
1F
100
AcDbEntity
  8
0
  6
Continuous
 62
     7
370
    15
100
AcDbLine
 10
243.3021912080661
 20
267.4474646570494
 30
0.0
 11
242.8021901947872
 21
267.9474647390057
 31
0.0
  0
LINE
  5
261
330
1F
100
AcDbEntity
  8
0
  6
Continuous
 62
     7
370
    15
100
AcDbLine
 10
230.3021909398452
 20
267.9474647390057
 30
0.0
 11
228.2928010178224
 21
267.9474647390057
 31
0.0
  0
LINE
  5
262
330
1F
100
AcDbEntity
  8
0
  6
Continuous
 62
     7
370
    15
100
AcDbLine
 10
196.2928013605491
 20
267.9474647390057
 30
0.0
 11
155.8021926981822
 21
267.9474647390057
 31
0.0
  0
LINE
  5
263
330
1F
100
AcDbEntity
  8
0
  6
Continuous
 62
     7
370
    15
100
AcDbLine
 10
242.8021901947872
 20
267.9474647390057
 30
0.0
 11
241.1587876928464
 21
267.9474647390057
 31
0.0
  0
LINE
  5
264
330
1F
100
AcDbEntity
  8
0
  6
Continuous
 62
     7
370
    15
100
AcDbLine
 10
241.1587876928464
 20
255.9474646346976
 30
0.0
 11
242.8021901947872
 21
255.9474646346976
 31
0.0
  0
LINE
  5
265
330
1F
100
AcDbEntity
  8
0
  6
Continuous
 62
     7
370
    15
100
AcDbLine
 10
155.8021926981822
 20
255.9474646346976
 30
0.0
 11
196.2928013605491
 21
255.9474646346976
 31
0.0
  0
LINE
  5
266
330
1F
100
AcDbEntity
  8
0
  6
Continuous
 62
     7
370
    15
100
AcDbLine
 10
228.2928010178224
 20
255.9474646346976
 30
0.0
 11
230.3021909398452
 21
255.9474646346976
 31
0.0
  0
LINE
  5
267
330
1F
100
AcDbEntity
  8
0
  6
Continuous
 62
     7
370
    15
100
AcDbLine
 10
155.8021926981822
 20
267.9474647390057
 30
0.0
 11
155.3021916849033
 21
267.4474646570494
 31
0.0
  0
LINE
  5
268
330
1F
100
AcDbEntity
  8
0
  6
Continuous
 62
     7
370
    15
100
AcDbLine
 10
155.3021916849033
 20
256.447464716654
 30
0.0
 11
155.8021926981822
 21
255.9474646346976
 31
0.0
  0
LINE
  5
269
330
1F
100
AcDbEntity
  8
0
  6
Continuous
 62
     7
370
    15
100
AcDbLine
 10
208.2928005335347
 20
271.8974645482709
 30
0.0
 11
197.7928006750957
 21
271.8974645482709
 31
0.0
  0
LINE
  5
26A
330
1F
100
AcDbEntity
  8
0
  6
Continuous
 62
     7
370
    15
100
AcDbLine
 10
197.7928006750957
 20
251.9974648254325
 30
0.0
 11
208.2928005335347
 21
251.9974648254325
 31
0.0
  0
LINE
  5
26B
330
1F
100
AcDbEntity
  8
0
  6
Continuous
 62
     7
370
    15
100
AcDbLine
 10
197.7928006750957
 20
271.8974645482709
 30
0.0
 11
196.2928013605491
 21
270.3974643024017
 31
0.0
  0
LINE
  5
26C
330
1F
100
AcDbEntity
  8
0
  6
Continuous
 62
     7
370
    15
100
AcDbLine
 10
196.2928013605491
 20
253.4974650713016
 30
0.0
 11
197.7928006750957
 21
251.9974648254325
 31
0.0
  0
SPLINE
  5
26D
330
1F
100
AcDbEntity
  8
0
  6
Continuous
 62
     7
370
    15
100
AcDbSpline
210
0.0
220
0.0
230
1.0
 70
     8
 71
     3
 72
    20
 73
    16
 74
     0
 42
0.0000000001
 43
0.0000000001
 40
0.0
 40
0.0
 40
0.0
 40
0.0
 40
0.0037518777448395
 40
0.0920023640038409
 40
0.1802528643276483
 40
0.2685032815403852
 40
0.3567537018832167
 40
0.445004285865029
 40
0.5332547441091407
 40
0.621505220621406
 40
0.7097555862825011
 40
0.7980061261193558
 40
0.8862565860110915
 40
0.9745070416838737
 40
1.0
 40
1.0
 40
1.0
 40
1.0
 10
247.7348079634325
 20
269.8953538434913
 30
0.0
 10
247.7515314135797
 20
269.9242903994345
 30
0.0
 10
248.1616185892518
 20
270.633863507614
 30
0.0
 10
249.2700859003402
 20
271.8263904199013
 30
0.0
 10
251.0430282920227
 20
273.3804271811286
 30
0.0
 10
253.08232935975
 20
274.5928369651437
 30
0.0
 10
255.2895857910209
 20
275.4452492953169
 30
0.0
 10
257.6093756179547
 20
275.9207084968189
 30
0.0
 10
259.9754369441163
 20
275.9917106686241
 30
0.0
 10
262.3216194030373
 20
275.672455396111
 30
0.0
 10
264.57660433189
 20
274.9543703115079
 30
0.0
 10
266.6897136175523
 20
273.8792318145827
 30
0.0
 10
268.5623322364482
 20
272.4413466405593
 30
0.0
 10
269.8631672004945
 20
271.1703027128701
 30
0.0
 10
270.4125032114658
 20
270.3179608655503
 30
0.0
 10
270.5356241864578
 20
270.126928132992
 30
0.0
  0
SPLINE
  5
26E
330
1F
100
AcDbEntity
  8
0
  6
Continuous
 62
     7
370
    15
100
AcDbSpline
210
0.0
220
0.0
230
1.0
 70
     8
 71
     3
 72
    19
 73
    15
 74
     0
 42
0.0000000001
 43
0.0000000001
 40
0.0
 40
0.0
 40
0.0
 40
0.0
 40
0.0362400167903378
 40
0.1281421150315655
 40
0.2200442249592445
 40
0.3119462414524984
 40
0.4038484071361932
 40
0.4957504692299214
 40
0.587652467581893
 40
0.679554640992333
 40
0.7714567009772308
 40
0.8633588131360806
 40
0.9552608469584383
 40
1.0
 40
1.0
 40
1.0
 40
1.0
 10
270.3303681415931
 20
253.502867673557
 30
0.0
 10
270.1521524654522
 20
253.2488612863846
 30
0.0
 10
269.5219945434899
 20
252.3507128149833
 30
0.0
 10
268.1205488865334
 20
251.0668567051191
 30
0.0
 10
266.181710051245
 20
249.7180987263651
 30
0.0
 10
264.029816370708
 20
248.7241864031126
 30
0.0
 10
261.7443751172109
 20
248.1093847664253
 30
0.0
 10
259.3878596803439
 20
247.880443052704
 30
0.0
 10
257.0270167653417
 20
248.0585126468962
 30
0.0
 10
254.7287094752933
 20
248.6237308567339
 30
0.0
 10
252.5565009392777
 20
249.5714766174447
 30
0.0
 10
250.5868905941088
 20
250.8762419123893
 30
0.0
 10
249.1096955547948
 20
252.1836815580833
 30
0.0
 10
248.4200334504659
 20
253.1290092587304
 30
0.0
 10
248.1942238015548
 20
253.4385291161348
 30
0.0
  0
ARC
  5
26F
330
1F
100
AcDbEntity
  8
0
  6
Continuous
 62
     7
370
    15
100
AcDbCircle
 10
258.8871854560899
 20
261.9474646868517
 30
0.0
 40
14.00000517995128
100
AcDbArc
 50
90.04718680295219
 51
269.9528131970486
  0
ARC
  5
270
330
1F
100
AcDbEntity
  8
0
  6
Continuous
 62
     7
370
    15
100
AcDbCircle
 10
258.4218176298067
 20
261.9470448115085
 30
0.0
 40
13.99940203429514
100
AcDbArc
 50
85.17436823030877
 51
270.9067412998107
  0
ARC
  5
271
330
1F
100
AcDbEntity
  8
0
  6
Continuous
 62
     7
370
    15
100
AcDbCircle
 10
258.060225646109
 20
261.9474646868517
 30
0.0
 40
14.00000517892757
100
AcDbArc
 50
90.04718171559463
 51
269.9528182844062
  0
ARC
  5
272
330
1F
100
AcDbEntity
  8
0
  6
Continuous
 62
     7
370
    15
100
AcDbCircle
 10
257.5953783895859
 20
261.9474646868517
 30
0.0
 40
13.99981358980183
100
AcDbArc
 50
89.09542627335341
 51
270.9045737266474
  0
ARC
  5
273
330
1F
100
AcDbEntity
  8
0
  6
Continuous
 62
     7
370
    15
100
AcDbCircle
 10
257.233267079205
 20
261.9474646868517
 30
0.0
 40
14.00000517892757
100
AcDbArc
 50
90.04718171559463
 51
269.9528182844062
  0
ARC
  5
274
330
1F
100
AcDbEntity
  8
0
  6
Continuous
 62
     7
370
    15
100
AcDbCircle
 10
256.7684192113095
 20
261.9474646868517
 30
0.0
 40
13.99981359945367
100
AcDbArc
 50
89.09542377155656
 51
270.9045762284442
  0
ARC
  5
275
330
1F
100
AcDbEntity
  8
0
  6
Continuous
 62
     7
370
    15
100
AcDbCircle
 10
256.4946978536741
 20
261.9474646868517
 30
0.0
 40
14.00000517841577
100
AcDbArc
 50
90.04717917191596
 51
269.9528208280848
  0
LINE
  5
276
330
1F
100
AcDbEntity
  8
0
  6
Continuous
 62
     7
370
    15
100
AcDbLine
 10
129.8021921617404
 20
265.1936202543189
 30
0.0
 11
129.8021921617404
 21
265.2013076236804
 31
0.0
  0
SPLINE
  5
277
330
1F
100
AcDbEntity
  8
0
  6
Continuous
 62
     7
370
    15
100
AcDbSpline
210
0.0
220
0.0
230
1.0
 70
     8
 71
     3
 72
     9
 73
     5
 74
     0
 42
0.0000000001
 43
0.0000000001
 40
0.0
 40
0.0
 40
0.0
 40
0.0
 40
0.4989663091306533
 40
1.0
 40
1.0
 40
1.0
 40
1.0
 10
130.071627507867
 20
268.4474648209621
 30
0.0
 10
129.99531252595
 20
267.9095204049078
 30
0.0
 10
129.8423663640138
 20
266.8314026919273
 30
0.0
 10
129.8156020065462
 20
265.7454210259842
 30
0.0
 10
129.8021921617404
 20
265.2013076236804
 30
0.0
  0
LINE
  5
278
330
1F
100
AcDbEntity
  8
0
  6
Continuous
 62
     7
370
    15
100
AcDbLine
 10
130.071627507867
 20
268.4474648209621
 30
0.0
 11
135.3021884066478
 21
268.4474648209621
 31
0.0
  0
LINE
  5
279
330
1F
100
AcDbEntity
  8
0
  6
Continuous
 62
     7
370
    15
100
AcDbLine
 10
135.3021884066478
 20
261.9474646868517
 30
0.0
 11
130.071627507867
 21
261.9474646868517
 31
0.0
  0
SPLINE
  5
27A
330
1F
100
AcDbEntity
  8
0
  6
Continuous
 62
     7
370
    15
100
AcDbSpline
210
0.0
220
0.0
230
1.0
 70
     8
 71
     3
 72
     9
 73
     5
 74
     0
 42
0.0000000001
 43
0.0000000001
 40
0.0
 40
0.0
 40
0.0
 40
0.0
 40
0.4987943980090174
 40
1.0
 40
1.0
 40
1.0
 40
1.0
 10
129.8021921617404
 20
265.1936202543189
 30
0.0
 10
129.8154838113454
 20
264.6519401464331
 30
0.0
 10
129.8421313632385
 20
263.5659614144185
 30
0.0
 10
129.9950059224089
 20
262.4878301275247
 30
0.0
 10
130.071627507867
 20
261.9474646868517
 30
0.0
  0
LINE
  5
27B
330
1F
100
AcDbEntity
  8
0
  6
Continuous
 62
     7
370
    15
100
AcDbLine
 10
135.3021884066478
 20
268.4474648209621
 30
0.0
 11
135.3021884066478
 21
261.9474646868517
 31
0.0
  0
SPLINE
  5
27C
330
1F
100
AcDbEntity
  8
0
  6
Continuous
 62
     7
370
    15
100
AcDbSpline
210
0.0
220
0.0
230
1.0
 70
     8
 71
     3
 72
     9
 73
     5
 74
     0
 42
0.0000000001
 43
0.0000000001
 40
0.0
 40
0.0
 40
0.0
 40
0.0
 40
0.498966309197105
 40
1.0
 40
1.0
 40
1.0
 40
1.0
 10
130.071627507867
 20
261.9474646868517
 30
0.0
 10
129.9953125259502
 20
261.4095205427488
 30
0.0
 10
129.8423663640348
 20
260.3314033749413
 30
0.0
 10
129.815602006552
 20
259.2454222503704
 30
0.0
 10
129.8021921617404
 20
258.7013091193845
 30
0.0
  0
LINE
  5
27D
330
1F
100
AcDbEntity
  8
0
  6
Continuous
 62
     7
370
    15
100
AcDbLine
 10
129.8021921617404
 20
265.1936202543189
 30
0.0
 11
129.8021921617404
 21
258.7013091193845
 31
0.0
  0
LINE
  5
27E
330
1F
100
AcDbEntity
  8
0
  6
Continuous
 62
     7
370
    15
100
AcDbLine
 10
129.8021921617404
 20
258.6936217500229
 30
0.0
 11
129.8021921617404
 21
258.7013091193845
 31
0.0
  0
LINE
  5
27F
330
1F
100
AcDbEntity
  8
0
  6
Continuous
 62
     7
370
    15
100
AcDbLine
 10
135.3021884066478
 20
255.4474645527412
 30
0.0
 11
130.071627507867
 21
255.4474645527412
 31
0.0
  0
SPLINE
  5
280
330
1F
100
AcDbEntity
  8
0
  6
Continuous
 62
     7
370
    15
100
AcDbSpline
210
0.0
220
0.0
230
1.0
 70
     8
 71
     3
 72
     9
 73
     5
 74
     0
 42
0.0000000001
 43
0.0000000001
 40
0.0
 40
0.0
 40
0.0
 40
0.0
 40
0.4987939050954455
 40
1.0
 40
1.0
 40
1.0
 40
1.0
 10
129.8021921617404
 20
258.6936217500229
 30
0.0
 10
129.8154838540135
 20
258.1519411060629
 30
0.0
 10
129.8421315177824
 20
257.0659602261315
 30
0.0
 10
129.9950059238107
 20
255.9878299954564
 30
0.0
 10
130.071627507867
 20
255.4474645527412
 30
0.0
  0
LINE
  5
281
330
1F
100
AcDbEntity
  8
0
  6
Continuous
 62
     7
370
    15
100
AcDbLine
 10
135.3021884066478
 20
261.9474646868517
 30
0.0
 11
135.3021884066478
 21
255.4474645527412
 31
0.0
  0
SPLINE
  5
282
330
1F
100
AcDbEntity
  8
0
  6
Continuous
 62
     7
370
    15
100
AcDbSpline
210
0.0
220
0.0
230
1.0
 70
    24
 71
     3
 72
     9
 73
     5
 74
     0
 42
0.0000000001
 43
0.0000000001
 40
0.0
 40
0.0
 40
0.0
 40
0.0
 40
0.4987903190745096
 40
1.0
 40
1.0
 40
1.0
 40
1.0
 10
129.8021921617404
 20
268.4474648209621
 30
0.0
 10
129.8154023399087
 20
268.4474648209621
 30
0.0
 10
129.8418867716693
 20
268.4474648209621
 30
0.0
 10
129.9949238451153
 20
268.4474648209621
 30
0.0
 10
130.071627507867
 20
268.4474648209621
 30
0.0
  0
LINE
  5
283
330
1F
100
AcDbEntity
  8
0
  6
Continuous
 62
     7
370
    15
100
AcDbLine
 10
129.8021921617404
 20
268.4474648209621
 30
0.0
 11
129.8021921617404
 21
265.2013076236804
 31
0.0
  0
SPLINE
  5
284
330
1F
100
AcDbEntity
  8
0
  6
Continuous
 62
     7
370
    15
100
AcDbSpline
210
0.0
220
0.0
230
1.0
 70
    24
 71
     3
 72
     9
 73
     5
 74
     0
 42
0.0000000001
 43
0.0000000001
 40
0.0
 40
0.0
 40
0.0
 40
0.0
 40
0.4989634395571119
 40
1.0
 40
1.0
 40
1.0
 40
1.0
 10
130.071627507867
 20
255.4474645527412
 30
0.0
 10
129.9952306744692
 20
255.4474645527412
 30
0.0
 10
129.8421195898861
 20
255.4474645527412
 30
0.0
 10
129.8155196860611
 20
255.4474645527412
 30
0.0
 10
129.8021921617404
 20
255.4474645527412
 30
0.0
  0
LINE
  5
285
330
1F
100
AcDbEntity
  8
0
  6
Continuous
 62
     7
370
    15
100
AcDbLine
 10
129.8021921617404
 20
258.6936217500229
 30
0.0
 11
129.8021921617404
 21
255.4474645527412
 31
0.0
  0
LINE
  5
286
330
1F
100
AcDbEntity
  8
0
  6
Continuous
 62
     7
370
    15
100
AcDbLine
 10
150.5716317994014
 20
268.447466217946
 30
0.0
 11
155.0327563387767
 21
268.447466217946
 31
0.0
  0
SPLINE
  5
287
330
1F
100
AcDbEntity
  8
0
  6
Continuous
 62
     7
370
    15
100
AcDbSpline
210
0.0
220
0.0
230
1.0
 70
     8
 71
     3
 72
     9
 73
     5
 74
     0
 42
0.0000000001
 43
0.0000000001
 40
0.0
 40
0.0
 40
0.0
 40
0.0
 40
0.4987927439218159
 40
0.9999999999999998
 40
0.9999999999999998
 40
0.9999999999999998
 40
0.9999999999999998
 10
155.3021916849033
 20
265.1994093554427
 30
0.0
 10
155.2889370851985
 20
265.7414050362232
 30
0.0
 10
155.2623637240855
 20
266.8280200429272
 30
0.0
 10
155.1094152325437
 20
267.9067822876476
 30
0.0
 10
155.0327563387767
 20
268.4474657522847
 30
0.0
  0
SPLINE
  5
288
330
1F
100
AcDbEntity
  8
0
  6
Continuous
 62
     7
370
    15
100
AcDbSpline
210
0.0
220
0.0
230
1.0
 70
     8
 71
     3
 72
     9
 73
     5
 74
     0
 42
0.0000000001
 43
0.0000000001
 40
0.0
 40
0.0
 40
0.0
 40
0.0
 40
0.4989615022076479
 40
1.0
 40
1.0
 40
1.0
 40
1.0
 10
155.0327563387767
 20
261.9474658959443
 30
0.0
 10
155.1091903788791
 20
262.4863639783075
 30
0.0
 10
155.2623766262432
 20
263.5664033801026
 30
0.0
 10
155.2889016345749
 20
264.6543208304157
 30
0.0
 10
155.3021916849033
 20
265.1994093554427
 30
0.0
  0
LINE
  5
289
330
1F
100
AcDbEntity
  8
0
  6
Continuous
 62
     7
370
    15
100
AcDbLine
 10
150.5716317994014
 20
261.9474661658235
 30
0.0
 11
155.0327563387767
 21
261.9474658788411
 31
0.0
  0
SPLINE
  5
28A
330
1F
100
AcDbEntity
  8
0
  6
Continuous
 62
     7
370
    15
100
AcDbSpline
210
0.0
220
0.0
230
1.0
 70
     8
 71
     3
 72
     9
 73
     5
 74
     0
 42
0.0000000001
 43
0.0000000001
 40
0.0
 40
0.0
 40
0.0
 40
0.0
 40
0.498961628412487
 40
0.9999999999999998
 40
0.9999999999999998
 40
0.9999999999999998
 40
0.9999999999999998
 10
150.5716317994014
 20
261.9474661703922
 30
0.0
 10
150.4951946565174
 20
262.4863641862556
 30
0.0
 10
150.342002229422
 20
263.566403181595
 30
0.0
 10
150.3154784393036
 20
264.6543208556253
 30
0.0
 10
150.3021890026943
 20
265.1994093554427
 30
0.0
  0
SPLINE
  5
28B
330
1F
100
AcDbEntity
  8
0
  6
Continuous
 62
     7
370
    15
100
AcDbSpline
210
0.0
220
0.0
230
1.0
 70
     8
 71
     3
 72
     9
 73
     5
 74
     0
 42
0.0000000001
 43
0.0000000001
 40
0.0
 40
0.0
 40
0.0
 40
0.0
 40
0.4987925869157966
 40
1.0
 40
1.0
 40
1.0
 40
1.0
 10
150.3021890026943
 20
265.1994093554427
 30
0.0
 10
150.3154429995994
 20
265.7414050818739
 30
0.0
 10
150.3420151605593
 20
266.8280205221364
 30
0.0
 10
150.4949698001653
 20
267.9067826450082
 30
0.0
 10
150.5716317994014
 20
268.447466217946
 30
0.0
  0
SPLINE
  5
28C
330
1F
100
AcDbEntity
  8
0
  6
Continuous
 62
     7
370
    15
100
AcDbSpline
210
0.0
220
0.0
230
1.0
 70
     8
 71
     3
 72
     9
 73
     5
 74
     0
 42
0.0000000001
 43
0.0000000001
 40
0.0
 40
0.0
 40
0.0
 40
0.0
 40
0.498790976756469
 40
1.0
 40
1.0
 40
1.0
 40
1.0
 10
150.3021890026943
 20
258.6974646197965
 30
0.0
 10
150.3153985074691
 20
259.2397833105472
 30
0.0
 10
150.341881554257
 20
260.32704975285
 30
0.0
 10
150.4949250289412
 20
261.4064573396778
 30
0.0
 10
150.5716317994014
 20
261.9474661619534
 30
0.0
  0
LINE
  5
28D
330
1F
100
AcDbEntity
  8
0
  6
Continuous
 62
     7
370
    15
100
AcDbLine
 10
150.3021890026943
 20
258.6974646197965
 30
0.0
 11
150.3021890026943
 21
265.1994093554427
 31
0.0
  0
SPLINE
  5
28E
330
1F
100
AcDbEntity
  8
0
  6
Continuous
 62
     7
370
    15
100
AcDbSpline
210
0.0
220
0.0
230
1.0
 70
     8
 71
     3
 72
     9
 73
     5
 74
     0
 42
0.0000000001
 43
0.0000000001
 40
0.0
 40
0.0
 40
0.0
 40
0.0
 40
0.4987910696250267
 40
0.9999999999999998
 40
0.9999999999999998
 40
0.9999999999999998
 40
0.9999999999999998
 10
155.3021916849033
 20
258.6974646197965
 30
0.0
 10
155.2889815717852
 20
259.2397831365569
 30
0.0
 10
155.2624973102925
 20
260.3270490276005
 30
0.0
 10
155.1094600035811
 20
261.4064567603485
 30
0.0
 10
155.0327563387767
 20
261.9474655555176
 30
0.0
  0
LINE
  5
28F
330
1F
100
AcDbEntity
  8
0
  6
Continuous
 62
     7
370
    15
100
AcDbLine
 10
155.3021916849033
 20
258.6974646197965
 30
0.0
 11
155.3021916849033
 21
265.1994093554427
 31
0.0
  0
SPLINE
  5
290
330
1F
100
AcDbEntity
  8
0
  6
Continuous
 62
     7
370
    15
100
AcDbSpline
210
0.0
220
0.0
230
1.0
 70
     8
 71
     3
 72
     9
 73
     5
 74
     0
 42
0.0000000001
 43
0.0000000001
 40
0.0
 40
0.0
 40
0.0
 40
0.0
 40
0.4989629516604426
 40
1.0
 40
1.0
 40
1.0
 40
1.0
 10
150.5716243488208
 20
255.4474664153864
 30
0.0
 10
150.4952312342437
 20
255.9860438871452
 30
0.0
 10
150.3421274530455
 20
257.0654375975731
 30
0.0
 10
150.3155202148062
 20
258.1527039139033
 30
0.0
 10
150.3021890026943
 20
258.6974646197965
 30
0.0
  0
SPLINE
  5
291
330
1F
100
AcDbEntity
  8
0
  6
Continuous
 62
     7
370
    15
100
AcDbSpline
210
0.0
220
0.0
230
1.0
 70
     8
 71
     3
 72
     9
 73
     5
 74
     0
 42
0.0000000001
 43
0.0000000001
 40
0.0
 40
0.0
 40
0.0
 40
0.0
 40
0.4989629516604426
 40
1.0
 40
1.0
 40
1.0
 40
1.0
 10
155.0327563387767
 20
255.4474664153864
 30
0.0
 10
155.1091494533538
 20
255.9860438871452
 30
0.0
 10
155.2622532345521
 20
257.0654375975731
 30
0.0
 10
155.2888604727914
 20
258.1527039139033
 30
0.0
 10
155.3021916849033
 20
258.6974646197965
 30
0.0
  0
LINE
  5
292
330
1F
100
AcDbEntity
  8
0
  6
Continuous
 62
     7
370
    15
100
AcDbLine
 10
155.0327563387767
 20
255.4474664153864
 30
0.0
 11
150.5716243488208
 21
255.4474664153864
 31
0.0
  0
SPLINE
  5
293
330
1F
100
AcDbEntity
  8
0
  6
Continuous
 62
     7
370
    15
100
AcDbSpline
210
0.0
220
0.0
230
1.0
 70
    24
 71
     3
 72
     9
 73
     5
 74
     0
 42
0.0000000001
 43
0.0000000001
 40
0.0
 40
0.0
 40
0.0
 40
0.0
 40
0.4989617958481915
 40
1.0
 40
1.0
 40
1.0
 40
1.0
 10
155.0327563387767
 20
268.447466217946
 30
0.0
 10
155.1091903780938
 20
268.447466217946
 30
0.0
 10
155.2623765337335
 20
268.447466217946
 30
0.0
 10
155.2889016088846
 20
268.447466217946
 30
0.0
 10
155.3021916849033
 20
268.447466217946
 30
0.0
  0
LINE
  5
294
330
1F
100
AcDbEntity
  8
0
  6
Continuous
 62
     7
370
    15
100
AcDbLine
 10
155.3021916849033
 20
268.447466217946
 30
0.0
 11
155.3021916849033
 21
265.1994093554427
 31
0.0
  0
SPLINE
  5
295
330
1F
100
AcDbEntity
  8
0
  6
Continuous
 62
     7
370
    15
100
AcDbSpline
210
0.0
220
0.0
230
1.0
 70
    24
 71
     3
 72
     9
 73
     5
 74
     0
 42
0.0000000001
 43
0.0000000001
 40
0.0
 40
0.0
 40
0.0
 40
0.0
 40
0.4989619001301337
 40
0.9999999999999998
 40
0.9999999999999998
 40
0.9999999999999998
 40
0.9999999999999998
 10
150.5716317994014
 20
268.447466217946
 30
0.0
 10
150.4951946572438
 20
268.447466217946
 30
0.0
 10
150.3420023150274
 20
268.447466217946
 30
0.0
 10
150.3154784630768
 20
268.447466217946
 30
0.0
 10
150.3021890026943
 20
268.447466217946
 30
0.0
  0
LINE
  5
296
330
1F
100
AcDbEntity
  8
0
  6
Continuous
 62
     7
370
    15
100
AcDbLine
 10
150.3021890026943
 20
265.1994093554427
 30
0.0
 11
150.3021890026943
 21
268.447466217946
 31
0.0
  0
SPLINE
  5
297
330
1F
100
AcDbEntity
  8
0
  6
Continuous
 62
     7
370
    15
100
AcDbSpline
210
0.0
220
0.0
230
1.0
 70
    24
 71
     3
 72
     9
 73
     5
 74
     0
 42
0.0000000001
 43
0.0000000001
 40
0.0
 40
0.0
 40
0.0
 40
0.0
 40
0.4987946832917001
 40
0.9999999999999998
 40
0.9999999999999998
 40
0.9999999999999998
 40
0.9999999999999998
 10
155.3021916849033
 20
255.4474664153864
 30
0.0
 10
155.2888963406755
 20
255.4474664153864
 30
0.0
 10
155.2622413969219
 20
255.4474664153864
 30
0.0
 10
155.1093741937546
 20
255.4474664153864
 30
0.0
 10
155.0327563387767
 20
255.4474664153864
 30
0.0
  0
LINE
  5
298
330
1F
100
AcDbEntity
  8
0
  6
Continuous
 62
     7
370
    15
100
AcDbLine
 10
155.3021916849033
 20
258.6974646197965
 30
0.0
 11
155.3021916849033
 21
255.4474664153864
 31
0.0
  0
SPLINE
  5
299
330
1F
100
AcDbEntity
  8
0
  6
Continuous
 62
     7
370
    15
100
AcDbSpline
210
0.0
220
0.0
230
1.0
 70
    24
 71
     3
 72
     9
 73
     5
 74
     0
 42
0.0000000001
 43
0.0000000001
 40
0.0
 40
0.0
 40
0.0
 40
0.0
 40
0.4987946832917001
 40
0.9999999999999998
 40
0.9999999999999998
 40
0.9999999999999998
 40
0.9999999999999998
 10
150.3021890026943
 20
255.4474664153864
 30
0.0
 10
150.3154843469221
 20
255.4474664153864
 30
0.0
 10
150.3421392906757
 20
255.4474664153864
 30
0.0
 10
150.4950064938431
 20
255.4474664153864
 30
0.0
 10
150.5716243488208
 20
255.4474664153864
 30
0.0
  0
LINE
  5
29A
330
1F
100
AcDbEntity
  8
0
  6
Continuous
 62
     7
370
    15
100
AcDbLine
 10
150.3021890026943
 20
255.4474664153864
 30
0.0
 11
150.3021890026943
 21
258.6974646197965
 31
0.0
  0
LINE
  5
29B
330
1F
100
AcDbEntity
  8
0
  6
Continuous
 62
     7
370
    15
100
AcDbLine
 10
260.2060461146251
 20
277.4474644335319
 30
0.0
 11
260.2810734612361
 21
277.4474644335319
 31
0.0
  0
LINE
  5
29C
330
1F
100
AcDbEntity
  8
0
  6
Continuous
 62
     7
370
    15
100
AcDbLine
 10
252.281072149934
 20
277.4474644335319
 30
0.0
 11
260.2060461146251
 21
277.4474644335319
 31
0.0
  0
LINE
  5
29D
330
1F
100
AcDbEntity
  8
0
  6
Continuous
 62
     7
370
    15
100
AcDbLine
 10
253.7656301361934
 20
246.4474649401714
 30
0.0
 11
252.281072149934
 21
246.4474649401714
 31
0.0
  0
LINE
  5
29E
330
1F
100
AcDbEntity
  8
0
  6
Continuous
 62
     7
370
    15
100
AcDbLine
 10
260.2810734612361
 20
246.4474649401714
 30
0.0
 11
253.7656301361934
 21
246.4474649401714
 31
0.0
  0
LINE
  5
29F
330
1F
100
AcDbEntity
  8
0
  6
Continuous
 62
     7
370
    15
100
AcDbLine
 10
234.1749896956102
 20
251.4474648284127
 30
0.0
 11
239.8021897030488
 21
251.4474648284127
 31
0.0
  0
LINE
  5
2A0
330
1F
100
AcDbEntity
  8
0
  6
Continuous
 62
     7
370
    15
100
AcDbLine
 10
232.8021904183046
 20
251.4474648284127
 30
0.0
 11
234.1749896956102
 21
251.4474648284127
 31
0.0
  0
LINE
  5
2A1
330
1F
100
AcDbEntity
  8
0
  6
Continuous
 62
     7
370
    15
100
AcDbLine
 10
217.1184078985319
 20
246.9474650221278
 30
0.0
 11
217.1184078985319
 21
243.4774642112066
 31
0.0
  0
LINE
  5
2A2
330
1F
100
AcDbEntity
  8
0
  6
Continuous
 62
     7
370
    15
100
AcDbLine
 10
218.7757932776079
 20
246.9474650221278
 30
0.0
 11
218.7757932776079
 21
243.4774642112066
 31
0.0
  0
LINE
  5
2A3
330
1F
100
AcDbEntity
  8
0
  6
Continuous
 62
     7
370
    15
100
AcDbLine
 10
217.1184078985319
 20
243.4774642112066
 30
0.0
 11
218.7757932776079
 21
243.4774642112066
 31
0.0
  0
LINE
  5
2A4
330
1F
100
AcDbEntity
  8
0
  6
Continuous
 62
     7
370
    15
100
AcDbLine
 10
221.9501853184269
 20
243.4774642112066
 30
0.0
 11
221.9501853184269
 21
246.9474650221278
 31
0.0
  0
LINE
  5
2A5
330
1F
100
AcDbEntity
  8
0
  6
Continuous
 62
     7
370
    15
100
AcDbLine
 10
218.7757932776079
 20
243.4774642112066
 30
0.0
 11
221.9501853184269
 21
243.4774642112066
 31
0.0
  0
LINE
  5
2A6
330
1F
100
AcDbEntity
  8
0
  6
Continuous
 62
     7
370
    15
100
AcDbLine
 10
223.4671917473391
 20
246.9474650221278
 30
0.0
 11
223.4671917473391
 21
243.4774642112066
 31
0.0
  0
LINE
  5
2A7
330
1F
100
AcDbEntity
  8
0
  6
Continuous
 62
     7
370
    15
100
AcDbLine
 10
221.9501853184269
 20
243.4774642112066
 30
0.0
 11
223.4671917473391
 21
243.4774642112066
 31
0.0
  0
LINE
  5
2A8
330
1F
100
AcDbEntity
  8
0
  6
Continuous
 62
     7
370
    15
100
AcDbLine
 10
218.7757932776079
 20
276.9474643515756
 30
0.0
 11
218.7757932776079
 21
280.4174651624967
 31
0.0
  0
LINE
  5
2A9
330
1F
100
AcDbEntity
  8
0
  6
Continuous
 62
     7
370
    15
100
AcDbLine
 10
217.1184078985319
 20
276.9474643515756
 30
0.0
 11
217.1184078985319
 21
280.4174651624967
 31
0.0
  0
LINE
  5
2AA
330
1F
100
AcDbEntity
  8
0
  6
Continuous
 62
     7
370
    15
100
AcDbLine
 10
218.7757932776079
 20
280.4174651624967
 30
0.0
 11
217.1184078985319
 21
280.4174651624967
 31
0.0
  0
LINE
  5
2AB
330
1F
100
AcDbEntity
  8
0
  6
Continuous
 62
     7
370
    15
100
AcDbLine
 10
221.9501853184269
 20
276.9474643515756
 30
0.0
 11
221.9501853184269
 21
280.4174651624967
 31
0.0
  0
LINE
  5
2AC
330
1F
100
AcDbEntity
  8
0
  6
Continuous
 62
     7
370
    15
100
AcDbLine
 10
221.9501853184269
 20
280.4174651624967
 30
0.0
 11
218.7757932776079
 21
280.4174651624967
 31
0.0
  0
LINE
  5
2AD
330
1F
100
AcDbEntity
  8
0
  6
Continuous
 62
     7
370
    15
100
AcDbLine
 10
223.4671917473391
 20
276.9474643515756
 30
0.0
 11
223.4671917473391
 21
280.4174651624967
 31
0.0
  0
LINE
  5
2AE
330
1F
100
AcDbEntity
  8
0
  6
Continuous
 62
     7
370
    15
100
AcDbLine
 10
223.4671917473391
 20
280.4174651624967
 30
0.0
 11
221.9501853184269
 21
280.4174651624967
 31
0.0
  0
LINE
  5
2AF
330
1F
100
AcDbEntity
  8
0
  6
Continuous
 62
     7
370
    15
100
AcDbLine
 10
224.5428004031495
 20
246.9474650221278
 30
0.0
 11
216.0428006397054
 21
246.9474650221278
 31
0.0
  0
LINE
  5
2B0
330
1F
100
AcDbEntity
  8
0
  6
Continuous
 62
     7
370
    15
100
AcDbLine
 10
216.0428006397054
 20
276.9474643515756
 30
0.0
 11
224.5428004031495
 21
276.9474643515756
 31
0.0
  0
LINE
  5
2B1
330
1F
100
AcDbEntity
  8
0
  6
Continuous
 62
     7
370
    15
100
AcDbLine
 10
242.5489170206205
 20
277.7474639239122
 30
0.0
 11
237.5489180637018
 21
277.7474639239122
 31
0.0
  0
LINE
  5
2B2
330
1F
100
AcDbEntity
  8
0
  6
Continuous
 62
     7
370
    15
100
AcDbLine
 10
237.5489180637018
 20
246.1474654497911
 30
0.0
 11
242.5489170206205
 21
246.1474654497911
 31
0.0
  0
LINE
  5
2B3
330
1F
100
AcDbEntity
  8
0
  6
Continuous
 62
     7
370
    15
100
AcDbLine
 10
247.8320603919641
 20
250.9474647464563
 30
0.0
 11
247.7959399772302
 21
250.9474647464563
 31
0.0
  0
SPLINE
  5
2B4
330
1F
100
AcDbEntity
  8
0
  6
Continuous
 62
     7
370
    15
100
AcDbSpline
210
0.0
220
0.0
230
1.0
 70
     8
 71
     3
 72
    10
 73
     6
 74
     0
 42
0.0000000001
 43
0.0000000001
 40
0.0
 40
0.0
 40
0.0
 40
0.0
 40
0.3731945602590386
 40
0.7472497811796631
 40
0.9999999999999998
 40
0.9999999999999998
 40
0.9999999999999998
 40
0.9999999999999998
 10
245.2606713128702
 20
250.9474647464563
 30
0.0
 10
244.9182877261042
 20
250.9708722739186
 30
0.0
 10
244.2327309481253
 20
251.0177413112435
 30
0.0
 10
243.2707728507887
 20
251.4049384492309
 30
0.0
 10
242.7724503695776
 20
251.7985678147395
 30
0.0
 10
242.5715090436355
 20
251.957293157499
 30
0.0
  0
SPLINE
  5
2B5
330
1F
100
AcDbEntity
  8
0
  6
Continuous
 62
     7
370
    15
100
AcDbSpline
210
0.0
220
0.0
230
1.0
 70
     8
 71
     3
 72
     9
 73
     5
 74
     0
 42
0.0000000001
 43
0.0000000001
 40
0.0
 40
0.0
 40
0.0
 40
0.0
 40
0.7180797755668687
 40
0.9999999999999998
 40
0.9999999999999998
 40
0.9999999999999998
 40
0.9999999999999998
 10
242.5715090436355
 20
255.6891222717573
 30
0.0
 10
242.9453953328627
 20
255.5130406672263
 30
0.0
 10
243.4660704750251
 20
255.2678289086971
 30
0.0
 10
243.877592446261
 20
254.8840789185001
 30
0.0
 10
243.993608812751
 20
254.7758920351376
 30
0.0
  0
ELLIPSE
  5
2B6
330
1F
100
AcDbEntity
  8
0
  6
Continuous
 62
     7
370
    15
100
AcDbEllipse
 10
242.8012190193602
 20
256.1901053739709
 30
0.0
 11
4.998679952390943
 21
-4.998679952390973
 31
0.0
210
0.0
220
0.0
230
1.0
 40
0.0229832160557164
 41
4.97616636205293
 42
5.089986567531884
  0
SPLINE
  5
2B7
330
1F
100
AcDbEntity
  8
0
  6
Continuous
 62
     7
370
    15
100
AcDbSpline
210
0.0
220
0.0
230
1.0
 70
     8
 71
     3
 72
     9
 73
     5
 74
     0
 42
0.0000000001
 43
0.0000000001
 40
0.0
 40
0.0
 40
0.0
 40
0.0
 40
0.6867048848311774
 40
1.0
 40
1.0
 40
1.0
 40
1.0
 10
244.537383849682
 20
254.2403587373306
 30
0.0
 10
244.6279833458771
 20
254.1628723101839
 30
0.0
 10
244.7599170166524
 20
254.0500342790904
 30
0.0
 10
244.9161716071242
 20
254.0145068329647
 30
0.0
 10
244.9651254070417
 20
254.0033762576391
 30
0.0
  0
LINE
  5
2B8
330
1F
100
AcDbEntity
  8
0
  6
Continuous
 62
     7
370
    15
100
AcDbLine
 10
247.7959399772302
 20
250.9474647464563
 30
0.0
 11
245.2606713128702
 21
250.9474647464563
 31
0.0
  0
ARC
  5
2B9
330
1F
100
AcDbEntity
  8
0
  6
Continuous
 62
     7
370
    15
100
AcDbCircle
 10
244.6746164118368
 20
254.9411397771238
 30
0.0
 40
3.993675047383293
100
AcDbArc
 50
224.9624216606311
 51
269.9947577902074
  0
ARC
  5
2BA
330
1F
100
AcDbEntity
  8
0
  6
Continuous
 62
     7
370
    15
100
AcDbCircle
 10
245.2282119087427
 20
254.9441564003298
 30
0.0
 40
3.997426940525893
100
AcDbArc
 50
224.9698234876237
 51
228.3481063533477
  0
LINE
  5
2BB
330
1F
100
AcDbEntity
  8
0
  6
Continuous
 62
     7
370
    15
100
AcDbLine
 10
230.3021909398452
 20
255.9474646346976
 30
0.0
 11
236.5778429163114
 21
255.9474646346976
 31
0.0
  0
LINE
  5
2BC
330
1F
100
AcDbEntity
  8
0
  6
Continuous
 62
     7
370
    15
100
AcDbLine
 10
230.3021909398452
 20
252.9474650742819
 30
0.0
 11
236.5778429163114
 21
252.9474650742819
 31
0.0
  0
ARC
  5
2BD
330
1F
100
AcDbEntity
  8
0
  6
Continuous
 62
     7
370
    15
100
AcDbCircle
 10
241.1587469888772
 20
251.9554027546368
 30
0.0
 40
3.992061880268358
100
AcDbArc
 50
69.27439658745029
 51
89.99941579922444
  0
LINE
  5
2BE
330
1F
100
AcDbEntity
  8
0
  6
Continuous
 62
     7
370
    15
100
AcDbLine
 10
242.4001158875839
 20
252.1190378116776
 30
0.0
 11
241.8651474369184
 21
252.6545715751459
 31
0.0
  0
ARC
  5
2BF
330
1F
100
AcDbEntity
  8
0
  6
Continuous
 62
     7
370
    15
100
AcDbCircle
 10
241.1586963243929
 20
251.9490479540628
 30
0.0
 40
0.9984171243997314
100
AcDbArc
 50
44.9623638183615
 51
89.9947566736918
  0
LINE
  5
2C0
330
1F
100
AcDbEntity
  8
0
  6
Continuous
 62
     7
370
    15
100
AcDbLine
 10
241.1587876928464
 20
252.9474650742819
 30
0.0
 11
236.5778429163114
 21
252.9474650742819
 31
0.0
  0
LINE
  5
2C1
330
1F
100
AcDbEntity
  8
0
  6
Continuous
 62
     7
370
    15
100
AcDbLine
 10
236.5778429163114
 20
255.9474646346976
 30
0.0
 11
241.1587876928464
 21
255.9474646346976
 31
0.0
  0
ARC
  5
2C2
330
1F
100
AcDbEntity
  8
0
  6
Continuous
 62
     7
370
    15
100
AcDbCircle
 10
240.6073906131235
 20
251.9490479540628
 30
0.0
 40
0.9984171243997314
100
AcDbArc
 50
44.9623638183615
 51
89.9947566736918
  0
LINE
  5
2C3
330
1F
100
AcDbEntity
  8
0
  6
Continuous
 62
     7
370
    15
100
AcDbLine
 10
241.313841725649
 20
252.6545715751459
 30
0.0
 11
241.8488101763145
 21
252.1190378116776
 31
0.0
  0
SPLINE
  5
2C4
330
1F
100
AcDbEntity
  8
0
  6
Continuous
 62
     7
370
    15
100
AcDbSpline
210
0.0
220
0.0
230
1.0
 70
     8
 71
     3
 72
     9
 73
     5
 74
     0
 42
0.0000000001
 43
0.0000000001
 40
0.0
 40
0.0
 40
0.0
 40
0.0
 40
0.6603179678385703
 40
1.0
 40
1.0
 40
1.0
 40
1.0
 10
244.537383849682
 20
269.6545706363727
 30
0.0
 10
244.6281299739486
 20
269.7315902013547
 30
0.0
 10
244.7655578930519
 20
269.8482303182882
 30
0.0
 10
244.9282804793544
 20
269.8844697981792
 30
0.0
 10
244.9835544181482
 20
269.896779698353
 30
0.0
  0
ELLIPSE
  5
2C5
330
1F
100
AcDbEntity
  8
0
  6
Continuous
 62
     7
370
    15
100
AcDbEllipse
 10
242.8012190193602
 20
267.7048239997324
 30
0.0
 11
4.998679952391114
 21
4.998679952391057
 31
0.0
210
0.0
220
0.0
230
0.9999999999999998
 40
0.0229832160557101
 41
1.193198739647845
 42
1.307018945126731
  0
SPLINE
  5
2C6
330
1F
100
AcDbEntity
  8
0
  6
Continuous
 62
     7
370
    15
100
AcDbSpline
210
0.0
220
0.0
230
1.0
 70
     8
 71
     3
 72
     9
 73
     5
 74
     0
 42
0.0000000001
 43
0.0000000001
 40
0.0
 40
0.0
 40
0.0
 40
0.0
 40
0.7180797755668687
 40
0.9999999999999998
 40
0.9999999999999998
 40
0.9999999999999998
 40
0.9999999999999998
 10
242.5715090436355
 20
268.2058071019461
 30
0.0
 10
242.9453953328627
 20
268.381888706477
 30
0.0
 10
243.4660704750251
 20
268.6271004650061
 30
0.0
 10
243.877592446261
 20
269.0108504552032
 30
0.0
 10
243.993608812751
 20
269.1190373385658
 30
0.0
  0
SPLINE
  5
2C7
330
1F
100
AcDbEntity
  8
0
  6
Continuous
 62
     7
370
    15
100
AcDbSpline
210
0.0
220
0.0
230
1.0
 70
     8
 71
     3
 72
    10
 73
     6
 74
     0
 42
0.0000000001
 43
0.0000000001
 40
0.0
 40
0.0
 40
0.0
 40
0.0
 40
0.3731945602590386
 40
0.7472497811796631
 40
0.9999999999999998
 40
0.9999999999999998
 40
0.9999999999999998
 40
0.9999999999999998
 10
245.2606713128702
 20
272.947464627247
 30
0.0
 10
244.9182877261042
 20
272.9240570997847
 30
0.0
 10
244.2327309481253
 20
272.8771880624598
 30
0.0
 10
243.2707728507887
 20
272.4899909244724
 30
0.0
 10
242.7724503695776
 20
272.0963615589638
 30
0.0
 10
242.5715090436355
 20
271.9376362162043
 30
0.0
  0
LINE
  5
2C8
330
1F
100
AcDbEntity
  8
0
  6
Continuous
 62
     7
370
    15
100
AcDbLine
 10
247.7959399772302
 20
272.947464627247
 30
0.0
 11
245.2606713128702
 21
272.947464627247
 31
0.0
  0
ARC
  5
2C9
330
1F
100
AcDbEntity
  8
0
  6
Continuous
 62
     7
370
    15
100
AcDbCircle
 10
245.2282119087427
 20
268.9507729733736
 30
0.0
 40
3.997426940525913
100
AcDbArc
 50
131.6518936466528
 51
135.0301765123768
  0
ARC
  5
2CA
330
1F
100
AcDbEntity
  8
0
  6
Continuous
 62
     7
370
    15
100
AcDbCircle
 10
244.6746164118368
 20
268.9537895965795
 30
0.0
 40
3.993675047383354
100
AcDbArc
 50
90.00524220979333
 51
135.0375783393688
  0
LINE
  5
2CB
330
1F
100
AcDbEntity
  8
0
  6
Continuous
 62
     7
370
    15
100
AcDbLine
 10
230.3021909398452
 20
267.9474647390057
 30
0.0
 11
236.5778429163114
 21
267.9474647390057
 31
0.0
  0
LINE
  5
2CC
330
1F
100
AcDbEntity
  8
0
  6
Continuous
 62
     7
370
    15
100
AcDbLine
 10
230.3021909398452
 20
270.9474642994215
 30
0.0
 11
236.5778429163114
 21
270.9474642994215
 31
0.0
  0
ARC
  5
2CD
330
1F
100
AcDbEntity
  8
0
  6
Continuous
 62
     7
370
    15
100
AcDbCircle
 10
241.1587469888772
 20
271.9395266190667
 30
0.0
 40
3.992061880268387
100
AcDbArc
 50
270.0005842007763
 51
290.7256034125503
  0
ARC
  5
2CE
330
1F
100
AcDbEntity
  8
0
  6
Continuous
 62
     7
370
    15
100
AcDbCircle
 10
241.1586963243929
 20
271.9458814196405
 30
0.0
 40
0.9984171243996915
100
AcDbArc
 50
270.005243326309
 51
315.0376361816416
  0
LINE
  5
2CF
330
1F
100
AcDbEntity
  8
0
  6
Continuous
 62
     7
370
    15
100
AcDbLine
 10
242.4001158875839
 20
271.7758915620257
 30
0.0
 11
241.8651474369184
 21
271.2403577985575
 31
0.0
  0
LINE
  5
2D0
330
1F
100
AcDbEntity
  8
0
  6
Continuous
 62
     7
370
    15
100
AcDbLine
 10
236.5778429163114
 20
267.9474647390057
 30
0.0
 11
241.1587876928464
 21
267.9474647390057
 31
0.0
  0
LINE
  5
2D1
330
1F
100
AcDbEntity
  8
0
  6
Continuous
 62
     7
370
    15
100
AcDbLine
 10
241.1587876928464
 20
270.9474642994215
 30
0.0
 11
236.5778429163114
 21
270.9474642994215
 31
0.0
  0
ARC
  5
2D2
330
1F
100
AcDbEntity
  8
0
  6
Continuous
 62
     7
370
    15
100
AcDbCircle
 10
240.6073906131235
 20
271.9458814196405
 30
0.0
 40
0.9984171243996915
100
AcDbArc
 50
270.005243326309
 51
315.0376361816416
  0
LINE
  5
2D3
330
1F
100
AcDbEntity
  8
0
  6
Continuous
 62
     7
370
    15
100
AcDbLine
 10
241.313841725649
 20
271.2403577985575
 30
0.0
 11
241.8488101763145
 21
271.7758915620257
 31
0.0
  0
LINE
  5
2D4
330
1F
100
AcDbEntity
  8
0
  6
Continuous
 62
     7
370
    15
100
AcDbLine
 10
217.3488802005962
 20
272.947464627247
 30
0.0
 11
220.4714645128191
 21
272.947464627247
 31
0.0
  0
LINE
  5
2D5
330
1F
100
AcDbEntity
  8
0
  6
Continuous
 62
     7
370
    15
100
AcDbLine
 10
213.292800421776
 20
275.9474651189854
 30
0.0
 11
220.4714645128191
 21
275.9474651189854
 31
0.0
  0
LINE
  5
2D6
330
1F
100
AcDbEntity
  8
0
  6
Continuous
 62
     7
370
    15
100
AcDbLine
 10
220.4714645128191
 20
272.947464627247
 30
0.0
 11
245.2697293562309
 21
272.947464627247
 31
0.0
  0
LINE
  5
2D7
330
1F
100
AcDbEntity
  8
0
  6
Continuous
 62
     7
370
    15
100
AcDbLine
 10
220.4714645128191
 20
275.9474651189854
 30
0.0
 11
256.4597377282993
 21
275.9474651189854
 31
0.0
  0
LINE
  5
2D8
330
1F
100
AcDbEntity
  8
0
  6
Continuous
 62
     7
370
    15
100
AcDbLine
 10
256.7571351034061
 20
275.9474651189854
 30
0.0
 11
257.2217384082691
 21
275.9474651189854
 31
0.0
  0
LINE
  5
2D9
330
1F
100
AcDbEntity
  8
0
  6
Continuous
 62
     7
370
    15
100
AcDbLine
 10
257.5840936703102
 20
275.9474651189854
 30
0.0
 11
258.0486969751731
 21
275.9474651189854
 31
0.0
  0
LINE
  5
2DA
330
1F
100
AcDbEntity
  8
0
  6
Continuous
 62
     7
370
    15
100
AcDbLine
 10
258.4110559625045
 20
275.9474651189854
 30
0.0
 11
258.8756555420772
 21
275.9474651189854
 31
0.0
  0
LINE
  5
2DB
330
1F
100
AcDbEntity
  8
0
  6
Continuous
 62
     7
370
    15
100
AcDbLine
 10
259.2364163798706
 20
275.9474651189854
 30
0.0
 11
263.2810720903293
 21
275.9474651189854
 31
0.0
  0
LINE
  5
2DC
330
1F
100
AcDbEntity
  8
0
  6
Continuous
 62
     7
370
    15
100
AcDbLine
 10
213.292800421776
 20
247.947464254718
 30
0.0
 11
220.4714645128191
 21
247.947464254718
 31
0.0
  0
LINE
  5
2DD
330
1F
100
AcDbEntity
  8
0
  6
Continuous
 62
     7
370
    15
100
AcDbLine
 10
217.3488802005962
 20
250.9474647464563
 30
0.0
 11
220.4714645128191
 21
250.9474647464563
 31
0.0
  0
LINE
  5
2DE
330
1F
100
AcDbEntity
  8
0
  6
Continuous
 62
     7
370
    15
100
AcDbLine
 10
220.4714645128191
 20
247.947464254718
 30
0.0
 11
256.4597377282993
 21
247.947464254718
 31
0.0
  0
LINE
  5
2DF
330
1F
100
AcDbEntity
  8
0
  6
Continuous
 62
     7
370
    15
100
AcDbLine
 10
220.4714645128191
 20
250.9474647464563
 30
0.0
 11
245.2697293562309
 21
250.9474647464563
 31
0.0
  0
LINE
  5
2E0
330
1F
100
AcDbEntity
  8
0
  6
Continuous
 62
     7
370
    15
100
AcDbLine
 10
256.7571351034061
 20
247.947464254718
 30
0.0
 11
257.2217384082691
 21
247.947464254718
 31
0.0
  0
LINE
  5
2E1
330
1F
100
AcDbEntity
  8
0
  6
Continuous
 62
     7
370
    15
100
AcDbLine
 10
257.5840936703102
 20
247.947464254718
 30
0.0
 11
258.0486969751731
 21
247.947464254718
 31
0.0
  0
LINE
  5
2E2
330
1F
100
AcDbEntity
  8
0
  6
Continuous
 62
     7
370
    15
100
AcDbLine
 10
258.4110559625045
 20
247.947464254718
 30
0.0
 11
258.8756555420772
 21
247.947464254718
 31
0.0
  0
LINE
  5
2E3
330
1F
100
AcDbEntity
  8
0
  6
Continuous
 62
     7
370
    15
100
AcDbLine
 10
259.2364163798706
 20
247.947464254718
 30
0.0
 11
263.2810720903293
 21
247.947464254718
 31
0.0
  0
LINE
  5
2E4
330
1F
100
AcDbEntity
  8
0
  6
Continuous
 62
     7
370
    15
100
AcDbLine
 10
243.3021912080661
 20
256.447464716654
 30
0.0
 11
243.3021912080661
 21
257.2129238630046
 31
0.0
  0
LINE
  5
2E5
330
1F
100
AcDbEntity
  8
0
  6
Continuous
 62
     7
370
    15
100
AcDbLine
 10
243.3021912080661
 20
266.6454012738873
 30
0.0
 11
243.3021912080661
 21
267.4474646570494
 31
0.0
  0
LINE
  5
2E6
330
1F
100
AcDbEntity
  8
0
  6
Continuous
 62
     7
370
    15
100
AcDbLine
 10
242.8021901947872
 20
255.9474646346976
 30
0.0
 11
242.8021901947872
 21
258.9985153405328
 31
0.0
  0
LINE
  5
2E7
330
1F
100
AcDbEntity
  8
0
  6
Continuous
 62
     7
370
    15
100
AcDbLine
 10
242.8021901947872
 20
264.8846055614163
 30
0.0
 11
242.8021901947872
 21
267.9474647390057
 31
0.0
  0
LINE
  5
2E8
330
1F
100
AcDbEntity
  8
0
  6
Continuous
 62
     7
370
    15
100
AcDbLine
 10
155.8021926981822
 20
267.9474647390057
 30
0.0
 11
155.8021926981822
 21
255.9474646346976
 31
0.0
  0
ARC
  5
2E9
330
1F
100
AcDbEntity
  8
0
  6
Continuous
 62
     7
370
    15
100
AcDbCircle
 10
236.3021909919992
 20
273.6651205924855
 30
0.0
 40
6.2403197440308
100
AcDbArc
 50
246.3830213942212
 51
293.6169786057809
  0
ARC
  5
2EA
330
1F
100
AcDbEntity
  8
0
  6
Continuous
 62
     7
370
    15
100
AcDbCircle
 10
236.3021909919992
 20
250.2298087344992
 30
0.0
 40
6.240319786836527
100
AcDbArc
 50
66.38302156606606
 51
113.6169784339334
  0
SPLINE
  5
2EB
330
1F
100
AcDbEntity
  8
0
  6
Continuous
 62
     7
370
    15
100
AcDbSpline
210
0.0
220
0.0
230
1.0
 70
     8
 71
     3
 72
     9
 73
     5
 74
     0
 42
0.0000000001
 43
0.0000000001
 40
0.0
 40
0.0
 40
0.0
 40
0.0
 40
0.4989631102056221
 40
1.0
 40
1.0
 40
1.0
 40
1.0
 10
227.8368301419035
 20
261.9474646868517
 30
0.0
 10
227.966114702929
 20
262.8589040742887
 30
0.0
 10
228.2252211546509
 20
264.6855709536527
 30
0.0
 10
228.2702432747807
 20
266.5255615109634
 30
0.0
 10
228.2928010178224
 20
267.4474646570494
 30
0.0
  0
LINE
  5
2EC
330
1F
100
AcDbEntity
  8
0
  6
Continuous
 62
     7
370
    15
100
AcDbLine
 10
227.8368301419035
 20
261.9474646868517
 30
0.0
 11
212.748771133782
 21
261.9474647286937
 31
0.0
  0
SPLINE
  5
2ED
330
1F
100
AcDbEntity
  8
0
  6
Continuous
 62
     7
370
    15
100
AcDbSpline
210
0.0
220
0.0
230
1.0
 70
     8
 71
     3
 72
     9
 73
     5
 74
     0
 42
0.0000000001
 43
0.0000000001
 40
0.0
 40
0.0
 40
0.0
 40
0.0
 40
0.498963397377205
 40
1.0
 40
1.0
 40
1.0
 40
1.0
 10
212.748771133782
 20
261.9474647705359
 30
0.0
 10
212.6194865355173
 20
262.8589038596975
 30
0.0
 10
212.3603801582875
 20
264.685569089958
 30
0.0
 10
212.3153583149528
 20
266.5255612408925
 30
0.0
 10
212.2928007235245
 20
267.4474646570494
 30
0.0
  0
SPLINE
  5
2EE
330
1F
100
AcDbEntity
  8
0
  6
Continuous
 62
     7
370
    15
100
AcDbSpline
210
0.0
220
0.0
230
1.0
 70
     8
 71
     3
 72
     9
 73
     5
 74
     0
 42
0.0000000001
 43
0.0000000001
 40
0.0
 40
0.0
 40
0.0
 40
0.0
 40
0.4987909674213426
 40
1.0
 40
1.0
 40
1.0
 40
1.0
 10
212.2928007235245
 20
267.4474646570494
 30
0.0
 10
212.3151574156173
 20
268.3652342517499
 30
0.0
 10
212.3599791817539
 20
270.2052226529941
 30
0.0
 10
212.6189650681899
 20
272.0319116181827
 30
0.0
 10
212.748771133782
 20
272.947464627247
 30
0.0
  0
LINE
  5
2EF
330
1F
100
AcDbEntity
  8
0
  6
Continuous
 62
     7
370
    15
100
AcDbLine
 10
212.748771133782
 20
272.947464627247
 30
0.0
 11
217.3488802005962
 21
272.947464627247
 31
0.0
  0
SPLINE
  5
2F0
330
1F
100
AcDbEntity
  8
0
  6
Continuous
 62
     7
370
    15
100
AcDbSpline
210
0.0
220
0.0
230
1.0
 70
     8
 71
     3
 72
     9
 73
     5
 74
     0
 42
0.0000000001
 43
0.0000000001
 40
0.0
 40
0.0
 40
0.0
 40
0.0
 40
0.4987909688088513
 40
0.9999999999999998
 40
0.9999999999999998
 40
0.9999999999999998
 40
0.9999999999999998
 10
228.2928010178224
 20
267.4474646570494
 30
0.0
 10
228.2704441320014
 20
268.3652342504903
 30
0.0
 10
228.225621977594
 20
270.2052226440907
 30
0.0
 10
227.9666361684146
 20
272.0319116168984
 30
0.0
 10
227.8368301419035
 20
272.947464627247
 30
0.0
  0
LINE
  5
2F1
330
1F
100
AcDbEntity
  8
0
  6
Continuous
 62
     7
370
    15
100
AcDbLine
 10
228.2928010178224
 20
256.447464716654
 30
0.0
 11
228.2928010178224
 21
267.4474646570494
 31
0.0
  0
SPLINE
  5
2F2
330
1F
100
AcDbEntity
  8
0
  6
Continuous
 62
     7
370
    15
100
AcDbSpline
210
0.0
220
0.0
230
1.0
 70
     8
 71
     3
 72
     9
 73
     5
 74
     0
 42
0.0000000001
 43
0.0000000001
 40
0.0
 40
0.0
 40
0.0
 40
0.0
 40
0.4987906773504245
 40
1.0
 40
1.0
 40
1.0
 40
1.0
 10
228.2928010178224
 20
256.447464716654
 30
0.0
 10
228.2704440892527
 20
257.3652345746901
 30
0.0
 10
228.2256218229496
 20
259.2052245739244
 30
0.0
 10
227.9666361670653
 20
261.0319119462672
 30
0.0
 10
227.8368301419035
 20
261.9474646868517
 30
0.0
  0
SPLINE
  5
2F3
330
1F
100
AcDbEntity
  8
0
  6
Continuous
 62
     7
370
    15
100
AcDbSpline
210
0.0
220
0.0
230
1.0
 70
     8
 71
     3
 72
     9
 73
     5
 74
     0
 42
0.0000000001
 43
0.0000000001
 40
0.0
 40
0.0
 40
0.0
 40
0.0
 40
0.498963047104339
 40
1.0
 40
1.0
 40
1.0
 40
1.0
 10
227.8368301419035
 20
250.9474647464563
 30
0.0
 10
227.9661147032202
 20
251.8589039592664
 30
0.0
 10
228.2252211882935
 20
253.68557071966
 30
0.0
 10
228.2702432841177
 20
255.5255613952166
 30
0.0
 10
228.2928010178224
 20
256.447464716654
 30
0.0
  0
LINE
  5
2F4
330
1F
100
AcDbEntity
  8
0
  6
Continuous
 62
     7
370
    15
100
AcDbLine
 10
217.3488802005962
 20
250.9474647464563
 30
0.0
 11
212.748771133782
 21
250.9474647464563
 31
0.0
  0
SPLINE
  5
2F5
330
1F
100
AcDbEntity
  8
0
  6
Continuous
 62
     7
370
    15
100
AcDbSpline
210
0.0
220
0.0
230
1.0
 70
     8
 71
     3
 72
     9
 73
     5
 74
     0
 42
0.0000000001
 43
0.0000000001
 40
0.0
 40
0.0
 40
0.0
 40
0.0
 40
0.4989630484915912
 40
1.0
 40
1.0
 40
1.0
 40
1.0
 10
212.748771133782
 20
250.9474647464563
 30
0.0
 10
212.6194865339075
 20
251.8589039579939
 30
0.0
 10
212.3603799722785
 20
253.6855707107585
 30
0.0
 10
212.3153582633285
 20
255.5255613939459
 30
0.0
 10
212.2928007235245
 20
256.447464716654
 30
0.0
  0
SPLINE
  5
2F6
330
1F
100
AcDbEntity
  8
0
  6
Continuous
 62
     7
370
    15
100
AcDbSpline
210
0.0
220
0.0
230
1.0
 70
     8
 71
     3
 72
     9
 73
     5
 74
     0
 42
0.0000000001
 43
0.0000000001
 40
0.0
 40
0.0
 40
0.0
 40
0.0
 40
0.4987906735491184
 40
0.9999999999999998
 40
0.9999999999999998
 40
0.9999999999999998
 40
0.9999999999999998
 10
212.2928007235245
 20
256.447464716654
 30
0.0
 10
212.31515745872
 20
257.3652345751794
 30
0.0
 10
212.3599793376789
 20
259.2052245894175
 30
0.0
 10
212.6189650695504
 20
261.0319119706605
 30
0.0
 10
212.748771133782
 20
261.9474647226497
 30
0.0
  0
LINE
  5
2F7
330
1F
100
AcDbEntity
  8
0
  6
Continuous
 62
     7
370
    15
100
AcDbLine
 10
197.7928006750957
 20
271.8974645482709
 30
0.0
 11
197.7928006750957
 21
251.9974648254325
 31
0.0
  0
LINE
  5
2F8
330
1F
100
AcDbEntity
  8
0
  6
Continuous
 62
     7
370
    15
100
AcDbLine
 10
196.2928013605491
 20
270.3974643024017
 30
0.0
 11
196.2928013605491
 21
253.4974650713016
 31
0.0
  0
LINE
  5
2F9
330
1F
100
AcDbEntity
  8
0
  6
Continuous
 62
     7
370
    15
100
AcDbLine
 10
228.2928010178224
 20
267.4474646570494
 30
0.0
 11
228.2928010178224
 21
272.947464627247
 31
0.0
  0
SPLINE
  5
2FA
330
1F
100
AcDbEntity
  8
0
  6
Continuous
 62
     7
370
    15
100
AcDbSpline
210
0.0
220
0.0
230
1.0
 70
    24
 71
     3
 72
     9
 73
     5
 74
     0
 42
0.0000000001
 43
0.0000000001
 40
0.0
 40
0.0
 40
0.0
 40
0.0
 40
0.4989635176335648
 40
1.0
 40
1.0
 40
1.0
 40
1.0
 10
212.748771133782
 20
272.947464627247
 30
0.0
 10
212.6194865360722
 20
272.947464627247
 30
0.0
 10
212.3603802224024
 20
272.947464627247
 30
0.0
 10
212.3153583327469
 20
272.947464627247
 30
0.0
 10
212.2928007235245
 20
272.947464627247
 30
0.0
  0
LINE
  5
2FB
330
1F
100
AcDbEntity
  8
0
  6
Continuous
 62
     7
370
    15
100
AcDbLine
 10
228.2928010178224
 20
250.9474647464563
 30
0.0
 11
228.2928010178224
 21
256.447464716654
 31
0.0
  0
SPLINE
  5
2FC
330
1F
100
AcDbEntity
  8
0
  6
Continuous
 62
     7
370
    15
100
AcDbSpline
210
0.0
220
0.0
230
1.0
 70
    24
 71
     3
 72
     9
 73
     5
 74
     0
 42
0.0000000001
 43
0.0000000001
 40
0.0
 40
0.0
 40
0.0
 40
0.0
 40
0.4987908215849631
 40
1.0
 40
1.0
 40
1.0
 40
1.0
 10
212.2928007235245
 20
250.9474647464563
 30
0.0
 10
212.3151574370074
 20
250.9474647464563
 30
0.0
 10
212.3599792591329
 20
250.9474647464563
 30
0.0
 10
212.6189650688651
 20
250.9474647464563
 30
0.0
 10
212.748771133782
 20
250.9474647464563
 30
0.0
  0
LINE
  5
2FD
330
1F
100
AcDbEntity
  8
0
  6
Continuous
 62
     7
370
    15
100
AcDbLine
 10
208.2928005335347
 20
273.2611731859257
 30
0.0
 11
208.2928005335347
 21
250.6337561877777
 31
0.0
  0
LINE
  5
2FE
330
1F
100
AcDbEntity
  8
0
  6
Continuous
 62
     7
370
    15
100
AcDbLine
 10
212.2928007235245
 20
273.2611731859257
 30
0.0
 11
212.2928007235245
 21
250.6337561877777
 31
0.0
  0
LINE
  5
2FF
330
1F
100
AcDbEntity
  8
0
  6
Continuous
 62
     7
370
    15
100
AcDbLine
 10
208.2928005335347
 20
288.9829990687181
 30
0.0
 11
208.2928005335347
 21
273.2611731859257
 31
0.0
  0
LINE
  5
300
330
1F
100
AcDbEntity
  8
0
  6
Continuous
 62
     7
370
    15
100
AcDbLine
 10
212.2928007235245
 20
288.9829990687181
 30
0.0
 11
212.2928007235245
 21
273.2611731859257
 31
0.0
  0
LINE
  5
301
330
1F
100
AcDbEntity
  8
0
  6
Continuous
 62
     7
370
    15
100
AcDbLine
 10
208.2928005335347
 20
234.9119303049852
 30
0.0
 11
208.2928005335347
 21
250.6337561877777
 31
0.0
  0
LINE
  5
302
330
1F
100
AcDbEntity
  8
0
  6
Continuous
 62
     7
370
    15
100
AcDbLine
 10
212.2928007235245
 20
234.9119303049852
 30
0.0
 11
212.2928007235245
 21
250.6337561877777
 31
0.0
  0
LINE
  5
303
330
1F
100
AcDbEntity
  8
0
  6
Continuous
 62
     7
370
    15
100
AcDbLine
 10
208.2928005335347
 20
290.4474647017528
 30
0.0
 11
212.2928007235245
 21
290.4474647017528
 31
0.0
  0
LINE
  5
304
330
1F
100
AcDbEntity
  8
0
  6
Continuous
 62
     7
370
    15
100
AcDbLine
 10
208.2928005335347
 20
288.9829990687181
 30
0.0
 11
208.2928005335347
 21
290.4474647017528
 31
0.0
  0
LINE
  5
305
330
1F
100
AcDbEntity
  8
0
  6
Continuous
 62
     7
370
    15
100
AcDbLine
 10
212.2928007235245
 20
290.4474647017528
 30
0.0
 11
212.2928007235245
 21
288.9829990687181
 31
0.0
  0
LINE
  5
306
330
1F
100
AcDbEntity
  8
0
  6
Continuous
 62
     7
370
    15
100
AcDbLine
 10
212.2928007235245
 20
233.4474646719505
 30
0.0
 11
208.2928005335347
 21
233.4474646719505
 31
0.0
  0
LINE
  5
307
330
1F
100
AcDbEntity
  8
0
  6
Continuous
 62
     7
370
    15
100
AcDbLine
 10
208.2928005335347
 20
233.4474646719505
 30
0.0
 11
208.2928005335347
 21
234.9119303049852
 31
0.0
  0
LINE
  5
308
330
1F
100
AcDbEntity
  8
0
  6
Continuous
 62
     7
370
    15
100
AcDbLine
 10
212.2928007235245
 20
234.9119303049852
 30
0.0
 11
212.2928007235245
 21
233.4474646719505
 31
0.0
  0
LINE
  5
309
330
1F
100
AcDbEntity
  8
0
  6
Continuous
 62
     7
370
    15
100
AcDbLine
 10
215.2928007496015
 20
233.4474646719505
 30
0.0
 11
212.2928007235245
 21
233.4474646719505
 31
0.0
  0
LINE
  5
30A
330
1F
100
AcDbEntity
  8
0
  6
Continuous
 62
     7
370
    15
100
AcDbLine
 10
212.2928007235245
 20
290.4474647017528
 30
0.0
 11
215.2928007496015
 21
290.4474647017528
 31
0.0
  0
LINE
  5
30B
330
1F
100
AcDbEntity
  8
0
  6
Continuous
 62
     7
370
    15
100
AcDbLine
 10
217.9928005868063
 20
280.4174651624967
 30
0.0
 11
217.9928005868063
 21
282.9474644037296
 31
0.0
  0
LINE
  5
30C
330
1F
100
AcDbEntity
  8
0
  6
Continuous
 62
     7
370
    15
100
AcDbLine
 10
224.5928007838742
 20
276.9474643515756
 30
0.0
 11
224.5428004031495
 21
276.3751889812161
 31
0.0
  0
LINE
  5
30D
330
1F
100
AcDbEntity
  8
0
  6
Continuous
 62
     7
370
    15
100
AcDbLine
 10
224.5928007838742
 20
282.9474644037296
 30
0.0
 11
224.5928007838742
 21
276.9474643515756
 31
0.0
  0
ARC
  5
30E
330
1F
100
AcDbEntity
  8
0
  6
Continuous
 62
     7
370
    15
100
AcDbCircle
 10
221.2928005558864
 20
282.9474646868517
 30
0.0
 40
3.300000000000039
100
AcDbArc
 50
0.0
 51
180.0
  0
LINE
  5
30F
330
1F
100
AcDbEntity
  8
0
  6
Continuous
 62
     7
370
    15
100
AcDbLine
 10
224.5928007838742
 20
246.9474650221278
 30
0.0
 11
224.5428004031495
 21
247.5197403924872
 31
0.0
  0
LINE
  5
310
330
1F
100
AcDbEntity
  8
0
  6
Continuous
 62
     7
370
    15
100
AcDbLine
 10
217.9928005868063
 20
243.4774642112066
 30
0.0
 11
217.9928005868063
 21
240.9474649699737
 31
0.0
  0
ARC
  5
311
330
1F
100
AcDbEntity
  8
0
  6
Continuous
 62
     7
370
    15
100
AcDbCircle
 10
221.2928005558864
 20
240.9474646868516
 30
0.0
 40
3.300000000000039
100
AcDbArc
 50
180.0
 51
0.0
  0
LINE
  5
312
330
1F
100
AcDbEntity
  8
0
  6
Continuous
 62
     7
370
    15
100
AcDbLine
 10
224.5928007838742
 20
240.9474649699737
 30
0.0
 11
224.5928007838742
 21
246.9474650221278
 31
0.0
  0
ARC
  5
313
330
1F
100
AcDbEntity
  8
0
  6
Continuous
 62
     7
370
    15
100
AcDbCircle
 10
226.2928005558864
 20
238.4474646868516
 30
0.0
 40
5.0
100
AcDbArc
 50
270.0000000000008
 51
0.0
  0
ARC
  5
314
330
1F
100
AcDbEntity
  8
0
  6
Continuous
 62
     7
370
    15
100
AcDbCircle
 10
226.2928005558864
 20
285.4474646868517
 30
0.0
 40
5.0
100
AcDbArc
 50
0.0000000000001527
 51
90.0
  0
LINE
  5
315
330
1F
100
AcDbEntity
  8
0
  6
Continuous
 62
     7
370
    15
100
AcDbLine
 10
231.2928005782382
 20
238.4474654915144
 30
0.0
 11
231.2928005782382
 21
247.947464254718
 31
0.0
  0
LINE
  5
316
330
1F
100
AcDbEntity
  8
0
  6
Continuous
 62
     7
370
    15
100
AcDbLine
 10
231.2928005782382
 20
250.9474647464563
 30
0.0
 11
231.2928005782382
 21
252.9474650742819
 31
0.0
  0
LINE
  5
317
330
1F
100
AcDbEntity
  8
0
  6
Continuous
 62
     7
370
    15
100
AcDbLine
 10
231.2928005782382
 20
270.9474642994215
 30
0.0
 11
231.2928005782382
 21
272.947464627247
 31
0.0
  0
LINE
  5
318
330
1F
100
AcDbEntity
  8
0
  6
Continuous
 62
     7
370
    15
100
AcDbLine
 10
231.2928005782382
 20
275.9474651189854
 30
0.0
 11
231.2928005782382
 21
285.447463882189
 31
0.0
  0
LINE
  5
319
330
1F
100
AcDbEntity
  8
0
  6
Continuous
 62
     7
370
    15
100
AcDbLine
 10
226.2928006899969
 20
233.4474646719505
 30
0.0
 11
215.2928007496015
 21
233.4474646719505
 31
0.0
  0
LINE
  5
31A
330
1F
100
AcDbEntity
  8
0
  6
Continuous
 62
     7
370
    15
100
AcDbLine
 10
226.2928006899969
 20
290.4474647017528
 30
0.0
 11
215.2928007496015
 21
290.4474647017528
 31
0.0
  0
SPLINE
  5
31B
330
1F
100
AcDbEntity
  8
0
  6
Continuous
 62
     7
370
    15
100
AcDbSpline
210
0.0
220
0.0
230
1.0
 70
     8
 71
     3
 72
    11
 73
     7
 74
     0
 42
0.0000000001
 43
0.0000000001
 40
0.0
 40
0.0
 40
0.0
 40
0.0
 40
0.2188114056144317
 40
0.5636290334439548
 40
0.9032043851669088
 40
1.0
 40
1.0
 40
1.0
 40
1.0
 10
244.9835544181482
 20
40.97045111564634
 30
0.0
 10
244.8289248814171
 20
40.74844497045943
 30
0.0
 10
244.4306197926816
 20
40.1765867134415
 30
0.0
 10
243.9105049312351
 20
39.1870299343801
 30
0.0
 10
243.5049412977116
 20
38.30843339783866
 30
0.0
 10
243.3390001909802
 20
37.7952127927274
 30
0.0
 10
243.3021912080661
 20
37.68137042505381
 30
0.0
  0
SPLINE
  5
31C
330
1F
100
AcDbEntity
  8
0
  6
Continuous
 62
     7
370
    15
100
AcDbSpline
210
0.0
220
0.0
230
1.0
 70
     8
 71
     3
 72
    11
 73
     7
 74
     0
 42
0.0000000001
 43
0.0000000001
 40
0.0
 40
0.0
 40
0.0
 40
0.0
 40
0.0664991037103068
 40
0.3710290656382634
 40
0.6865089584915759
 40
1.0
 40
1.0
 40
1.0
 40
1.0
 10
243.3021912080661
 20
28.34958202300308
 30
0.0
 10
243.327336900636
 20
28.27192538460746
 30
0.0
 10
243.4676362775974
 20
27.83864330444511
 30
0.0
 10
243.8103813217322
 20
27.06691113547872
 30
0.0
 10
244.3287329329021
 20
26.04392766708631
 30
0.0
 10
244.7534422361191
 20
25.39866087898147
 30
0.0
 10
244.9651254070417
 20
25.07704767493245
 30
0.0
  0
LINE
  5
31D
330
1F
100
AcDbEntity
  8
0
  6
Continuous
 62
     7
370
    15
100
AcDbLine
 10
150.3021890026943
 20
37.02113629413483
 30
0.0
 11
135.3021884066478
 21
37.02113629413483
 31
0.0
  0
LINE
  5
31E
330
1F
100
AcDbEntity
  8
0
  6
Continuous
 62
     7
370
    15
100
AcDbLine
 10
135.3021884066478
 20
29.02113591415522
 30
0.0
 11
150.3021890026943
 21
29.02113591415522
 31
0.0
  0
LINE
  5
31F
330
1F
100
AcDbEntity
  8
0
  6
Continuous
 62
     7
370
    15
100
AcDbLine
 10
252.281072149934
 20
19.02113567201135
 30
0.0
 11
252.281072149934
 21
17.52113635746476
 31
0.0
  0
LINE
  5
320
330
1F
100
AcDbEntity
  8
0
  6
Continuous
 62
     7
370
    15
100
AcDbLine
 10
260.2810734612361
 20
17.52113635746476
 30
0.0
 11
260.2810734612361
 21
19.02113567201135
 31
0.0
  0
LINE
  5
321
330
1F
100
AcDbEntity
  8
0
  6
Continuous
 62
     7
370
    15
100
AcDbLine
 10
253.7810714644805
 20
26.87113630680082
 30
0.0
 11
253.7810714644805
 21
25.02113572416541
 31
0.0
  0
LINE
  5
322
330
1F
100
AcDbEntity
  8
0
  6
Continuous
 62
     7
370
    15
100
AcDbLine
 10
258.7810741466896
 20
25.02113572416541
 30
0.0
 11
258.7810741466896
 21
26.87113630680082
 31
0.0
  0
LINE
  5
323
330
1F
100
AcDbEntity
  8
0
  6
Continuous
 62
     7
370
    15
100
AcDbLine
 10
260.2810734612361
 20
47.0211365362787
 30
0.0
 11
260.2810734612361
 21
48.52113585082529
 31
0.0
  0
LINE
  5
324
330
1F
100
AcDbEntity
  8
0
  6
Continuous
 62
     7
370
    15
100
AcDbLine
 10
252.281072149934
 20
48.52113585082529
 30
0.0
 11
252.281072149934
 21
47.0211365362787
 31
0.0
  0
LINE
  5
325
330
1F
100
AcDbEntity
  8
0
  6
Continuous
 62
     7
370
    15
100
AcDbLine
 10
258.7810741466896
 20
39.17113590148924
 30
0.0
 11
258.7810741466896
 21
41.02113648412464
 31
0.0
  0
LINE
  5
326
330
1F
100
AcDbEntity
  8
0
  6
Continuous
 62
     7
370
    15
100
AcDbLine
 10
253.7810714644805
 20
41.02113648412464
 30
0.0
 11
253.7810714644805
 21
39.17113590148924
 31
0.0
  0
LINE
  5
327
330
1F
100
AcDbEntity
  8
0
  6
Continuous
 62
     7
370
    15
100
AcDbLine
 10
232.8021904183046
 20
43.521135962584
 30
0.0
 11
232.8021904183046
 21
42.02113571671484
 31
0.0
  0
LINE
  5
328
330
1F
100
AcDbEntity
  8
0
  6
Continuous
 62
     7
370
    15
100
AcDbLine
 10
233.8021905822174
 20
24.02113649157521
 30
0.0
 11
233.8021905822174
 21
22.02113616374967
 31
0.0
  0
LINE
  5
329
330
1F
100
AcDbEntity
  8
0
  6
Continuous
 62
     7
370
    15
100
AcDbLine
 10
224.5428004031495
 20
47.44886039850948
 30
0.0
 11
224.5428004031495
 21
48.0211357688689
 31
0.0
  0
LINE
  5
32A
330
1F
100
AcDbEntity
  8
0
  6
Continuous
 62
     7
370
    15
100
AcDbLine
 10
224.5428004031495
 20
18.02113643942115
 30
0.0
 11
224.5428004031495
 21
18.59341180978057
 31
0.0
  0
LINE
  5
32B
330
1F
100
AcDbEntity
  8
0
  6
Continuous
 62
     7
370
    15
100
AcDbLine
 10
237.0489170504228
 20
44.02113604454038
 30
0.0
 11
237.0489170504228
 21
22.02113616374967
 31
0.0
  0
LINE
  5
32C
330
1F
100
AcDbEntity
  8
0
  6
Continuous
 62
     7
370
    15
100
AcDbLine
 10
243.0489180338994
 20
22.02113616374967
 30
0.0
 11
243.0489180338994
 21
44.02113604454038
 31
0.0
  0
LINE
  5
32D
330
1F
100
AcDbEntity
  8
0
  6
Continuous
 62
     7
370
    15
100
AcDbLine
 10
237.5489180637018
 20
19.02113567201135
 30
0.0
 11
237.5489180637018
 21
17.22113686708447
 31
0.0
  0
LINE
  5
32E
330
1F
100
AcDbEntity
  8
0
  6
Continuous
 62
     7
370
    15
100
AcDbLine
 10
242.5489170206205
 20
17.22113686708447
 30
0.0
 11
242.5489170206205
 21
19.02113567201135
 31
0.0
  0
LINE
  5
32F
330
1F
100
AcDbEntity
  8
0
  6
Continuous
 62
     7
370
    15
100
AcDbLine
 10
237.5489180637018
 20
48.82113534120557
 30
0.0
 11
237.5489180637018
 21
47.0211365362787
 31
0.0
  0
LINE
  5
330
330
1F
100
AcDbEntity
  8
0
  6
Continuous
 62
     7
370
    15
100
AcDbLine
 10
242.5489170206205
 20
47.0211365362787
 30
0.0
 11
242.5489170206205
 21
48.82113534120557
 31
0.0
  0
LINE
  5
331
330
1F
100
AcDbEntity
  8
0
  6
Continuous
 62
     7
370
    15
100
AcDbLine
 10
263.2810720903293
 20
19.02113567201135
 30
0.0
 11
263.2810720903293
 21
22.02113616374967
 31
0.0
  0
LINE
  5
332
330
1F
100
AcDbEntity
  8
0
  6
Continuous
 62
     7
370
    15
100
AcDbLine
 10
263.2810720903293
 20
44.02113604454038
 30
0.0
 11
263.2810720903293
 21
47.0211365362787
 31
0.0
  0
LINE
  5
333
330
1F
100
AcDbEntity
  8
0
  6
Continuous
 62
     7
370
    15
100
AcDbLine
 10
196.2928013605491
 20
39.02113615629909
 30
0.0
 11
155.8021926981822
 21
39.02113615629909
 31
0.0
  0
LINE
  5
334
330
1F
100
AcDbEntity
  8
0
  6
Continuous
 62
     7
370
    15
100
AcDbLine
 10
155.8021926981822
 20
27.02113605199096
 30
0.0
 11
196.2928013605491
 21
27.02113605199096
 31
0.0
  0
LINE
  5
335
330
1F
100
AcDbEntity
  8
0
  6
Continuous
 62
     7
370
    15
100
AcDbLine
 10
155.8021926981822
 20
39.02113615629909
 30
0.0
 11
155.3021916849033
 21
38.52113607434271
 31
0.0
  0
LINE
  5
336
330
1F
100
AcDbEntity
  8
0
  6
Continuous
 62
     7
370
    15
100
AcDbLine
 10
155.3021916849033
 20
27.52113613394735
 30
0.0
 11
155.8021926981822
 21
27.02113605199096
 31
0.0
  0
LINE
  5
337
330
1F
100
AcDbEntity
  8
0
  6
Continuous
 62
     7
370
    15
100
AcDbLine
 10
243.0489180338994
 20
27.26786249411938
 30
0.0
 11
243.3021912080661
 21
27.52113613394735
 31
0.0
  0
LINE
  5
338
330
1F
100
AcDbEntity
  8
0
  6
Continuous
 62
     7
370
    15
100
AcDbLine
 10
243.3021912080661
 20
38.52113607434271
 30
0.0
 11
243.0489180338994
 21
38.77440971417067
 31
0.0
  0
LINE
  5
339
330
1F
100
AcDbEntity
  8
0
  6
Continuous
 62
     7
370
    15
100
AcDbLine
 10
208.2928005335347
 20
42.97113596556423
 30
0.0
 11
197.7928006750957
 21
42.97113596556423
 31
0.0
  0
LINE
  5
33A
330
1F
100
AcDbEntity
  8
0
  6
Continuous
 62
     7
370
    15
100
AcDbLine
 10
197.7928006750957
 20
23.07113624272582
 30
0.0
 11
208.2928005335347
 21
23.07113624272582
 31
0.0
  0
LINE
  5
33B
330
1F
100
AcDbEntity
  8
0
  6
Continuous
 62
     7
370
    15
100
AcDbLine
 10
197.7928006750957
 20
42.97113596556423
 30
0.0
 11
196.2928013605491
 21
41.47113571969507
 31
0.0
  0
LINE
  5
33C
330
1F
100
AcDbEntity
  8
0
  6
Continuous
 62
     7
370
    15
100
AcDbLine
 10
196.2928013605491
 20
24.57113648859498
 30
0.0
 11
197.7928006750957
 21
23.07113624272582
 31
0.0
  0
ARC
  5
33D
330
1F
100
AcDbEntity
  8
0
  6
Continuous
 62
     7
370
    15
100
AcDbCircle
 10
256.4780943860737
 20
33.0380215052715
 30
0.0
 40
13.98421922333335
100
AcDbArc
 50
51.1124360158254
 51
60.8908224904694
  0
ARC
  5
33E
330
1F
100
AcDbEntity
  8
0
  6
Continuous
 62
     7
370
    15
100
AcDbCircle
 10
256.4780244461417
 20
33.00436971672142
 30
0.0
 40
13.98435722898065
100
AcDbArc
 50
299.1091906567824
 51
309.7621474359502
  0
LINE
  5
33F
330
1F
100
AcDbEntity
  8
0
  6
Continuous
 62
     7
370
    15
100
AcDbLine
 10
263.7455412847415
 20
30.02113607806799
 30
0.0
 11
263.7455412847415
 21
36.02113613022206
 31
0.0
  0
ARC
  5
340
330
1F
100
AcDbEntity
  8
0
  6
Continuous
 62
     7
370
    15
100
AcDbCircle
 10
256.7373319544138
 20
33.02113610414503
 30
0.0
 40
14.00602630758794
100
AcDbArc
 50
297.8532721495684
 51
62.14672785043234
  0
ARC
  5
341
330
1F
100
AcDbEntity
  8
0
  6
Continuous
 62
     7
370
    15
100
AcDbCircle
 10
257.2024253542733
 20
33.02113610414503
 30
0.0
 40
14.00559761236471
100
AcDbArc
 50
295.7226664439345
 51
64.2773335560663
  0
ARC
  5
342
330
1F
100
AcDbEntity
  8
0
  6
Continuous
 62
     7
370
    15
100
AcDbCircle
 10
257.5651653655862
 20
33.02113610414503
 30
0.0
 40
14.00526276359171
100
AcDbArc
 50
294.0871442366918
 51
65.912855763309
  0
ARC
  5
343
330
1F
100
AcDbEntity
  8
0
  6
Continuous
 62
     7
370
    15
100
AcDbCircle
 10
258.0302592419748
 20
33.02113610414503
 30
0.0
 40
14.00483459538165
100
AcDbArc
 50
292.019899157778
 51
67.98010084222278
  0
ARC
  5
344
330
1F
100
AcDbEntity
  8
0
  6
Continuous
 62
     7
370
    15
100
AcDbCircle
 10
258.3929973228345
 20
33.02113610414503
 30
0.0
 40
14.0045004796024
100
AcDbArc
 50
290.4283636361769
 51
69.57163636382389
  0
ARC
  5
345
330
1F
100
AcDbEntity
  8
0
  6
Continuous
 62
     7
370
    15
100
AcDbCircle
 10
258.8580926952672
 20
33.02113610414503
 30
0.0
 40
14.00407103399625
100
AcDbArc
 50
288.4112449437369
 51
71.58875505626389
  0
SPLINE
  5
346
330
1F
100
AcDbEntity
  8
0
  6
Continuous
 62
     7
370
    15
100
AcDbSpline
210
0.0
220
0.0
230
1.0
 70
     8
 71
     3
 72
    24
 73
    20
 74
     0
 42
0.0000000001
 43
0.0000000001
 40
0.0
 40
0.0
 40
0.0
 40
0.0
 40
0.0364804622518983
 40
0.1034970667223816
 40
0.1686249374747109
 40
0.2356415895199933
 40
0.3007695026319963
 40
0.3677861278325145
 40
0.4329140535716697
 40
0.4999306843366966
 40
0.5409653809007283
 40
0.5824581887834605
 40
0.6475860982566884
 40
0.7146027458797498
 40
0.7797306729412567
 40
0.8467473084520698
 40
0.9118752416023806
 40
0.9788918222910774
 40
1.0
 40
1.0
 40
1.0
 40
1.0
 10
263.2810720903293
 20
19.66919927952525
 30
0.0
 10
263.6986207176709
 20
19.78889579308286
 30
0.0
 10
264.8832290114314
 20
20.12848134889536
 30
0.0
 10
266.6624914147098
 20
21.09248296350823
 30
0.0
 10
268.571824128608
 20
22.50381217991317
 30
0.0
 10
270.1947259861688
 20
24.21714947015049
 30
0.0
 10
271.5213977393787
 20
26.19232301452339
 30
0.0
 10
272.4885523373978
 20
28.34396963903409
 30
0.0
 10
273.0867493497527
 20
30.64799543949138
 30
0.0
 10
273.2634658525629
 20
32.71210943831632
 30
0.0
 10
273.1701726461362
 20
34.49217712474646
 30
0.0
 10
272.8943061149998
 20
36.23055447553234
 30
0.0
 10
272.2939965654465
 20
38.21793755089909
 30
0.0
 10
271.242898299373
 20
40.32961538610502
 30
0.0
 10
269.8392915964008
 20
42.25045631836256
 30
0.0
 10
268.1507707720323
 20
43.9002518449655
 30
0.0
 10
266.1851041725201
 20
45.22823624809534
 30
0.0
 10
264.541316376983
 20
46.06004041664293
 30
0.0
 10
263.5246017555339
 20
46.31704405001099
 30
0.0
 10
263.2810720903293
 20
46.37860312221286
 30
0.0
  0
SPLINE
  5
347
330
1F
100
AcDbEntity
  8
0
  6
Continuous
 62
     7
370
    15
100
AcDbSpline
210
0.0
220
0.0
230
1.0
 70
     8
 71
     3
 72
     9
 73
     5
 74
     0
 42
0.0000000001
 43
0.0000000001
 40
0.0
 40
0.0
 40
0.0
 40
0.0
 40
0.4989617897435455
 40
1.0
 40
1.0
 40
1.0
 40
1.0
 10
130.071627507867
 20
33.02113625719934
 30
0.0
 10
129.9951897483895
 20
32.48223785986862
 30
0.0
 10
129.8419961350733
 20
31.40219844922015
 30
0.0
 10
129.8154785067672
 20
30.31427932320378
 30
0.0
 10
129.8021921617404
 20
29.76919027140078
 30
0.0
  0
LINE
  5
348
330
1F
100
AcDbEntity
  8
0
  6
Continuous
 62
     7
370
    15
100
AcDbLine
 10
135.3021884066478
 20
33.02113610414504
 30
0.0
 11
130.071627507867
 21
33.02113618067219
 31
0.0
  0
LINE
  5
349
330
1F
100
AcDbEntity
  8
0
  6
Continuous
 62
     7
370
    15
100
AcDbLine
 10
135.3021884066478
 20
33.02113610414504
 30
0.0
 11
135.3021884066478
 21
26.52113597003457
 31
0.0
  0
LINE
  5
34A
330
1F
100
AcDbEntity
  8
0
  6
Continuous
 62
     7
370
    15
100
AcDbLine
 10
135.3021884066478
 20
26.52113597003457
 30
0.0
 11
130.071627507867
 21
26.52113597003457
 31
0.0
  0
SPLINE
  5
34B
330
1F
100
AcDbEntity
  8
0
  6
Continuous
 62
     7
370
    15
100
AcDbSpline
210
0.0
220
0.0
230
1.0
 70
     8
 71
     3
 72
     9
 73
     5
 74
     0
 42
0.0000000001
 43
0.0000000001
 40
0.0
 40
0.0
 40
0.0
 40
0.0
 40
0.4987925037394254
 40
1.0
 40
1.0
 40
1.0
 40
1.0
 10
129.8021921617404
 20
29.76919027140078
 30
0.0
 10
129.8154430629407
 20
29.22719483110637
 30
0.0
 10
129.8420090219336
 20
28.14057978330373
 30
0.0
 10
129.9949648834686
 20
27.06181928441079
 30
0.0
 10
130.071627507867
 20
26.52113643569586
 30
0.0
  0
LINE
  5
34C
330
1F
100
AcDbEntity
  8
0
  6
Continuous
 62
     7
370
    15
100
AcDbLine
 10
129.8021921617404
 20
36.26919296664832
 30
0.0
 11
129.8021921617404
 21
29.76919027140078
 31
0.0
  0
SPLINE
  5
34D
330
1F
100
AcDbEntity
  8
0
  6
Continuous
 62
     7
370
    15
100
AcDbSpline
210
0.0
220
0.0
230
1.0
 70
     8
 71
     3
 72
     9
 73
     5
 74
     0
 42
0.0000000001
 43
0.0000000001
 40
0.0
 40
0.0
 40
0.0
 40
0.0
 40
0.4987925861601565
 40
1.0
 40
1.0
 40
1.0
 40
1.0
 10
129.8021921617404
 20
36.26919296664832
 30
0.0
 10
129.8154430558017
 20
35.72719721307268
 30
0.0
 10
129.8420089960923
 20
34.64058171674372
 30
0.0
 10
129.9949648832388
 20
33.56181986514129
 30
0.0
 10
130.071627507867
 20
33.02113642735057
 30
0.0
  0
SPLINE
  5
34E
330
1F
100
AcDbEntity
  8
0
  6
Continuous
 62
     7
370
    15
100
AcDbSpline
210
0.0
220
0.0
230
1.0
 70
     8
 71
     3
 72
     9
 73
     5
 74
     0
 42
0.0000000001
 43
0.0000000001
 40
0.0
 40
0.0
 40
0.0
 40
0.0
 40
0.4989616224405678
 40
0.9999999999999998
 40
0.9999999999999998
 40
0.9999999999999998
 40
0.9999999999999998
 10
130.071627507867
 20
39.52113623825548
 30
0.0
 10
129.9951897479429
 20
38.98223829935724
 30
0.0
 10
129.8419960823655
 20
37.90219944534212
 30
0.0
 10
129.8154784921292
 20
36.81428157254999
 30
0.0
 10
129.8021921617404
 20
36.26919296664832
 30
0.0
  0
LINE
  5
34F
330
1F
100
AcDbEntity
  8
0
  6
Continuous
 62
     7
370
    15
100
AcDbLine
 10
135.3021884066478
 20
39.52113623825548
 30
0.0
 11
130.071627507867
 21
39.52113623825548
 31
0.0
  0
LINE
  5
350
330
1F
100
AcDbEntity
  8
0
  6
Continuous
 62
     7
370
    15
100
AcDbLine
 10
135.3021884066478
 20
39.52113623825548
 30
0.0
 11
135.3021884066478
 21
33.02113610414504
 31
0.0
  0
SPLINE
  5
351
330
1F
100
AcDbEntity
  8
0
  6
Continuous
 62
     7
370
    15
100
AcDbSpline
210
0.0
220
0.0
230
1.0
 70
    24
 71
     3
 72
     9
 73
     5
 74
     0
 42
0.0000000001
 43
0.0000000001
 40
0.0
 40
0.0
 40
0.0
 40
0.0
 40
0.4987910648950509
 40
0.9999999999999998
 40
0.9999999999999998
 40
0.9999999999999998
 40
0.9999999999999998
 10
129.8021921617404
 20
39.52113623825548
 30
0.0
 10
129.8154022752686
 20
39.52113623825548
 30
0.0
 10
129.8418865378342
 20
39.52113623825548
 30
0.0
 10
129.9949238430756
 20
39.52113623825547
 30
0.0
 10
130.071627507867
 20
39.52113623825548
 30
0.0
  0
LINE
  5
352
330
1F
100
AcDbEntity
  8
0
  6
Continuous
 62
     7
370
    15
100
AcDbLine
 10
129.8021921617404
 20
39.52113623825548
 30
0.0
 11
129.8021921617404
 21
36.26919296664832
 31
0.0
  0
SPLINE
  5
353
330
1F
100
AcDbEntity
  8
0
  6
Continuous
 62
     7
370
    15
100
AcDbSpline
210
0.0
220
0.0
230
1.0
 70
    24
 71
     3
 72
     9
 73
     5
 74
     0
 42
0.0000000001
 43
0.0000000001
 40
0.0
 40
0.0
 40
0.0
 40
0.0
 40
0.4989639699210196
 40
1.0
 40
1.0
 40
1.0
 40
1.0
 10
130.071627507867
 20
26.52113597003457
 30
0.0
 10
129.9952641573082
 20
26.52113597003457
 30
0.0
 10
129.8422203401949
 20
26.52113597003457
 30
0.0
 10
129.815553306458
 20
26.52113597003457
 30
0.0
 10
129.8021921617404
 20
26.52113597003457
 30
0.0
  0
LINE
  5
354
330
1F
100
AcDbEntity
  8
0
  6
Continuous
 62
     7
370
    15
100
AcDbLine
 10
129.8021921617404
 20
29.76919027140078
 30
0.0
 11
129.8021921617404
 21
26.52113597003457
 31
0.0
  0
LINE
  5
355
330
1F
100
AcDbEntity
  8
0
  6
Continuous
 62
     7
370
    15
100
AcDbLine
 10
150.5716243488208
 20
33.02113456901822
 30
0.0
 11
155.0327563387767
 21
33.02113458883214
 31
0.0
  0
SPLINE
  5
356
330
1F
100
AcDbEntity
  8
0
  6
Continuous
 62
     7
370
    15
100
AcDbSpline
210
0.0
220
0.0
230
1.0
 70
     8
 71
     3
 72
     9
 73
     5
 74
     0
 42
0.0000000001
 43
0.0000000001
 40
0.0
 40
0.0
 40
0.0
 40
0.0
 40
0.4989660368335231
 40
1.0
 40
1.0
 40
1.0
 40
1.0
 10
150.5716243488208
 20
33.02113453211429
 30
0.0
 10
150.4953130862974
 20
33.55907907152462
 30
0.0
 10
150.3423742950969
 20
34.63719762008187
 30
0.0
 10
150.3156025541579
 20
35.72317841167677
 30
0.0
 10
150.3021890026943
 20
36.26729167161224
 30
0.0
  0
LINE
  5
357
330
1F
100
AcDbEntity
  8
0
  6
Continuous
 62
     7
370
    15
100
AcDbLine
 10
150.3021890026943
 20
36.27497904097376
 30
0.0
 11
150.3021890026943
 21
36.26729167161224
 31
0.0
  0
SPLINE
  5
358
330
1F
100
AcDbEntity
  8
0
  6
Continuous
 62
     7
370
    15
100
AcDbSpline
210
0.0
220
0.0
230
1.0
 70
     8
 71
     3
 72
     9
 73
     5
 74
     0
 42
0.0000000001
 43
0.0000000001
 40
0.0
 40
0.0
 40
0.0
 40
0.0
 40
0.4987943622926064
 40
1.0
 40
1.0
 40
1.0
 40
1.0
 10
150.3021890026943
 20
36.27497904097376
 30
0.0
 10
150.3154843747072
 20
36.81665909062014
 30
0.0
 10
150.3421393913192
 20
37.90263778363637
 30
0.0
 10
150.4950064947575
 20
38.98076926474843
 30
0.0
 10
150.5716243488208
 20
39.52113484127162
 30
0.0
  0
LINE
  5
359
330
1F
100
AcDbEntity
  8
0
  6
Continuous
 62
     7
370
    15
100
AcDbLine
 10
155.0327563387767
 20
39.52113437561033
 30
0.0
 11
150.5716243488208
 21
39.52113437561033
 31
0.0
  0
SPLINE
  5
35A
330
1F
100
AcDbEntity
  8
0
  6
Continuous
 62
     7
370
    15
100
AcDbSpline
210
0.0
220
0.0
230
1.0
 70
     8
 71
     3
 72
     9
 73
     5
 74
     0
 42
0.0000000001
 43
0.0000000001
 40
0.0
 40
0.0
 40
0.0
 40
0.0
 40
0.4987944154917543
 40
1.0
 40
1.0
 40
1.0
 40
1.0
 10
155.3021916849033
 20
36.27497904097376
 30
0.0
 10
155.2888963174952
 20
36.81665910064028
 30
0.0
 10
155.262241312958
 20
37.90263769791968
 30
0.0
 10
155.1093741929916
 20
38.98076896414516
 30
0.0
 10
155.0327563387767
 20
39.52113437561033
 30
0.0
  0
LINE
  5
35B
330
1F
100
AcDbEntity
  8
0
  6
Continuous
 62
     7
370
    15
100
AcDbLine
 10
155.3021916849033
 20
36.27497904097376
 30
0.0
 11
155.3021916849033
 21
36.26729167161224
 31
0.0
  0
SPLINE
  5
35C
330
1F
100
AcDbEntity
  8
0
  6
Continuous
 62
     7
370
    15
100
AcDbSpline
210
0.0
220
0.0
230
1.0
 70
     8
 71
     3
 72
     9
 73
     5
 74
     0
 42
0.0000000001
 43
0.0000000001
 40
0.0
 40
0.0
 40
0.0
 40
0.0
 40
0.4989660570529061
 40
1.0
 40
1.0
 40
1.0
 40
1.0
 10
155.0327563387767
 20
33.02113458883214
 30
0.0
 10
155.1090676012428
 20
33.55907915180055
 30
0.0
 10
155.2620063861307
 20
34.63719770388346
 30
0.0
 10
155.2887781316741
 20
35.72317845427761
 30
0.0
 10
155.3021916849033
 20
36.26729167161224
 30
0.0
  0
SPLINE
  5
35D
330
1F
100
AcDbEntity
  8
0
  6
Continuous
 62
     7
370
    15
100
AcDbSpline
210
0.0
220
0.0
230
1.0
 70
     8
 71
     3
 72
     9
 73
     5
 74
     0
 42
0.0000000001
 43
0.0000000001
 40
0.0
 40
0.0
 40
0.0
 40
0.0
 40
0.4987908280679544
 40
0.9999999999999998
 40
0.9999999999999998
 40
0.9999999999999998
 40
0.9999999999999998
 10
155.3021916849033
 20
29.7711360370898
 30
0.0
 10
155.2889815508494
 20
30.31345429952048
 30
0.0
 10
155.2624972345577
 20
31.40072020721836
 30
0.0
 10
155.1094600029204
 20
32.4801263365643
 30
0.0
 10
155.0327563387767
 20
33.02113458883214
 30
0.0
  0
LINE
  5
35E
330
1F
100
AcDbEntity
  8
0
  6
Continuous
 62
     7
370
    15
100
AcDbLine
 10
155.3021916849033
 20
36.26729167161224
 30
0.0
 11
155.3021916849033
 21
29.7711360370898
 31
0.0
  0
SPLINE
  5
35F
330
1F
100
AcDbEntity
  8
0
  6
Continuous
 62
     7
370
    15
100
AcDbSpline
210
0.0
220
0.0
230
1.0
 70
     8
 71
     3
 72
     9
 73
     5
 74
     0
 42
0.0000000001
 43
0.0000000001
 40
0.0
 40
0.0
 40
0.0
 40
0.0
 40
0.4987908109196394
 40
1.0
 40
1.0
 40
1.0
 40
1.0
 10
150.3021890026943
 20
29.7711360370898
 30
0.0
 10
150.3153991382344
 20
30.31345425752869
 30
0.0
 10
150.3418834584163
 20
31.40072011841934
 30
0.0
 10
150.494920684724
 20
32.48012623884348
 30
0.0
 10
150.5716243488208
 20
33.02113450514964
 30
0.0
  0
LINE
  5
360
330
1F
100
AcDbEntity
  8
0
  6
Continuous
 62
     7
370
    15
100
AcDbLine
 10
150.3021890026943
 20
29.7711360370898
 30
0.0
 11
150.3021890026943
 21
36.26729167161224
 31
0.0
  0
SPLINE
  5
361
330
1F
100
AcDbEntity
  8
0
  6
Continuous
 62
     7
370
    15
100
AcDbSpline
210
0.0
220
0.0
230
1.0
 70
     8
 71
     3
 72
     9
 73
     5
 74
     0
 42
0.0000000001
 43
0.0000000001
 40
0.0
 40
0.0
 40
0.0
 40
0.0
 40
0.4989644800371832
 40
1.0
 40
1.0
 40
1.0
 40
1.0
 10
155.0327563387767
 20
26.52113457305071
 30
0.0
 10
155.109119687923
 20
27.05946020891856
 30
0.0
 10
155.2621633457413
 20
28.1383458959874
 30
0.0
 10
155.2888304956053
 20
29.22510122362828
 30
0.0
 10
155.3021916849033
 20
29.7696042442852
 30
0.0
  0
LINE
  5
362
330
1F
100
AcDbEntity
  8
0
  6
Continuous
 62
     7
370
    15
100
AcDbLine
 10
150.5716243488208
 20
26.52113457305071
 30
0.0
 11
155.0327563387767
 21
26.52113457305071
 31
0.0
  0
SPLINE
  5
363
330
1F
100
AcDbEntity
  8
0
  6
Continuous
 62
     7
370
    15
100
AcDbSpline
210
0.0
220
0.0
230
1.0
 70
     8
 71
     3
 72
     9
 73
     5
 74
     0
 42
0.0000000001
 43
0.0000000001
 40
0.0
 40
0.0
 40
0.0
 40
0.0
 40
0.4989632325497576
 40
1.0
 40
1.0
 40
1.0
 40
1.0
 10
150.5716317994014
 20
26.52113457305071
 30
0.0
 10
150.4952355824697
 20
27.05971255264397
 30
0.0
 10
150.342125669859
 20
28.13910667321088
 30
0.0
 10
150.3155196146106
 20
29.22637475302693
 30
0.0
 10
150.3021890026943
 20
29.7711360370898
 30
0.0
  0
SPLINE
  5
364
330
1F
100
AcDbEntity
  8
0
  6
Continuous
 62
     7
370
    15
100
AcDbSpline
210
0.0
220
0.0
230
1.0
 70
    24
 71
     3
 72
     9
 73
     5
 74
     0
 42
0.0000000001
 43
0.0000000001
 40
0.0
 40
0.0
 40
0.0
 40
0.0
 40
0.4989660535872205
 40
1.0
 40
1.0
 40
1.0
 40
1.0
 10
155.0327563387767
 20
39.52113437561033
 30
0.0
 10
155.1090676012526
 20
39.52113437561033
 30
0.0
 10
155.2620063872225
 20
39.52113437561033
 30
0.0
 10
155.2887781319767
 20
39.52113437561033
 30
0.0
 10
155.3021916849033
 20
39.52113437561033
 30
0.0
  0
LINE
  5
365
330
1F
100
AcDbEntity
  8
0
  6
Continuous
 62
     7
370
    15
100
AcDbLine
 10
155.3021916849033
 20
39.52113437561033
 30
0.0
 11
155.3021916849033
 21
36.27497904097376
 31
0.0
  0
SPLINE
  5
366
330
1F
100
AcDbEntity
  8
0
  6
Continuous
 62
     7
370
    15
100
AcDbSpline
210
0.0
220
0.0
230
1.0
 70
    24
 71
     3
 72
     9
 73
     5
 74
     0
 42
0.0000000001
 43
0.0000000001
 40
0.0
 40
0.0
 40
0.0
 40
0.0
 40
0.4989660535872205
 40
1.0
 40
1.0
 40
1.0
 40
1.0
 10
150.5716243488208
 20
39.52113437561033
 30
0.0
 10
150.4953130863449
 20
39.52113437561033
 30
0.0
 10
150.342374300375
 20
39.52113437561033
 30
0.0
 10
150.3156025556208
 20
39.52113437561033
 30
0.0
 10
150.3021890026943
 20
39.52113437561033
 30
0.0
  0
LINE
  5
367
330
1F
100
AcDbEntity
  8
0
  6
Continuous
 62
     7
370
    15
100
AcDbLine
 10
150.3021890026943
 20
36.27497904097376
 30
0.0
 11
150.3021890026943
 21
39.52113437561033
 31
0.0
  0
SPLINE
  5
368
330
1F
100
AcDbEntity
  8
0
  6
Continuous
 62
     7
370
    15
100
AcDbSpline
210
0.0
220
0.0
230
1.0
 70
    24
 71
     3
 72
     9
 73
     5
 74
     0
 42
0.0000000001
 43
0.0000000001
 40
0.0
 40
0.0
 40
0.0
 40
0.0
 40
0.4987932948986688
 40
0.9999999999999998
 40
0.9999999999999998
 40
0.9999999999999998
 40
0.9999999999999998
 10
155.3021916849033
 20
26.52113457305071
 30
0.0
 10
155.2889371329196
 20
26.52113457305071
 30
0.0
 10
155.2623638968332
 20
26.52113457305071
 30
0.0
 10
155.1094152340833
 20
26.52113457305071
 30
0.0
 10
155.0327563387767
 20
26.52113457305071
 30
0.0
  0
LINE
  5
369
330
1F
100
AcDbEntity
  8
0
  6
Continuous
 62
     7
370
    15
100
AcDbLine
 10
155.3021916849033
 20
29.7711360370898
 30
0.0
 11
155.3021916849033
 21
26.52113457305071
 31
0.0
  0
SPLINE
  5
36A
330
1F
100
AcDbEntity
  8
0
  6
Continuous
 62
     7
370
    15
100
AcDbSpline
210
0.0
220
0.0
230
1.0
 70
    24
 71
     3
 72
     9
 73
     5
 74
     0
 42
0.0000000001
 43
0.0000000001
 40
0.0
 40
0.0
 40
0.0
 40
0.0
 40
0.4987932948986688
 40
0.9999999999999998
 40
0.9999999999999998
 40
0.9999999999999998
 40
0.9999999999999998
 10
150.3021890026943
 20
26.52113457305071
 30
0.0
 10
150.3154435546779
 20
26.52113457305071
 30
0.0
 10
150.3420167907644
 20
26.52113457305071
 30
0.0
 10
150.4949654535143
 20
26.52113457305071
 30
0.0
 10
150.5716243488208
 20
26.52113457305071
 30
0.0
  0
LINE
  5
36B
330
1F
100
AcDbEntity
  8
0
  6
Continuous
 62
     7
370
    15
100
AcDbLine
 10
150.3021890026943
 20
26.52113457305071
 30
0.0
 11
150.3021890026943
 21
29.7711360370898
 31
0.0
  0
LINE
  5
36C
330
1F
100
AcDbEntity
  8
0
  6
Continuous
 62
     7
370
    15
100
AcDbLine
 10
260.2810734612361
 20
17.52113635746476
 30
0.0
 11
252.281072149934
 21
17.52113635746476
 31
0.0
  0
LINE
  5
36D
330
1F
100
AcDbEntity
  8
0
  6
Continuous
 62
     7
370
    15
100
AcDbLine
 10
258.7810741466896
 20
26.87113630680082
 30
0.0
 11
253.7810714644805
 21
26.87113630680082
 31
0.0
  0
LINE
  5
36E
330
1F
100
AcDbEntity
  8
0
  6
Continuous
 62
     7
370
    15
100
AcDbLine
 10
252.281072149934
 20
48.52113585082529
 30
0.0
 11
260.2810734612361
 21
48.52113585082529
 31
0.0
  0
LINE
  5
36F
330
1F
100
AcDbEntity
  8
0
  6
Continuous
 62
     7
370
    15
100
AcDbLine
 10
253.7810714644805
 20
39.17113590148924
 30
0.0
 11
258.7810741466896
 21
39.17113590148924
 31
0.0
  0
LINE
  5
370
330
1F
100
AcDbEntity
  8
0
  6
Continuous
 62
     7
370
    15
100
AcDbLine
 10
237.0489170504228
 20
43.521135962584
 30
0.0
 11
232.8021904183046
 21
43.521135962584
 31
0.0
  0
LINE
  5
371
330
1F
100
AcDbEntity
  8
0
  6
Continuous
 62
     7
370
    15
100
AcDbLine
 10
223.4671917473391
 20
48.0211357688689
 30
0.0
 11
223.4671917473391
 21
51.49113657979009
 31
0.0
  0
LINE
  5
372
330
1F
100
AcDbEntity
  8
0
  6
Continuous
 62
     7
370
    15
100
AcDbLine
 10
221.8098063682631
 20
48.0211357688689
 30
0.0
 11
221.8098063682631
 21
51.49113657979009
 31
0.0
  0
LINE
  5
373
330
1F
100
AcDbEntity
  8
0
  6
Continuous
 62
     7
370
    15
100
AcDbLine
 10
223.4671917473391
 20
51.49113657979009
 30
0.0
 11
221.8098063682631
 21
51.49113657979009
 31
0.0
  0
LINE
  5
374
330
1F
100
AcDbEntity
  8
0
  6
Continuous
 62
     7
370
    15
100
AcDbLine
 10
218.6354144438595
 20
48.0211357688689
 30
0.0
 11
218.6354144438595
 21
51.49113657979009
 31
0.0
  0
LINE
  5
375
330
1F
100
AcDbEntity
  8
0
  6
Continuous
 62
     7
370
    15
100
AcDbLine
 10
221.8098063682631
 20
51.49113657979009
 30
0.0
 11
218.6354144438595
 21
51.49113657979009
 31
0.0
  0
LINE
  5
376
330
1F
100
AcDbEntity
  8
0
  6
Continuous
 62
     7
370
    15
100
AcDbLine
 10
218.6354144438595
 20
51.49113657979009
 30
0.0
 11
217.9928005868063
 21
51.49113657979009
 31
0.0
  0
LINE
  5
377
330
1F
100
AcDbEntity
  8
0
  6
Continuous
 62
     7
370
    15
100
AcDbLine
 10
221.8098063682631
 20
14.55113562849996
 30
0.0
 11
221.8098063682631
 21
18.02113643942115
 31
0.0
  0
LINE
  5
378
330
1F
100
AcDbEntity
  8
0
  6
Continuous
 62
     7
370
    15
100
AcDbLine
 10
223.4671917473391
 20
18.02113643942115
 30
0.0
 11
223.4671917473391
 21
14.55113562849996
 31
0.0
  0
LINE
  5
379
330
1F
100
AcDbEntity
  8
0
  6
Continuous
 62
     7
370
    15
100
AcDbLine
 10
221.8098063682631
 20
14.55113562849996
 30
0.0
 11
223.4671917473391
 21
14.55113562849996
 31
0.0
  0
LINE
  5
37A
330
1F
100
AcDbEntity
  8
0
  6
Continuous
 62
     7
370
    15
100
AcDbLine
 10
218.6354144438595
 20
18.02113643942115
 30
0.0
 11
218.6354144438595
 21
14.55113562849996
 31
0.0
  0
LINE
  5
37B
330
1F
100
AcDbEntity
  8
0
  6
Continuous
 62
     7
370
    15
100
AcDbLine
 10
218.6354144438595
 20
14.55113562849996
 30
0.0
 11
221.8098063682631
 21
14.55113562849996
 31
0.0
  0
LINE
  5
37C
330
1F
100
AcDbEntity
  8
0
  6
Continuous
 62
     7
370
    15
100
AcDbLine
 10
217.9928005868063
 20
14.55113562849996
 30
0.0
 11
218.6354144438595
 21
14.55113562849996
 31
0.0
  0
LINE
  5
37D
330
1F
100
AcDbEntity
  8
0
  6
Continuous
 62
     7
370
    15
100
AcDbLine
 10
217.9928005868063
 20
48.0211357688689
 30
0.0
 11
224.5428004031495
 21
48.0211357688689
 31
0.0
  0
LINE
  5
37E
330
1F
100
AcDbEntity
  8
0
  6
Continuous
 62
     7
370
    15
100
AcDbLine
 10
220.2928005796351
 20
18.02113643942115
 30
0.0
 11
217.9928005868063
 21
18.02113643942115
 31
0.0
  0
LINE
  5
37F
330
1F
100
AcDbEntity
  8
0
  6
Continuous
 62
     7
370
    15
100
AcDbLine
 10
224.5428004031495
 20
18.02113643942115
 30
0.0
 11
220.2928005796351
 21
18.02113643942115
 31
0.0
  0
LINE
  5
380
330
1F
100
AcDbEntity
  8
0
  6
Continuous
 62
     7
370
    15
100
AcDbLine
 10
242.5235757333652
 20
17.22113686708447
 30
0.0
 11
242.5489170206205
 21
17.22113686708447
 31
0.0
  0
LINE
  5
381
330
1F
100
AcDbEntity
  8
0
  6
Continuous
 62
     7
370
    15
100
AcDbLine
 10
237.5489180637018
 20
17.22113686708447
 30
0.0
 11
242.5235757333652
 21
17.22113686708447
 31
0.0
  0
LINE
  5
382
330
1F
100
AcDbEntity
  8
0
  6
Continuous
 62
     7
370
    15
100
AcDbLine
 10
242.5489170206205
 20
48.82113534120557
 30
0.0
 11
237.5489180637018
 21
48.82113534120557
 31
0.0
  0
LINE
  5
383
330
1F
100
AcDbEntity
  8
0
  6
Continuous
 62
     7
370
    15
100
AcDbLine
 10
262.274737070264
 20
41.02113648412464
 30
0.0
 11
256.0054199499504
 21
41.02113648412464
 31
0.0
  0
ARC
  5
384
330
1F
100
AcDbEntity
  8
0
  6
Continuous
 62
     7
370
    15
100
AcDbCircle
 10
244.6743228670037
 20
40.02888251303727
 30
0.0
 40
3.992253532149696
100
AcDbArc
 50
90.00103119763036
 51
114.0252802879427
  0
ARC
  5
385
330
1F
100
AcDbEntity
  8
0
  6
Continuous
 62
     7
370
    15
100
AcDbCircle
 10
244.674342383701
 20
40.02271936390562
 30
0.0
 40
0.9984171243997264
100
AcDbArc
 50
90.00524332630821
 51
135.0376361816387
  0
LINE
  5
386
330
1F
100
AcDbEntity
  8
0
  6
Continuous
 62
     7
370
    15
100
AcDbLine
 10
243.4329228205101
 20
40.19270875585911
 30
0.0
 11
243.9678912711755
 21
40.72824298498867
 31
0.0
  0
LWPOLYLINE
  5
387
330
1F
100
AcDbEntity
  8
0
  6
Continuous
 62
     7
370
    15
100
AcDbPolyline
 90
        3
 70
   128
 43
0.0
 10
243.4329228205101
 20
40.19270875585911
 10
243.1423762542621
 20
39.9290941758239
 10
243.0489180338994
 20
39.85462608841894
  0
LINE
  5
388
330
1F
100
AcDbEntity
  8
0
  6
Continuous
 62
     7
370
    15
100
AcDbLine
 10
237.0489170504228
 20
39.02113615629909
 30
0.0
 11
236.026537205042
 21
39.02113615629909
 31
0.0
  0
LINE
  5
389
330
1F
100
AcDbEntity
  8
0
  6
Continuous
 62
     7
370
    15
100
AcDbLine
 10
236.026537205042
 20
42.02113571671484
 30
0.0
 11
237.0489170504228
 21
42.02113571671484
 31
0.0
  0
LINE
  5
38A
330
1F
100
AcDbEntity
  8
0
  6
Continuous
 62
     7
370
    15
100
AcDbLine
 10
244.6742510152475
 20
41.02113648412464
 30
0.0
 11
256.0054199499504
 21
41.02113648412464
 31
0.0
  0
SPLINE
  5
38B
330
1F
100
AcDbEntity
  8
0
  6
Continuous
 62
     7
370
    15
100
AcDbSpline
210
0.0
220
0.0
230
1.0
 70
     8
 71
     3
 72
    10
 73
     6
 74
     0
 42
0.0000000001
 43
0.0000000001
 40
0.0
 40
0.0
 40
0.0
 40
0.0
 40
0.4188288330828169
 40
0.8362844926298999
 40
0.9999999999999998
 40
0.9999999999999998
 40
0.9999999999999998
 40
0.9999999999999998
 10
244.537383849682
 20
40.72824205366609
 30
0.0
 10
244.6287944646875
 20
40.80097424294685
 30
0.0
 10
244.8113159955674
 20
40.94620016152275
 30
0.0
 10
245.0726447067362
 20
41.01404808570813
 30
0.0
 10
245.2193457363967
 20
41.01957855486739
 30
0.0
 10
245.2606713128702
 20
41.02113648412464
 30
0.0
  0
ELLIPSE
  5
38C
330
1F
100
AcDbEntity
  8
0
  6
Continuous
 62
     7
370
    15
100
AcDbEllipse
 10
242.8012190193602
 20
38.77849541702575
 30
0.0
 11
4.998679952390915
 21
4.998679952390942
 31
0.0
210
0.0
220
0.0
230
0.9999999999999996
 40
0.0229832160557123
 41
1.193198739647876
 42
1.307018945126726
  0
SPLINE
  5
38D
330
1F
100
AcDbEntity
  8
0
  6
Continuous
 62
     7
370
    15
100
AcDbSpline
210
0.0
220
0.0
230
1.0
 70
     8
 71
     3
 72
     9
 73
     5
 74
     0
 42
0.0000000001
 43
0.0000000001
 40
0.0
 40
0.0
 40
0.0
 40
0.0
 40
0.5843226623267763
 40
1.0
 40
1.0
 40
1.0
 40
1.0
 10
243.0489180338994
 20
39.54820326624153
 30
0.0
 10
243.2533321825625
 20
39.64782825025441
 30
0.0
 10
243.6031631267349
 20
39.81832477629394
 30
0.0
 10
243.8789644520975
 20
40.08278050331751
 30
0.0
 10
243.993608812751
 20
40.19270875585911
 30
0.0
  0
LINE
  5
38E
330
1F
100
AcDbEntity
  8
0
  6
Continuous
 62
     7
370
    15
100
AcDbLine
 10
236.026537205042
 20
42.02113571671484
 30
0.0
 11
231.2928005782382
 21
42.02113571671484
 31
0.0
  0
LINE
  5
38F
330
1F
100
AcDbEntity
  8
0
  6
Continuous
 62
     7
370
    15
100
AcDbLine
 10
236.026537205042
 20
39.02113615629909
 30
0.0
 11
231.2928005782382
 21
39.02113615629909
 31
0.0
  0
LINE
  5
390
330
1F
100
AcDbEntity
  8
0
  6
Continuous
 62
     7
370
    15
100
AcDbLine
 10
263.7455412847415
 20
33.02113610414503
 30
0.0
 11
263.5617689890281
 21
33.02113610414503
 31
0.0
  0
ARC
  5
391
330
1F
100
AcDbEntity
  8
0
  6
Continuous
 62
     7
370
    15
100
AcDbCircle
 10
267.3161400627489
 20
34.03053456977836
 30
0.0
 40
3.887696930267883
100
AcDbArc
 50
177.6092262640542
 51
195.0486537908488
  0
LINE
  5
392
330
1F
100
AcDbEntity
  8
0
  6
Continuous
 62
     7
370
    15
100
AcDbLine
 10
263.4318271381275
 20
34.19270893653569
 30
0.0
 11
263.1315687400714
 21
40.72824298498867
 31
0.0
  0
ARC
  5
393
330
1F
100
AcDbEntity
  8
0
  6
Continuous
 62
     7
370
    15
100
AcDbCircle
 10
262.160659524563
 20
40.7688085572635
 30
0.0
 40
0.9717562813860601
100
AcDbArc
 50
357.607515691655
 51
15.04999194497332
  0
ARC
  5
394
330
1F
100
AcDbEntity
  8
0
  6
Continuous
 62
     7
370
    15
100
AcDbCircle
 10
259.3447076306686
 20
43.0117245850814
 30
0.0
 40
3.887705619504167
100
AcDbArc
 50
357.6094198420203
 51
15.04881766041371
  0
LINE
  5
395
330
1F
100
AcDbEntity
  8
0
  6
Continuous
 62
     7
370
    15
100
AcDbLine
 10
263.2290297848598
 20
42.84956297931907
 30
0.0
 11
263.5292844576255
 21
36.31402939652739
 31
0.0
  0
ARC
  5
396
330
1F
100
AcDbEntity
  8
0
  6
Continuous
 62
     7
370
    15
100
AcDbCircle
 10
264.5005358036951
 20
36.27350197023227
 30
0.0
 40
0.9720965227404219
100
AcDbArc
 50
177.6106038650645
 51
195.0469137517947
  0
LINE
  5
397
330
1F
100
AcDbEntity
  8
0
  6
Continuous
 62
     7
370
    15
100
AcDbLine
 10
263.7455412847415
 20
36.02113613022206
 30
0.0
 11
263.5617689890281
 21
36.02113613022206
 31
0.0
  0
LINE
  5
398
330
1F
100
AcDbEntity
  8
0
  6
Continuous
 62
     7
370
    15
100
AcDbLine
 10
263.0990842086688
 20
41.02113648412464
 30
0.0
 11
262.274737070264
 21
41.02113648412464
 31
0.0
  0
ARC
  5
399
330
1F
100
AcDbEntity
  8
0
  6
Continuous
 62
     7
370
    15
100
AcDbCircle
 10
247.1763217609763
 20
40.76878891506626
 30
0.0
 40
0.9719324093181754
100
AcDbArc
 50
357.6091084200679
 51
15.04839921655926
  0
LINE
  5
39A
330
1F
100
AcDbEntity
  8
0
  6
Continuous
 62
     7
370
    15
100
AcDbLine
 10
248.147408078374
 20
40.72824298498867
 30
0.0
 11
248.4476646137849
 21
34.19270893653569
 31
0.0
  0
LINE
  5
39B
330
1F
100
AcDbEntity
  8
0
  6
Continuous
 62
     7
370
    15
100
AcDbLine
 10
248.5776101899759
 20
33.02113610414503
 30
0.0
 11
263.5617689890281
 21
33.02113610414503
 31
0.0
  0
ARC
  5
39C
330
1F
100
AcDbEntity
  8
0
  6
Continuous
 62
     7
370
    15
100
AcDbCircle
 10
252.3318449930802
 20
34.03053180634489
 30
0.0
 40
3.887564615599258
100
AcDbArc
 50
177.6091040823702
 51
195.0491359152641
  0
LINE
  5
39D
330
1F
100
AcDbEntity
  8
0
  6
Continuous
 62
     7
370
    15
100
AcDbLine
 10
262.274737070264
 20
25.02113572416541
 30
0.0
 11
256.0054199499504
 21
25.02113572416541
 31
0.0
  0
LINE
  5
39E
330
1F
100
AcDbEntity
  8
0
  6
Continuous
 62
     7
370
    15
100
AcDbLine
 10
236.026537205042
 20
24.02113649157521
 30
0.0
 11
237.0489170504228
 21
24.02113649157521
 31
0.0
  0
LINE
  5
39F
330
1F
100
AcDbEntity
  8
0
  6
Continuous
 62
     7
370
    15
100
AcDbLine
 10
237.0489170504228
 20
27.02113605199096
 30
0.0
 11
236.026537205042
 21
27.02113605199096
 31
0.0
  0
LWPOLYLINE
  5
3A0
330
1F
100
AcDbEntity
  8
0
  6
Continuous
 62
     7
370
    15
100
AcDbPolyline
 90
        3
 70
   128
 43
0.0
 10
243.4329228205101
 20
25.84956345243094
 10
243.1423762542621
 20
26.11317803246615
 10
243.0489180338994
 20
26.18764611987111
  0
LINE
  5
3A1
330
1F
100
AcDbEntity
  8
0
  6
Continuous
 62
     7
370
    15
100
AcDbLine
 10
243.4329228205101
 20
25.84956345243094
 30
0.0
 11
243.9678912711755
 21
25.31402922330138
 31
0.0
  0
ARC
  5
3A2
330
1F
100
AcDbEntity
  8
0
  6
Continuous
 62
     7
370
    15
100
AcDbCircle
 10
244.674342383701
 20
26.01955284438443
 30
0.0
 40
0.9984171243997314
100
AcDbArc
 50
224.9623638183623
 51
269.9947566736926
  0
ARC
  5
3A3
330
1F
100
AcDbEntity
  8
0
  6
Continuous
 62
     7
370
    15
100
AcDbCircle
 10
244.6743228670037
 20
26.01338969525277
 30
0.0
 40
3.992253532149696
100
AcDbArc
 50
245.974719712058
 51
269.9989688023705
  0
LINE
  5
3A4
330
1F
100
AcDbEntity
  8
0
  6
Continuous
 62
     7
370
    15
100
AcDbLine
 10
244.6742510152475
 20
25.02113572416541
 30
0.0
 11
256.0054199499504
 21
25.02113572416541
 31
0.0
  0
SPLINE
  5
3A5
330
1F
100
AcDbEntity
  8
0
  6
Continuous
 62
     7
370
    15
100
AcDbSpline
210
0.0
220
0.0
230
1.0
 70
     8
 71
     3
 72
    10
 73
     6
 74
     0
 42
0.0000000001
 43
0.0000000001
 40
0.0
 40
0.0
 40
0.0
 40
0.0
 40
0.4188288330828169
 40
0.8362844926298999
 40
0.9999999999999998
 40
0.9999999999999998
 40
0.9999999999999998
 40
0.9999999999999998
 10
244.537383849682
 20
25.31403015462396
 30
0.0
 10
244.6287944646875
 20
25.24129796534319
 30
0.0
 10
244.8113159955674
 20
25.09607204676729
 30
0.0
 10
245.0726447067362
 20
25.02822412258192
 30
0.0
 10
245.2193457363967
 20
25.02269365342265
 30
0.0
 10
245.2606713128702
 20
25.02113572416541
 30
0.0
  0
ELLIPSE
  5
3A6
330
1F
100
AcDbEntity
  8
0
  6
Continuous
 62
     7
370
    15
100
AcDbEllipse
 10
242.8012190193602
 20
27.26377679126434
 30
0.0
 11
-4.998679952391085
 21
4.998679952391099
 31
0.0
210
0.0
220
0.0
230
0.9999999999999998
 40
0.0229832160557144
 41
1.834573708463088
 42
1.94839391394195
  0
SPLINE
  5
3A7
330
1F
100
AcDbEntity
  8
0
  6
Continuous
 62
     7
370
    15
100
AcDbSpline
210
0.0
220
0.0
230
1.0
 70
     8
 71
     3
 72
     9
 73
     5
 74
     0
 42
0.0000000001
 43
0.0000000001
 40
0.0
 40
0.0
 40
0.0
 40
0.0
 40
0.5843226623267763
 40
1.0
 40
1.0
 40
1.0
 40
1.0
 10
243.0489180338994
 20
26.49406894204852
 30
0.0
 10
243.2533321825625
 20
26.39444395803563
 30
0.0
 10
243.6031631267349
 20
26.2239474319961
 30
0.0
 10
243.8789644520975
 20
25.95949170497253
 30
0.0
 10
243.993608812751
 20
25.84956345243094
 30
0.0
  0
LINE
  5
3A8
330
1F
100
AcDbEntity
  8
0
  6
Continuous
 62
     7
370
    15
100
AcDbLine
 10
236.026537205042
 20
27.02113605199096
 30
0.0
 11
231.2928005782382
 21
27.02113605199096
 31
0.0
  0
LINE
  5
3A9
330
1F
100
AcDbEntity
  8
0
  6
Continuous
 62
     7
370
    15
100
AcDbLine
 10
236.026537205042
 20
24.02113649157521
 30
0.0
 11
231.2928005782382
 21
24.02113649157521
 31
0.0
  0
LINE
  5
3AA
330
1F
100
AcDbEntity
  8
0
  6
Continuous
 62
     7
370
    15
100
AcDbLine
 10
263.7455412847415
 20
30.02113607806799
 30
0.0
 11
263.5617689890281
 21
30.02113607806799
 31
0.0
  0
ARC
  5
3AB
330
1F
100
AcDbEntity
  8
0
  6
Continuous
 62
     7
370
    15
100
AcDbCircle
 10
264.5005358036951
 20
29.76877023805778
 30
0.0
 40
0.9720965227404219
100
AcDbArc
 50
164.9530862482063
 51
182.3893961349364
  0
LINE
  5
3AC
330
1F
100
AcDbEntity
  8
0
  6
Continuous
 62
     7
370
    15
100
AcDbLine
 10
263.2290297848598
 20
23.19270922897098
 30
0.0
 11
263.5292844576255
 21
29.72824281176266
 31
0.0
  0
ARC
  5
3AD
330
1F
100
AcDbEntity
  8
0
  6
Continuous
 62
     7
370
    15
100
AcDbCircle
 10
259.3447076306686
 20
23.03054762320866
 30
0.0
 40
3.887705619504169
100
AcDbArc
 50
344.9511823395869
 51
2.390580157980334
  0
ARC
  5
3AE
330
1F
100
AcDbEntity
  8
0
  6
Continuous
 62
     7
370
    15
100
AcDbCircle
 10
262.160659524563
 20
25.27346365102654
 30
0.0
 40
0.9717562813860592
100
AcDbArc
 50
344.9500080550277
 51
2.392484308346018
  0
LINE
  5
3AF
330
1F
100
AcDbEntity
  8
0
  6
Continuous
 62
     7
370
    15
100
AcDbLine
 10
263.4318271381275
 20
31.84956327175436
 30
0.0
 11
263.1315687400714
 21
25.31402922330138
 31
0.0
  0
ARC
  5
3B0
330
1F
100
AcDbEntity
  8
0
  6
Continuous
 62
     7
370
    15
100
AcDbCircle
 10
267.3161400627495
 20
32.01173763851164
 30
0.0
 40
3.887696930268505
100
AcDbArc
 50
164.9513462091533
 51
182.3907737359455
  0
LINE
  5
3B1
330
1F
100
AcDbEntity
  8
0
  6
Continuous
 62
     7
370
    15
100
AcDbLine
 10
263.0990842086688
 20
25.02113572416541
 30
0.0
 11
262.274737070264
 21
25.02113572416541
 31
0.0
  0
ARC
  5
3B2
330
1F
100
AcDbEntity
  8
0
  6
Continuous
 62
     7
370
    15
100
AcDbCircle
 10
247.1763217609763
 20
25.2734832932238
 30
0.0
 40
0.9719324093181768
100
AcDbArc
 50
344.9516007834411
 51
2.390891579932487
  0
LINE
  5
3B3
330
1F
100
AcDbEntity
  8
0
  6
Continuous
 62
     7
370
    15
100
AcDbLine
 10
248.147408078374
 20
25.31402922330138
 30
0.0
 11
248.4476646137849
 21
31.84956327175436
 31
0.0
  0
ARC
  5
3B4
330
1F
100
AcDbEntity
  8
0
  6
Continuous
 62
     7
370
    15
100
AcDbCircle
 10
252.331844993081
 20
32.01174040194512
 30
0.0
 40
3.887564615600022
100
AcDbArc
 50
164.9508640847383
 51
182.3908959176294
  0
LINE
  5
3B5
330
1F
100
AcDbEntity
  8
0
  6
Continuous
 62
     7
370
    15
100
AcDbLine
 10
243.4109901738779
 20
22.02113616374967
 30
0.0
 11
236.9363648546354
 21
22.02113616374967
 31
0.0
  0
LINE
  5
3B6
330
1F
100
AcDbEntity
  8
0
  6
Continuous
 62
     7
370
    15
100
AcDbLine
 10
243.4109901738779
 20
19.02113567201135
 30
0.0
 11
236.9363648546354
 21
19.02113567201135
 31
0.0
  0
LINE
  5
3B7
330
1F
100
AcDbEntity
  8
0
  6
Continuous
 62
     7
370
    15
100
AcDbLine
 10
259.6431472999469
 20
22.02113616374967
 30
0.0
 11
243.4109901738779
 21
22.02113616374967
 31
0.0
  0
LINE
  5
3B8
330
1F
100
AcDbEntity
  8
0
  6
Continuous
 62
     7
370
    15
100
AcDbLine
 10
259.6431472999469
 20
19.02113567201135
 30
0.0
 11
243.4109901738779
 21
19.02113567201135
 31
0.0
  0
LINE
  5
3B9
330
1F
100
AcDbEntity
  8
0
  6
Continuous
 62
     7
370
    15
100
AcDbLine
 10
236.9363648546354
 20
22.02113616374967
 30
0.0
 11
231.2928005782382
 21
22.02113616374967
 31
0.0
  0
LINE
  5
3BA
330
1F
100
AcDbEntity
  8
0
  6
Continuous
 62
     7
370
    15
100
AcDbLine
 10
236.9363648546354
 20
19.02113567201135
 30
0.0
 11
231.2928005782382
 21
19.02113567201135
 31
0.0
  0
LINE
  5
3BB
330
1F
100
AcDbEntity
  8
0
  6
Continuous
 62
     7
370
    15
100
AcDbLine
 10
224.4376377863304
 20
19.02113567201135
 30
0.0
 11
218.1479634679348
 21
19.02113567201135
 31
0.0
  0
LINE
  5
3BC
330
1F
100
AcDbEntity
  8
0
  6
Continuous
 62
     7
370
    15
100
AcDbLine
 10
263.2810720903293
 20
22.02113616374967
 30
0.0
 11
259.6431472999469
 21
22.02113616374967
 31
0.0
  0
LINE
  5
3BD
330
1F
100
AcDbEntity
  8
0
  6
Continuous
 62
     7
370
    15
100
AcDbLine
 10
263.2810720903293
 20
19.02113567201135
 30
0.0
 11
259.6431472999469
 21
19.02113567201135
 31
0.0
  0
LINE
  5
3BE
330
1F
100
AcDbEntity
  8
0
  6
Continuous
 62
     7
370
    15
100
AcDbLine
 10
243.4109901738779
 20
47.0211365362787
 30
0.0
 11
236.9363648546354
 21
47.0211365362787
 31
0.0
  0
LINE
  5
3BF
330
1F
100
AcDbEntity
  8
0
  6
Continuous
 62
     7
370
    15
100
AcDbLine
 10
243.4109901738779
 20
44.02113604454038
 30
0.0
 11
236.9363648546354
 21
44.02113604454038
 31
0.0
  0
LINE
  5
3C0
330
1F
100
AcDbEntity
  8
0
  6
Continuous
 62
     7
370
    15
100
AcDbLine
 10
259.6431472999469
 20
47.0211365362787
 30
0.0
 11
243.4109901738779
 21
47.0211365362787
 31
0.0
  0
LINE
  5
3C1
330
1F
100
AcDbEntity
  8
0
  6
Continuous
 62
     7
370
    15
100
AcDbLine
 10
259.6431472999469
 20
44.02113604454038
 30
0.0
 11
243.4109901738779
 21
44.02113604454038
 31
0.0
  0
LINE
  5
3C2
330
1F
100
AcDbEntity
  8
0
  6
Continuous
 62
     7
370
    15
100
AcDbLine
 10
236.9363648546354
 20
47.0211365362787
 30
0.0
 11
231.2928005782382
 21
47.0211365362787
 31
0.0
  0
LINE
  5
3C3
330
1F
100
AcDbEntity
  8
0
  6
Continuous
 62
     7
370
    15
100
AcDbLine
 10
224.4376377863304
 20
47.0211365362787
 30
0.0
 11
218.1479634679348
 21
47.0211365362787
 31
0.0
  0
LINE
  5
3C4
330
1F
100
AcDbEntity
  8
0
  6
Continuous
 62
     7
370
    15
100
AcDbLine
 10
236.9363648546354
 20
44.02113604454038
 30
0.0
 11
231.2928005782382
 21
44.02113604454038
 31
0.0
  0
LINE
  5
3C5
330
1F
100
AcDbEntity
  8
0
  6
Continuous
 62
     7
370
    15
100
AcDbLine
 10
263.2810720903293
 20
47.0211365362787
 30
0.0
 11
259.6431472999469
 21
47.0211365362787
 31
0.0
  0
LINE
  5
3C6
330
1F
100
AcDbEntity
  8
0
  6
Continuous
 62
     7
370
    15
100
AcDbLine
 10
263.2810720903293
 20
44.02113604454038
 30
0.0
 11
259.6431472999469
 21
44.02113604454038
 31
0.0
  0
LINE
  5
3C7
330
1F
100
AcDbEntity
  8
0
  6
Continuous
 62
     7
370
    15
100
AcDbLine
 10
155.8021926981822
 20
39.02113615629909
 30
0.0
 11
155.8021926981822
 21
27.02113605199096
 31
0.0
  0
SPLINE
  5
3C8
330
1F
100
AcDbEntity
  8
0
  6
Continuous
 62
     7
370
    15
100
AcDbSpline
210
0.0
220
0.0
230
1.0
 70
     8
 71
     3
 72
    13
 73
     9
 74
     0
 42
0.0000000001
 43
0.0000000001
 40
0.0
 40
0.0
 40
0.0
 40
0.0
 40
0.1699885174900069
 40
0.339680337816787
 40
0.5171779527064747
 40
0.7032740586780961
 40
0.8391410099297051
 40
1.0
 40
1.0
 40
1.0
 40
1.0
 10
233.8021905822174
 20
27.02113605199096
 30
0.0
 10
233.8275417093514
 20
27.03193329509228
 30
0.0
 10
233.8781997158807
 20
27.05350893583734
 30
0.0
 10
234.2703595413142
 20
27.20644254525115
 30
0.0
 10
234.8634056847361
 20
27.39389293607835
 30
0.0
 10
235.5799759781995
 20
27.53485868427699
 30
0.0
 10
236.3445037486777
 20
27.58586126573008
 30
0.0
 10
236.8012882398192
 20
27.53878848446553
 30
0.0
 10
237.0489170504228
 20
27.51326971782086
 30
0.0
  0
SPLINE
  5
3C9
330
1F
100
AcDbEntity
  8
0
  6
Continuous
 62
     7
370
    15
100
AcDbSpline
210
0.0
220
0.0
230
1.0
 70
     8
 71
     3
 72
    14
 73
    10
 74
     0
 42
0.0000000001
 43
0.0000000001
 40
0.0
 40
0.0
 40
0.0
 40
0.0
 40
0.0266023947857405
 40
0.1622455564658232
 40
0.3312319144855344
 40
0.4998425238479566
 40
0.677963236050081
 40
0.8636702942757107
 40
1.0
 40
1.0
 40
1.0
 40
1.0
 10
237.0489170504228
 20
38.53301928473351
 30
0.0
 10
237.0117361658536
 20
38.52577154513907
 30
0.0
 10
236.7849733741802
 20
38.48156824866561
 30
0.0
 10
236.2433828633356
 20
38.46400083781822
 30
0.0
 10
235.5031988596627
 20
38.51508249820883
 30
0.0
 10
234.7808933945023
 20
38.67241903062479
 30
0.0
 10
234.2055819755828
 20
38.85860308462898
 30
0.0
 10
233.8576316432318
 20
38.99777953721395
 30
0.0
 10
233.8186801468631
 20
39.01418931088769
 30
0.0
 10
233.8021905822174
 20
39.02113615629909
 30
0.0
  0
LINE
  5
3CA
330
1F
100
AcDbEntity
  8
0
  6
Continuous
 62
     7
370
    15
100
AcDbLine
 10
243.3021912080661
 20
27.52113613394735
 30
0.0
 11
243.3021912080661
 21
38.52113607434271
 31
0.0
  0
LINE
  5
3CB
330
1F
100
AcDbEntity
  8
0
  6
Continuous
 62
     7
370
    15
100
AcDbLine
 10
197.7928006750957
 20
42.97113596556423
 30
0.0
 11
197.7928006750957
 21
23.07113624272582
 31
0.0
  0
LINE
  5
3CC
330
1F
100
AcDbEntity
  8
0
  6
Continuous
 62
     7
370
    15
100
AcDbLine
 10
196.2928013605491
 20
41.47113571969507
 30
0.0
 11
196.2928013605491
 21
24.57113648859498
 31
0.0
  0
LINE
  5
3CD
330
1F
100
AcDbEntity
  8
0
  6
Continuous
 62
     7
370
    15
100
AcDbLine
 10
215.2928007496015
 20
4.521136089243864
 30
0.0
 11
208.2928005335347
 21
4.521136089243864
 31
0.0
  0
LINE
  5
3CE
330
1F
100
AcDbEntity
  8
0
  6
Continuous
 62
     7
370
    15
100
AcDbLine
 10
208.2928005335347
 20
4.521136089243864
 30
0.0
 11
208.2928005335347
 21
61.52113611904619
 31
0.0
  0
LINE
  5
3CF
330
1F
100
AcDbEntity
  8
0
  6
Continuous
 62
     7
370
    15
100
AcDbLine
 10
208.2928005335347
 20
61.52113611904619
 30
0.0
 11
215.2928007496015
 21
61.52113611904619
 31
0.0
  0
LINE
  5
3D0
330
1F
100
AcDbEntity
  8
0
  6
Continuous
 62
     7
370
    15
100
AcDbLine
 10
224.5928007838742
 20
12.02113638726708
 30
0.0
 11
224.5928007838742
 21
18.02113643942115
 31
0.0
  0
ARC
  5
3D1
330
1F
100
AcDbEntity
  8
0
  6
Continuous
 62
     7
370
    15
100
AcDbCircle
 10
221.2928005558864
 20
18.02113610414502
 30
0.0
 40
3.300000000000011
100
AcDbArc
 50
0.0
 51
180.0000000000009
  0
LINE
  5
3D2
330
1F
100
AcDbEntity
  8
0
  6
Continuous
 62
     7
370
    15
100
AcDbLine
 10
217.9928005868063
 20
18.02113643942115
 30
0.0
 11
217.9928005868063
 21
12.02113638726708
 31
0.0
  0
ARC
  5
3D3
330
1F
100
AcDbEntity
  8
0
  6
Continuous
 62
     7
370
    15
100
AcDbCircle
 10
221.2928005558864
 20
12.02113610414502
 30
0.0
 40
3.300000000000011
100
AcDbArc
 50
180.0
 51
0.0
  0
ARC
  5
3D4
330
1F
100
AcDbEntity
  8
0
  6
Continuous
 62
     7
370
    15
100
AcDbCircle
 10
221.2928005558864
 20
48.02113610414502
 30
0.0
 40
3.300000000000011
100
AcDbArc
 50
180.0
 51
0.0
  0
LINE
  5
3D5
330
1F
100
AcDbEntity
  8
0
  6
Continuous
 62
     7
370
    15
100
AcDbLine
 10
224.5928007838742
 20
54.02113582102296
 30
0.0
 11
224.5928007838742
 21
48.0211357688689
 31
0.0
  0
ARC
  5
3D6
330
1F
100
AcDbEntity
  8
0
  6
Continuous
 62
     7
370
    15
100
AcDbCircle
 10
221.2928005558864
 20
54.02113610414502
 30
0.0
 40
3.300000000000011
100
AcDbArc
 50
0.0
 51
180.0
  0
LINE
  5
3D7
330
1F
100
AcDbEntity
  8
0
  6
Continuous
 62
     7
370
    15
100
AcDbLine
 10
217.9928005868063
 20
48.0211357688689
 30
0.0
 11
217.9928005868063
 21
54.02113582102296
 31
0.0
  0
LINE
  5
3D8
330
1F
100
AcDbEntity
  8
0
  6
Continuous
 62
     7
370
    15
100
AcDbLine
 10
215.2928007496015
 20
61.52113611904619
 30
0.0
 11
226.2928006899969
 21
61.52113611904619
 31
0.0
  0
ARC
  5
3D9
330
1F
100
AcDbEntity
  8
0
  6
Continuous
 62
     7
370
    15
100
AcDbCircle
 10
226.2928005558864
 20
56.52113610414502
 30
0.0
 40
5.0
100
AcDbArc
 50
0.0
 51
90.0
  0
LINE
  5
3DA
330
1F
100
AcDbEntity
  8
0
  6
Continuous
 62
     7
370
    15
100
AcDbLine
 10
231.2928005782382
 20
56.52113529948232
 30
0.0
 11
231.2928005782382
 21
9.521136908807729
 31
0.0
  0
ARC
  5
3DB
330
1F
100
AcDbEntity
  8
0
  6
Continuous
 62
     7
370
    15
100
AcDbCircle
 10
226.2928005558864
 20
9.521136104145021
 30
0.0
 40
5.0
100
AcDbArc
 50
270.0000000000008
 51
0.0000000000001628
  0
LINE
  5
3DC
330
1F
100
AcDbEntity
  8
0
  6
Continuous
 62
     7
370
    15
100
AcDbLine
 10
215.2928007496015
 20
4.521136089243864
 30
0.0
 11
226.2928006899969
 21
4.521136089243864
 31
0.0
  0
ENDSEC
  0
SECTION
  2
OBJECTS
  0
DICTIONARY
  5
C
330
0
100
AcDbDictionary
281
     1
  3
ACAD_GROUP
350
D
  3
ACAD_LAYOUT
350
1A
  3
ACAD_MLINESTYLE
350
17
  3
ACAD_PLOTSETTINGS
350
19
  3
ACAD_PLOTSTYLENAME
350
E
  3
ACAD_SCALELIST
350
47
  3
AcDbVariableDictionary
350
3ED
  3
AcmDictionary
350
4A0
  3
AMG
350
3E1
  3
DWGPROPS
350
4A3
  3
MAPISURF_MODULE
350
46F
  0
DICTIONARY
  5
4DB
330
1F
100
AcDbDictionary
280
     1
281
     1
  3
ACAD_INDEX
360
4DC
  0
DICTIONARY
  5
D
102
{ACAD_REACTORS
330
C
102
}
330
C
100
AcDbDictionary
281
     1
  0
DICTIONARY
  5
1A
102
{ACAD_REACTORS
330
C
102
}
330
C
100
AcDbDictionary
281
     1
  3
Layout1
350
1E
  3
Layout2
350
26
  3
Model
350
22
  0
DICTIONARY
  5
17
102
{ACAD_REACTORS
330
C
102
}
330
C
100
AcDbDictionary
281
     1
  3
Standard
350
18
  0
DICTIONARY
  5
19
102
{ACAD_REACTORS
330
C
102
}
330
C
100
AcDbDictionary
281
     1
  0
ACDBDICTIONARYWDFLT
  5
E
102
{ACAD_REACTORS
330
C
102
}
330
C
100
AcDbDictionary
281
     1
  3
Normal
350
F
100
AcDbDictionaryWithDefault
340
F
  0
DICTIONARY
  5
47
102
{ACAD_REACTORS
330
C
102
}
330
C
100
AcDbDictionary
281
     1
  3
A0
350
48
  3
A1
350
49
  3
A2
350
4A
  3
A3
350
4B
  3
A4
350
4C
  3
A5
350
4D
  3
A6
350
4E
  3
A7
350
4F
  3
A8
350
50
  3
A9
350
51
  3
B0
350
52
  3
B1
350
53
  3
B2
350
54
  3
B3
350
55
  3
B4
350
56
  3
B5
350
57
  3
B6
350
58
  3
B7
350
59
  3
B8
350
5A
  3
B9
350
5B
  3
C0
350
5C
  3
C1
350
5D
  3
C2
350
5E
  3
C3
350
5F
  3
C4
350
60
  3
C5
350
61
  3
C6
350
62
  3
C7
350
63
  3
C8
350
64
  3
C9
350
65
  3
D0
350
66
  3
D1
350
67
  3
D2
350
68
  0
DICTIONARY
  5
3ED
102
{ACAD_REACTORS
330
C
102
}
330
C
100
AcDbDictionary
281
     1
  3
INDEXCTL
350
3EE
  0
DICTIONARY
  5
4A0
102
{ACAD_REACTORS
330
C
102
}
330
C
100
AcDbDictionary
281
     1
  3
AcmBOMDATA
350
4A1
  3
AcmStdDictionary
350
4AF
  0
DICTIONARY
  5
3E1
102
{ACAD_REACTORS
330
C
102
}
330
C
100
AcDbDictionary
281
     1
  3
AcMgSettings
350
3E2
  3
AMGLAYCFG
350
4B1
  0
XRECORD
  5
4A3
102
{ACAD_REACTORS
330
C
102
}
330
C
100
AcDbXrecord
280
     1
  1
DWGPROPS COOKIE
  2

  3

  4

  6

  7

  8

  9

300
AmdtFileType=84
301
=
302
=
303
=
304
=
305
=
306
=
307
=
308
=
309
=
 40
0.0000168634259259
 41
2457688.604945659
 42
2457688.604946748
  1

 90
        1
  0
DICTIONARY
  5
4DC
102
{ACAD_REACTORS
330
4DB
102
}
330
4DB
100
AcDbDictionary
281
     1
  3
*A1
350
4DD
  0
LAYOUT
  5
1E
102
{ACAD_REACTORS
330
1A
102
}
330
1A
100
AcDbPlotSettings
  1

  2
none_device
  4

  6

 40
0.0
 41
0.0
 42
0.0
 43
0.0
 44
0.0
 45
0.0
 46
0.0
 47
0.0
 48
0.0
 49
0.0
140
0.0
141
0.0
142
1.0
143
1.0
 70
   688
 72
     1
 73
     0
 74
     5
  7

 75
    16
147
1.0
148
0.0
149
0.0
100
AcDbLayout
  1
Layout1
 70
     1
 71
     1
 10
0.0
 20
0.0
 11
420.0
 21
297.0
 12
0.0
 22
0.0
 32
0.0
 14
1.000000000000000E+20
 24
1.000000000000000E+20
 34
1.000000000000000E+20
 15
-1.000000000000000E+20
 25
-1.000000000000000E+20
 35
-1.000000000000000E+20
146
0.0
 13
0.0
 23
0.0
 33
0.0
 16
1.0
 26
0.0
 36
0.0
 17
0.0
 27
1.0
 37
0.0
 76
     0
330
1B
  0
LAYOUT
  5
26
102
{ACAD_REACTORS
330
1A
102
}
330
1A
100
AcDbPlotSettings
  1

  2
none_device
  4

  6

 40
0.0
 41
0.0
 42
0.0
 43
0.0
 44
0.0
 45
0.0
 46
0.0
 47
0.0
 48
0.0
 49
0.0
140
0.0
141
0.0
142
1.0
143
1.0
 70
   688
 72
     1
 73
     0
 74
     5
  7

 75
    16
147
1.0
148
0.0
149
0.0
100
AcDbLayout
  1
Layout2
 70
     1
 71
     2
 10
0.0
 20
0.0
 11
0.0
 21
0.0
 12
0.0
 22
0.0
 32
0.0
 14
0.0
 24
0.0
 34
0.0
 15
0.0
 25
0.0
 35
0.0
146
0.0
 13
0.0
 23
0.0
 33
0.0
 16
1.0
 26
0.0
 36
0.0
 17
0.0
 27
1.0
 37
0.0
 76
     0
330
23
  0
LAYOUT
  5
22
102
{ACAD_REACTORS
330
1A
102
}
330
1A
100
AcDbPlotSettings
  1

  2
none_device
  4
Letter_(8.50_x_11.00_Inches)
  6

 40
6.349999999999999
 41
6.349999999999999
 42
6.350005079999999
 43
6.350005079999999
 44
215.8999999999999
 45
279.4
 46
0.0
 47
0.0
 48
0.0
 49
0.0
140
0.0
141
0.0
142
1.0
143
1.0
 70
  1712
 72
     1
 73
     0
 74
     0
  7

 75
     0
147
1.0
148
0.0
149
0.0
100
AcDbLayout
  1
Model
 70
     1
 71
     0
 10
0.0
 20
0.0
 11
420.0
 21
297.0
 12
0.0
 22
0.0
 32
0.0
 14
0.0
 24
0.0
 34
0.0
 15
420.0
 25
297.0
 35
0.0
146
0.0
 13
0.0
 23
0.0
 33
0.0
 16
1.0
 26
0.0
 36
0.0
 17
0.0
 27
1.0
 37
0.0
 76
     0
330
1F
  0
MLINESTYLE
  5
18
102
{ACAD_REACTORS
330
17
102
}
330
17
100
AcDbMlineStyle
  2
STANDARD
 70
     0
  3

 62
   256
 51
90.0
 52
90.0
 71
     2
 49
0.5
 62
   256
  6
BYLAYER
 49
-0.5
 62
   256
  6
BYLAYER
  0
ACDBPLACEHOLDER
  5
F
102
{ACAD_REACTORS
330
E
102
}
330
E
  0
ACAD_PROXY_OBJECT
  5
48
102
{ACAD_REACTORS
330
47
102
}
330
47
100
AcDbProxyObject
 90
      499
 91
      503
 95
   655383
 70
     0
 93
       41
310
903313A3158C
 94
        0
  0
ACAD_PROXY_OBJECT
  5
49
102
{ACAD_REACTORS
330
47
102
}
330
47
100
AcDbProxyObject
 90
      499
 91
      503
 95
   655383
 70
     0
 93
      105
310
903313A324000000000000004000
 94
        0
  0
ACAD_PROXY_OBJECT
  5
4A
102
{ACAD_REACTORS
330
47
102
}
330
47
100
AcDbProxyObject
 90
      499
 91
      503
 95
   655383
 70
     0
 93
      105
310
903313A344000000000000104000
 94
        0
  0
ACAD_PROXY_OBJECT
  5
4B
102
{ACAD_REACTORS
330
47
102
}
330
47
100
AcDbProxyObject
 90
      499
 91
      503
 95
   655383
 70
     0
 93
      105
310
903313A354000000000000144000
 94
        0
  0
ACAD_PROXY_OBJECT
  5
4C
102
{ACAD_REACTORS
330
47
102
}
330
47
100
AcDbProxyObject
 90
      499
 91
      503
 95
   655383
 70
     0
 93
      105
310
903313A384000000000000204000
 94
        0
  0
ACAD_PROXY_OBJECT
  5
4D
102
{ACAD_REACTORS
330
47
102
}
330
47
100
AcDbProxyObject
 90
      499
 91
      503
 95
   655383
 70
     0
 93
      113
310
904313A3130400000000000024405F
 94
        0
  0
ACAD_PROXY_OBJECT
  5
4E
102
{ACAD_REACTORS
330
47
102
}
330
47
100
AcDbProxyObject
 90
      499
 91
      503
 95
   655383
 70
     0
 93
      113
310
904313A3136400000000000030405F
 94
        0
  0
ACAD_PROXY_OBJECT
  5
4F
102
{ACAD_REACTORS
330
47
102
}
330
47
100
AcDbProxyObject
 90
      499
 91
      503
 95
   655383
 70
     0
 93
      113
310
904313A3230400000000000034405F
 94
        0
  0
ACAD_PROXY_OBJECT
  5
50
102
{ACAD_REACTORS
330
47
102
}
330
47
100
AcDbProxyObject
 90
      499
 91
      503
 95
   655383
 70
     0
 93
      113
310
904313A333040000000000003E405F
 94
        0
  0
ACAD_PROXY_OBJECT
  5
51
102
{ACAD_REACTORS
330
47
102
}
330
47
100
AcDbProxyObject
 90
      499
 91
      503
 95
   655383
 70
     0
 93
      113
310
904313A3430400000000000044405F
 94
        0
  0
ACAD_PROXY_OBJECT
  5
52
102
{ACAD_REACTORS
330
47
102
}
330
47
100
AcDbProxyObject
 90
      499
 91
      503
 95
   655383
 70
     0
 93
      113
310
904313A3530400000000000049405F
 94
        0
  0
ACAD_PROXY_OBJECT
  5
53
102
{ACAD_REACTORS
330
47
102
}
330
47
100
AcDbProxyObject
 90
      499
 91
      503
 95
   655383
 70
     0
 93
      121
310
905313A3130304000000000000594015
 94
        0
  0
ACAD_PROXY_OBJECT
  5
54
102
{ACAD_REACTORS
330
47
102
}
330
47
100
AcDbProxyObject
 90
      499
 91
      503
 95
   655383
 70
     0
 93
      105
310
903323A310000000000000010159
 94
        0
  0
ACAD_PROXY_OBJECT
  5
55
102
{ACAD_REACTORS
330
47
102
}
330
47
100
AcDbProxyObject
 90
      499
 91
      503
 95
   655383
 70
     0
 93
      105
310
903343A310000000000000410159
 94
        0
  0
ACAD_PROXY_OBJECT
  5
56
102
{ACAD_REACTORS
330
47
102
}
330
47
100
AcDbProxyObject
 90
      499
 91
      503
 95
   655383
 70
     0
 93
      105
310
903383A310000000000000810159
 94
        0
  0
ACAD_PROXY_OBJECT
  5
57
102
{ACAD_REACTORS
330
47
102
}
330
47
100
AcDbProxyObject
 90
      499
 91
      503
 95
   655383
 70
     0
 93
      113
310
90431303A310000000000000910140
 94
        0
  0
ACAD_PROXY_OBJECT
  5
58
102
{ACAD_REACTORS
330
47
102
}
330
47
100
AcDbProxyObject
 90
      499
 91
      503
 95
   655383
 70
     0
 93
      121
310
9053130303A310000000000001650115
 94
        0
  0
ACAD_PROXY_OBJECT
  5
59
102
{ACAD_REACTORS
330
47
102
}
330
47
100
AcDbProxyObject
 90
      499
 91
      503
 95
   655383
 70
     0
 93
      257
310
90E312F31323822203D2031272D3022000000000000200FC000000000000284000
 94
        0
  0
ACAD_PROXY_OBJECT
  5
5A
102
{ACAD_REACTORS
330
47
102
}
330
47
100
AcDbProxyObject
 90
      499
 91
      503
 95
   655383
 70
     0
 93
      249
310
90D312F363422203D2031272D3022000000000000240FC000000000000284040
 94
        0
  0
ACAD_PROXY_OBJECT
  5
5B
102
{ACAD_REACTORS
330
47
102
}
330
47
100
AcDbProxyObject
 90
      499
 91
      503
 95
   655383
 70
     0
 93
      249
310
90D312F333222203D2031272D3022000000000000280FC000000000000284040
 94
        0
  0
ACAD_PROXY_OBJECT
  5
5C
102
{ACAD_REACTORS
330
47
102
}
330
47
100
AcDbProxyObject
 90
      499
 91
      503
 95
   655383
 70
     0
 93
      249
310
90D312F313622203D2031272D30220000000000002C0FC000000000000284040
 94
        0
  0
ACAD_PROXY_OBJECT
  5
5D
102
{ACAD_REACTORS
330
47
102
}
330
47
100
AcDbProxyObject
 90
      499
 91
      503
 95
   655383
 70
     0
 93
      249
310
90D332F333222203D2031272D30220000000000002E0FC000000000000284040
 94
        0
  0
ACAD_PROXY_OBJECT
  5
5E
102
{ACAD_REACTORS
330
47
102
}
330
47
100
AcDbProxyObject
 90
      499
 91
      503
 95
   655383
 70
     0
 93
      241
310
90C312F3822203D2031272D3022000000000000300FC000000000000284040
 94
        0
  0
ACAD_PROXY_OBJECT
  5
5F
102
{ACAD_REACTORS
330
47
102
}
330
47
100
AcDbProxyObject
 90
      499
 91
      503
 95
   655383
 70
     0
 93
      249
310
90D332F313622203D2031272D3022000000000000320FC000000000000284040
 94
        0
  0
ACAD_PROXY_OBJECT
  5
60
102
{ACAD_REACTORS
330
47
102
}
330
47
100
AcDbProxyObject
 90
      499
 91
      503
 95
   655383
 70
     0
 93
      241
310
90C312F3422203D2031272D3022000000000000340FC000000000000284040
 94
        0
  0
ACAD_PROXY_OBJECT
  5
61
102
{ACAD_REACTORS
330
47
102
}
330
47
100
AcDbProxyObject
 90
      499
 91
      503
 95
   655383
 70
     0
 93
      241
310
90C332F3822203D2031272D3022000000000000360FC000000000000284040
 94
        0
  0
ACAD_PROXY_OBJECT
  5
62
102
{ACAD_REACTORS
330
47
102
}
330
47
100
AcDbProxyObject
 90
      499
 91
      503
 95
   655383
 70
     0
 93
      241
310
90C312F3222203D2031272D3022000000000000380FC000000000000284040
 94
        0
  0
ACAD_PROXY_OBJECT
  5
63
102
{ACAD_REACTORS
330
47
102
}
330
47
100
AcDbProxyObject
 90
      499
 91
      503
 95
   655383
 70
     0
 93
      241
310
90C332F3422203D2031272D30220000000000003A0FC000000000000284040
 94
        0
  0
ACAD_PROXY_OBJECT
  5
64
102
{ACAD_REACTORS
330
47
102
}
330
47
100
AcDbProxyObject
 90
      499
 91
      503
 95
   655383
 70
     0
 93
      161
310
90A3122203D2031272D30224000000000000284020
 94
        0
  0
ACAD_PROXY_OBJECT
  5
65
102
{ACAD_REACTORS
330
47
102
}
330
47
100
AcDbProxyObject
 90
      499
 91
      503
 95
   655383
 70
     0
 93
      257
310
90E312D312F3222203D2031272D30220000000000003E0FC000000000000284000
 94
        0
  0
ACAD_PROXY_OBJECT
  5
66
102
{ACAD_REACTORS
330
47
102
}
330
47
100
AcDbProxyObject
 90
      499
 91
      503
 95
   655383
 70
     0
 93
      225
310
90A3322203D2031272D302200000000000002100000000000000284000
 94
        0
  0
ACAD_PROXY_OBJECT
  5
67
102
{ACAD_REACTORS
330
47
102
}
330
47
100
AcDbProxyObject
 90
      499
 91
      503
 95
   655383
 70
     0
 93
      225
310
90A3622203D2031272D302200000000000006100000000000000284000
 94
        0
  0
ACAD_PROXY_OBJECT
  5
68
102
{ACAD_REACTORS
330
47
102
}
330
47
100
AcDbProxyObject
 90
      499
 91
      503
 95
   655383
 70
     0
 93
      249
310
90D31272D3022203D2031272D30220000000000000A100000000000000284040
 94
        0
  0
DICTIONARYVAR
  5
3EE
102
{ACAD_REACTORS
330
3ED
102
}
330
3ED
100
DictionaryVariables
280
     0
  1
1
  0
ACMDATADICTIONARY
  5
4A1
102
{ACAD_REACTORS
330
4A0
102
}
330
4A0
100
AcDbDictionary
281
     1
  3
*A1
350
4A2
100
AcmDataDictionary
  0
DICTIONARY
  5
4AF
102
{ACAD_REACTORS
330
4A0
102
}
330
4A0
100
AcDbDictionary
281
     1
  3
ISO
350
4B0
  0
DICTIONARY
  5
3E2
102
{ACAD_REACTORS
330
3E1
102
}
330
3E1
100
AcDbDictionary
281
     1
  3
DWGSETTINGS
350
3E3
  3
TRANSSETTINGS
350
3E7
  0
LAYER_INDEX
  5
4DD
102
{ACAD_REACTORS
330
4DC
102
}
330
4DC
100
AcDbIndex
 40
2457690.489742997
100
AcDbLayerIndex
  8
0
360
4DE
 90
      874
  0
ACMDATAENTRYBLOCK
  5
4A2
102
{ACAD_REACTORS
330
4A1
102
}
330
4A1
100
AcmDataEntry
100
AcmDataEntryBlock
  0
IDBUFFER
  5
4DE
330
0
100
AcDbIdBuffer
330
263
330
264
330
265
330
266
330
267
330
268
330
269
330
26A
330
26B
330
26C
330
26D
330
26E
330
26F
330
270
330
271
330
272
330
273
330
274
330
275
330
276
330
277
330
278
330
279
330
27A
330
27B
330
27C
330
27D
330
27E
330
27F
330
280
330
281
330
282
330
283
330
284
330
285
330
286
330
287
330
288
330
289
330
28A
330
28B
330
28C
330
28D
330
28E
330
28F
330
290
330
291
330
292
330
293
330
294
330
295
330
296
330
297
330
298
330
299
330
29A
330
29B
330
29C
330
29D
330
29E
330
29F
330
2A0
330
2A1
330
2A2
330
2A3
330
2A4
330
2A5
330
2A6
330
2A7
330
2A8
330
2A9
330
2AA
330
2AB
330
2AC
330
2AD
330
2AE
330
2AF
330
2B0
330
2B1
330
2B2
330
2B3
330
2B4
330
2B5
330
2B6
330
2B7
330
2B8
330
2B9
330
2BA
330
2BB
330
2BC
330
2BD
330
2BE
330
2BF
330
2C0
330
2C1
330
2C2
330
2C3
330
2C4
330
2C5
330
2C6
330
2C7
330
2C8
330
2C9
330
2CA
330
2CB
330
2CC
330
2CD
330
2CE
330
2CF
330
2D0
330
2D1
330
2D2
330
2D3
330
2D4
330
2D5
330
2D6
330
2D7
330
2D8
330
2D9
330
2DA
330
2DB
330
2DC
330
2DD
330
2DE
330
2DF
330
2E0
330
2E1
330
2E2
330
2E3
330
2E4
330
2E5
330
2E6
330
2E7
330
2E8
330
2E9
330
2EA
330
2EB
330
2EC
330
2ED
330
2EE
330
2EF
330
2F0
330
2F1
330
2F2
330
2F3
330
2F4
330
2F5
330
2F6
330
2F7
330
2F8
330
2F9
330
2FA
330
2FB
330
2FC
330
2FD
330
2FE
330
2FF
330
300
330
301
330
302
330
303
330
304
330
305
330
306
330
307
330
308
330
309
330
30A
330
30B
330
30C
330
30D
330
30E
330
30F
330
310
330
311
330
312
330
313
330
314
330
315
330
316
330
317
330
318
330
319
330
31A
330
31B
330
31C
330
31D
330
31E
330
31F
330
320
330
321
330
322
330
323
330
324
330
325
330
326
330
327
330
328
330
329
330
32A
330
32B
330
32C
330
32D
330
32E
330
32F
330
330
330
331
330
332
330
333
330
334
330
335
330
336
330
337
330
338
330
339
330
33A
330
33B
330
33C
330
33D
330
33E
330
33F
330
340
330
341
330
342
330
343
330
344
330
345
330
346
330
347
330
348
330
349
330
34A
330
34B
330
34C
330
34D
330
34E
330
34F
330
350
330
351
330
352
330
353
330
354
330
355
330
356
330
357
330
358
330
359
330
35A
330
35B
330
35C
330
35D
330
35E
330
35F
330
360
330
361
330
362
330
363
330
364
330
365
330
366
330
367
330
368
330
369
330
36A
330
36B
330
36C
330
36D
330
36E
330
36F
330
370
330
371
330
372
330
373
330
374
330
375
330
376
330
377
330
378
330
379
330
37A
330
37B
330
37C
330
37D
330
37E
330
37F
330
380
330
381
330
382
330
383
330
384
330
385
330
386
330
387
330
388
330
389
330
38A
330
38B
330
38C
330
38D
330
38E
330
38F
330
390
330
391
330
392
330
393
330
394
330
395
330
396
330
397
330
398
330
399
330
39A
330
39B
330
39C
330
39D
330
39E
330
39F
330
3A0
330
3A1
330
3A2
330
3A3
330
3A4
330
3A5
330
3A6
330
3A7
330
3A8
330
3A9
330
3AA
330
3AB
330
3AC
330
3AD
330
3AE
330
3AF
330
3B0
330
3B1
330
3B2
330
3B3
330
3B4
330
3B5
330
3B6
330
3B7
330
3B8
330
3B9
330
3BA
330
3BB
330
3BC
330
3BD
330
3BE
330
3BF
330
3C0
330
3C1
330
3C2
330
3C3
330
3C4
330
3C5
330
3C6
330
3C7
330
3C8
330
3C9
330
3CA
330
3CB
330
3CC
330
3CD
330
3CE
330
3CF
330
3D0
330
3D1
330
3D2
330
3D3
330
3D4
330
3D5
330
3D6
330
3D7
330
3D8
330
3D9
330
3DA
330
3DB
330
3DC
330
73
330
74
330
75
330
76
330
77
330
78
330
79
330
7A
330
7B
330
7C
330
7D
330
7E
330
7F
330
80
330
81
330
82
330
83
330
84
330
85
330
86
330
87
330
88
330
89
330
8A
330
8B
330
8C
330
8D
330
8E
330
8F
330
90
330
91
330
92
330
93
330
94
330
95
330
96
330
97
330
98
330
99
330
9A
330
9B
330
9C
330
9D
330
9E
330
9F
330
A0
330
A1
330
A2
330
A3
330
A4
330
A5
330
A6
330
A7
330
A8
330
A9
330
AA
330
AB
330
AC
330
AD
330
AE
330
AF
330
B0
330
B1
330
B2
330
B3
330
B4
330
B5
330
B6
330
B7
330
B8
330
B9
330
BA
330
BB
330
BC
330
BD
330
BE
330
BF
330
C0
330
C1
330
C2
330
C3
330
C4
330
C5
330
C6
330
C7
330
C8
330
C9
330
CA
330
CB
330
CC
330
CD
330
CE
330
CF
330
D0
330
D1
330
D2
330
D3
330
D4
330
D5
330
D6
330
D7
330
D8
330
D9
330
DA
330
DB
330
DC
330
DD
330
DE
330
DF
330
E0
330
E1
330
E2
330
E3
330
E4
330
E5
330
E6
330
E7
330
E8
330
E9
330
EA
330
EB
330
EC
330
ED
330
EE
330
EF
330
F0
330
F1
330
F2
330
F3
330
F4
330
F5
330
F6
330
F7
330
F8
330
F9
330
FA
330
FB
330
FC
330
FD
330
FE
330
FF
330
100
330
101
330
102
330
103
330
104
330
105
330
106
330
107
330
108
330
109
330
10A
330
10B
330
10C
330
10D
330
10E
330
10F
330
110
330
111
330
112
330
113
330
114
330
115
330
116
330
117
330
118
330
119
330
11A
330
11B
330
11C
330
11D
330
11E
330
11F
330
120
330
121
330
122
330
123
330
124
330
125
330
126
330
127
330
128
330
129
330
12A
330
12B
330
12C
330
12D
330
12E
330
12F
330
130
330
131
330
132
330
133
330
134
330
135
330
136
330
137
330
138
330
139
330
13A
330
13B
330
13C
330
13D
330
13E
330
13F
330
140
330
141
330
142
330
143
330
144
330
145
330
146
330
147
330
148
330
149
330
14A
330
14B
330
14C
330
14D
330
14E
330
14F
330
150
330
151
330
152
330
153
330
154
330
155
330
156
330
157
330
158
330
159
330
15A
330
15B
330
15C
330
15D
330
15E
330
15F
330
160
330
161
330
162
330
163
330
164
330
165
330
166
330
167
330
168
330
169
330
16A
330
16B
330
16C
330
16D
330
16E
330
16F
330
170
330
171
330
172
330
173
330
174
330
175
330
176
330
177
330
178
330
179
330
17A
330
17B
330
17C
330
17D
330
17E
330
17F
330
180
330
181
330
182
330
183
330
184
330
185
330
186
330
187
330
188
330
189
330
18A
330
18B
330
18C
330
18D
330
18E
330
18F
330
190
330
191
330
192
330
193
330
194
330
195
330
196
330
197
330
198
330
199
330
19A
330
19B
330
19C
330
19D
330
19E
330
19F
330
1A0
330
1A1
330
1A2
330
1A3
330
1A4
330
1A5
330
1A6
330
1A7
330
1A8
330
1A9
330
1AA
330
1AB
330
1AC
330
1AD
330
1AE
330
1AF
330
1B0
330
1B1
330
1B2
330
1B3
330
1B4
330
1B5
330
1B6
330
1B7
330
1B8
330
1B9
330
1BA
330
1BB
330
1BC
330
1BD
330
1BE
330
1BF
330
1C0
330
1C1
330
1C2
330
1C3
330
1C4
330
1C5
330
1C6
330
1C7
330
1C8
330
1C9
330
1CA
330
1CB
330
1CC
330
1CD
330
1CE
330
1CF
330
1D0
330
1D1
330
1D2
330
1D3
330
1D4
330
1D5
330
1D6
330
1D7
330
1D8
330
1D9
330
1DA
330
1DB
330
1DC
330
1DD
330
1DE
330
1DF
330
1E0
330
1E1
330
1E2
330
1E3
330
1E4
330
1E5
330
1E6
330
1E7
330
1E8
330
1E9
330
1EA
330
1EB
330
1EC
330
1ED
330
1EE
330
1EF
330
1F0
330
1F1
330
1F2
330
1F3
330
1F4
330
1F5
330
1F6
330
1F7
330
1F8
330
1F9
330
1FA
330
1FB
330
1FC
330
1FD
330
1FE
330
1FF
330
200
330
201
330
202
330
203
330
204
330
205
330
206
330
207
330
208
330
209
330
20A
330
20B
330
20C
330
20D
330
20E
330
20F
330
210
330
211
330
212
330
213
330
214
330
215
330
216
330
217
330
218
330
219
330
21A
330
21B
330
21C
330
21D
330
21E
330
21F
330
220
330
221
330
222
330
223
330
224
330
225
330
226
330
227
330
228
330
229
330
22A
330
22B
330
22C
330
22D
330
22E
330
22F
330
230
330
231
330
232
330
233
330
234
330
235
330
236
330
237
330
238
330
239
330
23A
330
23B
330
23C
330
23D
330
23E
330
23F
330
240
330
241
330
242
330
243
330
244
330
245
330
246
330
247
330
248
330
249
330
24A
330
24B
330
24C
330
24D
330
24E
330
24F
330
250
330
251
330
252
330
253
330
254
330
255
330
256
330
257
330
258
330
259
330
25A
330
25B
330
25C
330
25D
330
25E
330
25F
330
260
330
261
330
262
  0
ENDSEC
  0
EOF
